ISO-10303-21;
HEADER;
FILE_DESCRIPTION (( 'STEP AP203' ),
    '1' );
FILE_NAME ('Frame_Gun-rail.STEP',
    '2018-06-17T19:55:26',
    ( '' ),
    ( '' ),
    'SwSTEP 2.0',
    'SolidWorks 2017',
    '' );
FILE_SCHEMA (( 'CONFIG_CONTROL_DESIGN' ));
ENDSEC;

DATA;
#1 = CARTESIAN_POINT ( 'NONE',  ( -94.00269297798676900, -6.000000000424710000, 23.00526627690035000 ) ) ;
#2 = CARTESIAN_POINT ( 'NONE',  ( -30.51089789091812300, -6.965925826289064200, 20.52964773873030400 ) ) ;
#3 = AXIS2_PLACEMENT_3D ( 'NONE', #166, #287, #57 ) ;
#4 = CARTESIAN_POINT ( 'NONE',  ( 1.170749748409990900, -6.965925826289064200, 0.5921125311373367500 ) ) ;
#5 = PLANE ( 'NONE',  #152 ) ;
#6 = CARTESIAN_POINT ( 'NONE',  ( -0.09177580993186790200, -6.965925826289064200, -0.2178437729516934700 ) ) ;
#7 = CARTESIAN_POINT ( 'NONE',  ( -66.15934233093163600, -5.999999999999994700, 26.18114892087414000 ) ) ;
#8 = VECTOR ( 'NONE', #162, 39.37007874015747400 ) ;
#9 = SECURITY_CLASSIFICATION_LEVEL ( 'unclassified' ) ;
#10 = APPROVAL_ROLE ( '' ) ;
#11 = CARTESIAN_POINT ( 'NONE',  ( -0.09177580993186790200, -6.965925826289064200, -0.2178437729516934700 ) ) ;
#12 = LINE ( 'NONE', #118, #8 ) ;
#13 = ORIENTED_EDGE ( 'NONE', *, *, #268, .F. ) ;
#14 = APPROVAL_STATUS ( 'not_yet_approved' ) ;
#15 = AXIS2_PLACEMENT_3D ( 'NONE', #103, #38, #129 ) ;
#16 = APPROVAL_PERSON_ORGANIZATION ( #208, #113, #10 ) ;
#17 = CC_DESIGN_PERSON_AND_ORGANIZATION_ASSIGNMENT ( #296, #37, ( #140 ) ) ;
#18 = FACE_OUTER_BOUND ( 'NONE', #236, .T. ) ;
#19 = ORIENTED_EDGE ( 'NONE', *, *, #181, .T. ) ;
#20 = DIMENSIONAL_EXPONENTS ( 1.000000000000000000, 0.0000000000000000000, 0.0000000000000000000, 0.0000000000000000000, 0.0000000000000000000, 0.0000000000000000000, 0.0000000000000000000 ) ;
#21 = CARTESIAN_POINT ( 'NONE',  ( 1.170749748409993100, -6.965925826289064200, 0.5921125311373334200 ) ) ;
#22 = COORDINATED_UNIVERSAL_TIME_OFFSET ( 6, 0, .BEHIND. ) ;
#23 = DIRECTION ( 'NONE',  ( -0.0000000000000000000, -0.0000000000000000000, -1.000000000000000000 ) ) ;
#24 = PRODUCT_RELATED_PRODUCT_CATEGORY ( 'detail', '', ( #217 ) ) ;
#25 = LINE ( 'NONE', #273, #111 ) ;
#26 = ORIENTED_EDGE ( 'NONE', *, *, #223, .F. ) ;
#27 = CARTESIAN_POINT ( 'NONE',  ( -103.7512886940357800, -5.999999999999994700, 21.50000000000000700 ) ) ;
#28 = VERTEX_POINT ( 'NONE', #295 ) ;
#29 = CARTESIAN_POINT ( 'NONE',  ( -0.09177580993186827700, -6.965925826289064200, -0.2178437729516949400 ) ) ;
#30 = PRODUCT_DEFINITION_SHAPE ( 'NONE', 'NONE',  #140 ) ;
#31 = EDGE_CURVE ( 'NONE', #271, #250, #25, .T. ) ;
#32 = APPLICATION_CONTEXT ( 'configuration controlled 3d designs of mechanical parts and assemblies' ) ;
#33 = CARTESIAN_POINT ( 'NONE',  ( 1.030995003610596800, -5.999999999999994700, 0.8099563040890486200 ) ) ;
#34 = CALENDAR_DATE ( 2018, 17, 6 ) ;
#35 =( CONVERSION_BASED_UNIT ( 'INCH', #227 ) LENGTH_UNIT ( ) NAMED_UNIT ( #20 ) );
#36 = CC_DESIGN_SECURITY_CLASSIFICATION ( #263, ( #179 ) ) ;
#37 = PERSON_AND_ORGANIZATION_ROLE ( 'creator' ) ;
#38 = DIRECTION ( 'NONE',  ( 0.0000000000000000000, -1.000000000000000000, 0.0000000000000000000 ) ) ;
#39 = LINE ( 'NONE', #197, #172 ) ;
#40 = VERTEX_POINT ( 'NONE', #159 ) ;
#41 = ORIENTED_EDGE ( 'NONE', *, *, #181, .F. ) ;
#42 = CARTESIAN_POINT ( 'NONE',  ( -84.31907934448108200, -5.999999999999994700, 26.33217802282490200 ) ) ;
#43 = ORIENTED_EDGE ( 'NONE', *, *, #214, .T. ) ;
#44 = CARTESIAN_POINT ( 'NONE',  ( -57.25220851603354100, -6.000000000121927400, 25.68246549085482400 ) ) ;
#45 = ADVANCED_FACE ( 'NONE', ( #132 ), #112, .T. ) ;
#46 = CARTESIAN_POINT ( 'NONE',  ( -103.4924696489332700, -6.965925826289064200, 21.50000000000000700 ) ) ;
#47 = ADVANCED_FACE ( 'NONE', ( #104 ), #215, .T. ) ;
#48 = CARTESIAN_POINT ( 'NONE',  ( -56.42747305215719700, -6.965925826410996900, 26.96932490546302900 ) ) ;
#49 = CC_DESIGN_PERSON_AND_ORGANIZATION_ASSIGNMENT ( #144, #256, ( #263 ) ) ;
#50 = CARTESIAN_POINT ( 'NONE',  ( -65.62829969702325200, -6.965925826532930500, 27.26894054986014700 ) ) ;
#51 = DIRECTION ( 'NONE',  ( -0.1397547447993953400, 0.9659258262890696400, 0.2178437729517053200 ) ) ;
#52 = LINE ( 'NONE', #259, #288 ) ;
#53 = CARTESIAN_POINT ( 'NONE',  ( -31.44964500358854000, -6.965925826289064200, 19.35250516910551600 ) ) ;
#54 = CARTESIAN_POINT ( 'NONE',  ( -103.4924696489332700, -6.965925826289064200, 21.50000000000000700 ) ) ;
#55 = CARTESIAN_POINT ( 'NONE',  ( -65.91193339424484100, -6.965925826289064200, 26.10218257112626400 ) ) ;
#56 = CARTESIAN_POINT ( 'NONE',  ( -65.70168850693077900, -5.999999999999994700, 27.61502100959690900 ) ) ;
#57 = DIRECTION ( 'NONE',  ( 0.0000000000000000000, -0.0000000000000000000, -1.000000000000000000 ) ) ;
#58 = FACE_OUTER_BOUND ( 'NONE', #188, .T. ) ;
#59 = EDGE_LOOP ( 'NONE', ( #19, #130, #94, #151 ) ) ;
#60 = CALENDAR_DATE ( 2018, 17, 6 ) ;
#61 = APPROVAL_PERSON_ORGANIZATION ( #280, #244, #206 ) ;
#62 = B_SPLINE_CURVE_WITH_KNOTS ( 'NONE', 3,
 ( #69, #1, #294, #64, #44, #65, #93, #245, #109, #228 ),
 .UNSPECIFIED., .F., .F.,
 ( 4, 2, 2, 2, 4 ),
 ( 0.0000000000000000000, 0.2500000000000000000, 0.5000000000000000000, 0.7500000000000000000, 1.000000000000000000 ),
 .UNSPECIFIED. ) ;
#63 = CARTESIAN_POINT ( 'NONE',  ( -14.22188518160136900, -6.965925826289064200, 12.31272726057746800 ) ) ;
#64 = CARTESIAN_POINT ( 'NONE',  ( -66.15934233093163600, -5.999999999999994700, 26.18114892087414000 ) ) ;
#65 = CARTESIAN_POINT ( 'NONE',  ( -39.99891549224823700, -5.999999999878062900, 22.34913215607196000 ) ) ;
#66 = COORDINATED_UNIVERSAL_TIME_OFFSET ( 6, 0, .BEHIND. ) ;
#67 = ORIENTED_EDGE ( 'NONE', *, *, #31, .F. ) ;
#68 = CC_DESIGN_PERSON_AND_ORGANIZATION_ASSIGNMENT ( #110, #283, ( #179 ) ) ;
#69 = CARTESIAN_POINT ( 'NONE',  ( -103.7512886940357800, -5.999999999999994700, 20.00000000000000000 ) ) ;
#70 = CARTESIAN_POINT ( 'NONE',  ( -98.30127018922220800, -26.33974596215517000, 0.0000000000000000000 ) ) ;
#71 = CARTESIAN_POINT ( 'NONE',  ( -39.99891549224823700, -5.999999999878062900, 22.34913215607196000 ) ) ;
#72 = EDGE_CURVE ( 'NONE', #271, #265, #275, .T. ) ;
#73 = CARTESIAN_POINT ( 'NONE',  ( -30.71400916794177900, -5.999999999999994700, 20.69162482878421700 ) ) ;
#74 = CARTESIAN_POINT ( 'NONE',  ( -93.74385035299303600, -6.965925826713780500, 22.98779244438130600 ) ) ;
#75 = ORIENTED_EDGE ( 'NONE', *, *, #105, .T. ) ;
#76 = CARTESIAN_POINT ( 'NONE',  ( 1.030995003610598800, -5.999999999999994700, 0.8099563040890458400 ) ) ;
#77 = DIRECTION ( 'NONE',  ( -0.2588190451025160800, 0.9659258262890696400, -4.370956789862821900E-015 ) ) ;
#78 = CARTESIAN_POINT ( 'NONE',  ( -15.52141246913836000, -5.999999999999994700, 11.50921597803502800 ) ) ;
#79 = VERTEX_POINT ( 'NONE', #194 ) ;
#80 =( NAMED_UNIT ( * ) PLANE_ANGLE_UNIT ( ) SI_UNIT ( $, .RADIAN. ) );
#81 =( LENGTH_UNIT ( ) NAMED_UNIT ( * ) SI_UNIT ( $, .METRE. ) );
#82 = CALENDAR_DATE ( 2018, 17, 6 ) ;
#83 = ORIENTED_EDGE ( 'NONE', *, *, #72, .T. ) ;
#84 = PLANE ( 'NONE',  #15 ) ;
#85 = PERSON_AND_ORGANIZATION ( #106, #101 ) ;
#86 = APPROVAL_PERSON_ORGANIZATION ( #148, #240, #231 ) ;
#87 = EDGE_CURVE ( 'NONE', #40, #28, #62, .T. ) ;
#88 = EDGE_LOOP ( 'NONE', ( #26, #67, #136, #216 ) ) ;
#89 = CARTESIAN_POINT ( 'NONE',  ( -103.7512886940357800, -5.999999999999994700, 21.50000000000000700 ) ) ;
#90 = CARTESIAN_POINT ( 'NONE',  ( -56.66694022057414100, -6.000000000121927400, 27.07031062622232700 ) ) ;
#91 = ORIENTED_EDGE ( 'NONE', *, *, #105, .F. ) ;
#92 = AXIS2_PLACEMENT_3D ( 'NONE', #70, #242, #108 ) ;
#93 = CARTESIAN_POINT ( 'NONE',  ( -31.65275627961253200, -5.999999999999994700, 19.51448225716007600 ) ) ;
#94 = ORIENTED_EDGE ( 'NONE', *, *, #72, .F. ) ;
#95 = DIRECTION ( 'NONE',  ( -0.5215718081901621300, -0.2588190451025160200, 0.8130040287682875900 ) ) ;
#96 = CARTESIAN_POINT ( 'NONE',  ( -15.06897601243838600, -6.965925826289064200, 12.47932518377661500 ) ) ;
#97 = CARTESIAN_POINT ( 'NONE',  ( -39.78162464880328700, -6.965925826167132400, 22.20655821056631400 ) ) ;
#98 = PERSON_AND_ORGANIZATION ( #106, #101 ) ;
#99 = DIRECTION ( 'NONE',  ( 0.0000000000000000000, 0.0000000000000000000, 1.000000000000000000 ) ) ;
#100 = DIRECTION ( 'NONE',  ( 1.000000000000000000, 0.0000000000000000000, 0.0000000000000000000 ) ) ;
#101 = ORGANIZATION ( 'UNSPECIFIED', 'UNSPECIFIED', '' ) ;
#102 = ORIENTED_EDGE ( 'NONE', *, *, #87, .T. ) ;
#103 = CARTESIAN_POINT ( 'NONE',  ( -103.7512886940357800, -5.999999999999994700, 20.00000000000000000 ) ) ;
#104 = FACE_OUTER_BOUND ( 'NONE', #210, .T. ) ;
#105 = EDGE_CURVE ( 'NONE', #79, #265, #249, .T. ) ;
#106 = PERSON ( 'UNSPECIFIED', 'UNSPECIFIED', 'UNSPECIFIED', ('UNSPECIFIED'), ('UNSPECIFIED'), ('UNSPECIFIED') ) ;
#107 = DATE_AND_TIME ( #34, #277 ) ;
#108 = DIRECTION ( 'NONE',  ( 0.2588190451025160800, -0.9659258262890696400, 0.0000000000000000000 ) ) ;
#109 = CARTESIAN_POINT ( 'NONE',  ( -7.736227862999816900, -5.999999999999994700, 6.338599602862611700 ) ) ;
#110 = PERSON_AND_ORGANIZATION ( #106, #101 ) ;
#111 = VECTOR ( 'NONE', #23, 39.37007874015748100 ) ;
#112 = PLANE ( 'NONE',  #92 ) ;
#113 = APPROVAL ( #147, 'UNSPECIFIED' ) ;
#114 = MANIFOLD_SOLID_BREP ( 'Sweep1', #267 ) ;
#115 = CARTESIAN_POINT ( 'NONE',  ( -65.45427957024398300, -6.965925826289064200, 27.53605465984903200 ) ) ;
#116 = CARTESIAN_POINT ( 'NONE',  ( -84.53458455712375000, -5.999999999999994700, 24.84254931432096200 ) ) ;
#117 = CARTESIAN_POINT ( 'NONE',  ( -31.65275627961253200, -5.999999999999994700, 19.51448225716007600 ) ) ;
#118 = CARTESIAN_POINT ( 'NONE',  ( -103.7512886940357800, -5.999999999999994700, 21.50000000000000700 ) ) ;
#119 = DIRECTION ( 'NONE',  ( 0.1397547447993916500, -0.9659258262890696400, -0.2178437729517076500 ) ) ;
#120 = APPLICATION_PROTOCOL_DEFINITION ( 'international standard', 'config_control_design', 1994, #32 ) ;
#121 = DATE_AND_TIME ( #60, #276 ) ;
#122 = EDGE_CURVE ( 'NONE', #40, #149, #39, .T. ) ;
#123 = CARTESIAN_POINT ( 'NONE',  ( -6.532451267591209600, -5.999999999999994700, 7.240306623414247700 ) ) ;
#124 = PLANE ( 'NONE',  #3 ) ;
#125 = CARTESIAN_POINT ( 'NONE',  ( -30.71400916794177900, -5.999999999999994700, 20.69162482878421700 ) ) ;
#126 = CC_DESIGN_PERSON_AND_ORGANIZATION_ASSIGNMENT ( #85, #150, ( #179 ) ) ;
#127 = ORIENTED_EDGE ( 'NONE', *, *, #214, .F. ) ;
#128 = B_SPLINE_SURFACE_WITH_KNOTS ( 'NONE', 1, 3, ( 
 ( #248, #74, #143, #55, #145, #97, #53, #251, #204, #29 ),
 ( #163, #178, #116, #7, #199, #71, #117, #78, #224, #252 ) ),
 .UNSPECIFIED., .F., .F., .F.,
 ( 2, 2 ),
 ( 4, 2, 2, 2, 4 ),
 ( 0.0000000000000000000, 1.000000000000000000 ),
 ( 0.0000000000000000000, 0.2500000000000000000, 0.5000000000000000000, 0.7500000000000000000, 1.000000000000000000 ),
 .UNSPECIFIED. ) ;
#129 = DIRECTION ( 'NONE',  ( 0.0000000000000000000, -0.0000000000000000000, -1.000000000000000000 ) ) ;
#130 = ORIENTED_EDGE ( 'NONE', *, *, #193, .F. ) ;
#131 = APPROVAL_DATE_TIME ( #195, #113 ) ;
#132 = FACE_OUTER_BOUND ( 'NONE', #88, .T. ) ;
#133 = EDGE_LOOP ( 'NONE', ( #13, #241, #170, #281 ) ) ;
#134 = CARTESIAN_POINT ( 'NONE',  ( -84.06204982470477200, -6.965925826289064200, 26.29499345319531800 ) ) ;
#135 = ADVANCED_FACE ( 'NONE', ( #18 ), #128, .T. ) ;
#136 = ORIENTED_EDGE ( 'NONE', *, *, #153, .F. ) ;
#137 = DIRECTION ( 'NONE',  ( 0.0000000000000000000, 0.0000000000000000000, 1.000000000000000000 ) ) ;
#138 = DIRECTION ( 'NONE',  ( 0.1397547447993916500, -0.9659258262890696400, -0.2178437729517076500 ) ) ;
#139 = LOCAL_TIME ( 14, 55, 26.00000000000000000, #190 ) ;
#140 = PRODUCT_DEFINITION ( 'UNKNOWN', '', #179, #257 ) ;
#141 = CARTESIAN_POINT ( 'NONE',  ( -0.2315305547312626100, -5.999999999999994700, 1.748382715945128500E-014 ) ) ;
#142 = CARTESIAN_POINT ( 'NONE',  ( -83.99455284974914100, -6.965925827138526000, 25.97579274821388800 ) ) ;
#143 = CARTESIAN_POINT ( 'NONE',  ( -84.27755503734744000, -6.965925826289064200, 24.80536474469137800 ) ) ;
#144 = PERSON_AND_ORGANIZATION ( #106, #101 ) ;
#145 = CARTESIAN_POINT ( 'NONE',  ( -57.01274134761659700, -6.965925826410996900, 25.58147977009554100 ) ) ;
#146 = CARTESIAN_POINT ( 'NONE',  ( -39.17262035638163600, -5.999999999878062900, 23.60845318083556800 ) ) ;
#147 = APPROVAL_STATUS ( 'not_yet_approved' ) ;
#148 = PERSON_AND_ORGANIZATION ( #106, #101 ) ;
#149 = VERTEX_POINT ( 'NONE', #27 ) ;
#150 = PERSON_AND_ORGANIZATION_ROLE ( 'creator' ) ;
#151 = ORIENTED_EDGE ( 'NONE', *, *, #31, .T. ) ;
#152 = AXIS2_PLACEMENT_3D ( 'NONE', #282, #95, #138 ) ;
#153 = EDGE_CURVE ( 'NONE', #149, #271, #12, .T. ) ;
#154 = CALENDAR_DATE ( 2018, 17, 6 ) ;
#155 = CARTESIAN_POINT ( 'NONE',  ( -6.376822479092912700, -6.965925826289064200, 7.032636091889854900 ) ) ;
#156 = ORIENTED_EDGE ( 'NONE', *, *, #268, .T. ) ;
#157 = CARTESIAN_POINT ( 'NONE',  ( -84.06204982470477200, -6.965925826289064200, 26.29499345319531800 ) ) ;
#158 = LOCAL_TIME ( 14, 55, 26.00000000000000000, #22 ) ;
#159 = CARTESIAN_POINT ( 'NONE',  ( -103.7512886940357800, -5.999999999999994700, 20.00000000000000000 ) ) ;
#160 = LINE ( 'NONE', #201, #222 ) ;
#161 = CARTESIAN_POINT ( 'NONE',  ( -38.95532951293668600, -6.965925826167132400, 23.46587923532991800 ) ) ;
#162 = DIRECTION ( 'NONE',  ( 0.2588190451025160800, -0.9659258262890696400, 0.0000000000000000000 ) ) ;
#163 = CARTESIAN_POINT ( 'NONE',  ( -103.7512886940357800, -5.999999999999994700, 20.00000000000000000 ) ) ;
#164 = APPROVAL_DATE_TIME ( #107, #244 ) ;
#165 = CC_DESIGN_DATE_AND_TIME_ASSIGNMENT ( #121, #284, ( #263 ) ) ;
#166 = CARTESIAN_POINT ( 'NONE',  ( -103.4924696489332700, -6.965925826289064200, 20.00000000000000400 ) ) ;
#167 = DIRECTION ( 'NONE',  ( 0.8416837055612408400, 0.0000000000000000000, 0.5399708693926907900 ) ) ;
#168 = CC_DESIGN_DATE_AND_TIME_ASSIGNMENT ( #266, #187, ( #140 ) ) ;
#169 = PERSON_AND_ORGANIZATION_ROLE ( 'design_owner' ) ;
#170 = ORIENTED_EDGE ( 'NONE', *, *, #122, .T. ) ;
#171 = CALENDAR_DATE ( 2018, 17, 6 ) ;
#172 = VECTOR ( 'NONE', #137, 39.37007874015748100 ) ;
#173 = SHAPE_DEFINITION_REPRESENTATION ( #30, #182 ) ;
#174 = CARTESIAN_POINT ( 'NONE',  ( 1.170749748409990900, -6.965925826289064200, 0.5921125311373367500 ) ) ;
#175 = CARTESIAN_POINT ( 'NONE',  ( -6.376822479092912700, -6.965925826289064200, 7.032636091889854900 ) ) ;
#176 = CARTESIAN_POINT ( 'NONE',  ( -93.64277678217983700, -6.965925826713769800, 24.48771990823296100 ) ) ;
#177 = VECTOR ( 'NONE', #51, 39.37007874015747400 ) ;
#178 = CARTESIAN_POINT ( 'NONE',  ( -94.00269297798676900, -6.000000000424710000, 23.00526627690035000 ) ) ;
#179 = PRODUCT_DEFINITION_FORMATION_WITH_SPECIFIED_SOURCE ( 'ANY', '', #217, .NOT_KNOWN. ) ;
#180 = CARTESIAN_POINT ( 'NONE',  ( -14.39409063849187500, -5.999999999999994700, 12.50724216436789700 ) ) ;
#181 = EDGE_CURVE ( 'NONE', #250, #289, #292, .T. ) ;
#182 = ADVANCED_BREP_SHAPE_REPRESENTATION ( 'Frame_Gun-rail', ( #114, #212 ), #255 ) ;
#183 = APPLICATION_PROTOCOL_DEFINITION ( 'international standard', 'config_control_design', 1994, #254 ) ;
#184 =( NAMED_UNIT ( * ) SI_UNIT ( $, .STERADIAN. ) SOLID_ANGLE_UNIT ( ) );
#185 = CARTESIAN_POINT ( 'NONE',  ( -103.4924696489332700, -6.965925826289064200, 21.50000000000000700 ) ) ;
#186 = DATE_AND_TIME ( #82, #139 ) ;
#187 = DATE_TIME_ROLE ( 'creation_date' ) ;
#188 = EDGE_LOOP ( 'NONE', ( #43, #156, #75, #191 ) ) ;
#189 = ADVANCED_FACE ( 'NONE', ( #58 ), #5, .F. ) ;
#190 = COORDINATED_UNIVERSAL_TIME_OFFSET ( 6, 0, .BEHIND. ) ;
#191 = ORIENTED_EDGE ( 'NONE', *, *, #193, .T. ) ;
#192 = CC_DESIGN_APPROVAL ( #244, ( #140 ) ) ;
#193 = EDGE_CURVE ( 'NONE', #265, #289, #290, .T. ) ;
#194 = CARTESIAN_POINT ( 'NONE',  ( 1.030995003610596800, -5.999999999999994700, 0.8099563040890486200 ) ) ;
#195 = DATE_AND_TIME ( #171, #158 ) ;
#196 = ORIENTED_EDGE ( 'NONE', *, *, #258, .F. ) ;
#197 = CARTESIAN_POINT ( 'NONE',  ( -103.7512886940357800, -5.999999999999994700, 20.00000000000000000 ) ) ;
#198 = CARTESIAN_POINT ( 'NONE',  ( -38.95532951293668600, -6.965925826167132400, 23.46587923532991800 ) ) ;
#199 = CARTESIAN_POINT ( 'NONE',  ( -57.25220851603354100, -6.000000000121927400, 25.68246549085482400 ) ) ;
#200 = CARTESIAN_POINT ( 'NONE',  ( 1.030995003610598800, -5.999999999999994700, 0.8099563040890458400 ) ) ;
#201 = CARTESIAN_POINT ( 'NONE',  ( -103.7512886940357800, -5.999999999999994700, 20.00000000000000000 ) ) ;
#202 = CARTESIAN_POINT ( 'NONE',  ( -6.532451267591209600, -5.999999999999994700, 7.240306623414247700 ) ) ;
#203 = CARTESIAN_POINT ( 'NONE',  ( -103.4924696489332700, -6.965925826289064200, 20.00000000000000400 ) ) ;
#204 = CARTESIAN_POINT ( 'NONE',  ( -7.580598732387898900, -6.965925826289064200, 6.130929605769034100 ) ) ;
#205 = CARTESIAN_POINT ( 'NONE',  ( -103.7512886940357800, -5.999999999999994700, 21.50000000000000700 ) ) ;
#206 = APPROVAL_ROLE ( '' ) ;
#207 = CARTESIAN_POINT ( 'NONE',  ( -84.31907934448108200, -5.999999999999994700, 26.33217802282490200 ) ) ;
#208 = PERSON_AND_ORGANIZATION ( #106, #101 ) ;
#209 = COORDINATED_UNIVERSAL_TIME_OFFSET ( 6, 0, .BEHIND. ) ;
#210 = EDGE_LOOP ( 'NONE', ( #83, #91, #196, #262 ) ) ;
#211 = CARTESIAN_POINT ( 'NONE',  ( -56.66694022057414100, -6.000000000121927400, 27.07031062622232700 ) ) ;
#212 = AXIS2_PLACEMENT_3D ( 'NONE', #261, #99, #100 ) ;
#213 = VECTOR ( 'NONE', #279, 39.37007874015748900 ) ;
#214 = EDGE_CURVE ( 'NONE', #289, #28, #230, .T. ) ;
#215 = B_SPLINE_SURFACE_WITH_KNOTS ( 'NONE', 1, 3, ( 
 ( #89, #291, #42, #219, #90, #243, #73, #180, #202, #76 ),
 ( #54, #176, #134, #115, #48, #198, #2, #221, #175, #21 ) ),
 .UNSPECIFIED., .F., .F., .F.,
 ( 2, 2 ),
 ( 4, 2, 2, 2, 4 ),
 ( 0.0000000000000000000, 1.000000000000000000 ),
 ( 0.0000000000000000000, 0.2500000000000000000, 0.5000000000000000000, 0.7500000000000000000, 1.000000000000000000 ),
 .UNSPECIFIED. ) ;
#216 = ORIENTED_EDGE ( 'NONE', *, *, #122, .F. ) ;
#217 = PRODUCT ( 'Frame_Gun-rail', 'Frame_Gun-rail', '', ( #234 ) ) ;
#218 = ORIENTED_EDGE ( 'NONE', *, *, #223, .T. ) ;
#219 = CARTESIAN_POINT ( 'NONE',  ( -65.70168850693077900, -5.999999999999994700, 27.61502100959690900 ) ) ;
#220 = CARTESIAN_POINT ( 'NONE',  ( -65.45427957024398300, -6.965925826289064200, 27.53605465984903200 ) ) ;
#221 = CARTESIAN_POINT ( 'NONE',  ( -14.22188518160136900, -6.965925826289064200, 12.31272726057746800 ) ) ;
#222 = VECTOR ( 'NONE', #77, 39.37007874015747400 ) ;
#223 = EDGE_CURVE ( 'NONE', #250, #40, #160, .T. ) ;
#224 = CARTESIAN_POINT ( 'NONE',  ( -7.736227862999816900, -5.999999999999994700, 6.338599602862611700 ) ) ;
#225 = CC_DESIGN_PERSON_AND_ORGANIZATION_ASSIGNMENT ( #98, #169, ( #217 ) ) ;
#226 = CARTESIAN_POINT ( 'NONE',  ( -103.4924696489332700, -6.965925826289064200, 20.00000000000000400 ) ) ;
#227 = LENGTH_MEASURE_WITH_UNIT ( LENGTH_MEASURE( 0.02539999999999999900 ), #81 );
#228 = CARTESIAN_POINT ( 'NONE',  ( -0.2315305547312626100, -5.999999999999994700, 1.748382715945128500E-014 ) ) ;
#229 = CARTESIAN_POINT ( 'NONE',  ( -14.39409063849187500, -5.999999999999994700, 12.50724216436789700 ) ) ;
#230 = LINE ( 'NONE', #141, #177 ) ;
#231 = APPROVAL_ROLE ( '' ) ;
#232 = CARTESIAN_POINT ( 'NONE',  ( -93.90161896994088400, -6.000000000424700300, 24.50519352454205400 ) ) ;
#233 = CC_DESIGN_APPROVAL ( #113, ( #263 ) ) ;
#234 = MECHANICAL_CONTEXT ( 'NONE', #254, 'mechanical' ) ;
#235 = VECTOR ( 'NONE', #119, 39.37007874015747400 ) ;
#236 = EDGE_LOOP ( 'NONE', ( #102, #127, #41, #218 ) ) ;
#237 = FACE_OUTER_BOUND ( 'NONE', #59, .T. ) ;
#238 = B_SPLINE_CURVE_WITH_KNOTS ( 'NONE', 3,
 ( #205, #232, #207, #56, #211, #146, #125, #229, #123, #33 ),
 .UNSPECIFIED., .F., .F.,
 ( 4, 2, 2, 2, 4 ),
 ( 0.0000000000000000000, 0.2500000000000000000, 0.5000000000000000000, 0.7500000000000000000, 1.000000000000000000 ),
 .UNSPECIFIED. ) ;
#239 = FACE_OUTER_BOUND ( 'NONE', #133, .T. ) ;
#240 = APPROVAL ( #14, 'UNSPECIFIED' ) ;
#241 = ORIENTED_EDGE ( 'NONE', *, *, #87, .F. ) ;
#242 = DIRECTION ( 'NONE',  ( -0.9659258262890696400, -0.2588190451025160800, 0.0000000000000000000 ) ) ;
#243 = CARTESIAN_POINT ( 'NONE',  ( -39.17262035638163600, -5.999999999878062900, 23.60845318083556800 ) ) ;
#244 = APPROVAL ( #286, 'UNSPECIFIED' ) ;
#245 = CARTESIAN_POINT ( 'NONE',  ( -15.52141246913836000, -5.999999999999994700, 11.50921597803502800 ) ) ;
#246 = CARTESIAN_POINT ( 'NONE',  ( -56.42747305215719700, -6.965925826410996900, 26.96932490546302900 ) ) ;
#247 = CC_DESIGN_APPROVAL ( #240, ( #179 ) ) ;
#248 = CARTESIAN_POINT ( 'NONE',  ( -103.4924696489332700, -6.965925826289064200, 20.00000000000000400 ) ) ;
#249 = LINE ( 'NONE', #200, #235 ) ;
#250 = VERTEX_POINT ( 'NONE', #226 ) ;
#251 = CARTESIAN_POINT ( 'NONE',  ( -15.34920701124817000, -6.965925826289064200, 11.31470107224527600 ) ) ;
#252 = CARTESIAN_POINT ( 'NONE',  ( -0.2315305547312626100, -5.999999999999994700, 1.748382715945128500E-014 ) ) ;
#253 = CARTESIAN_POINT ( 'NONE',  ( -0.09177580993186827700, -6.965925826289064200, -0.2178437729516949400 ) ) ;
#254 = APPLICATION_CONTEXT ( 'configuration controlled 3d designs of mechanical parts and assemblies' ) ;
#255 =( GEOMETRIC_REPRESENTATION_CONTEXT ( 3 ) GLOBAL_UNCERTAINTY_ASSIGNED_CONTEXT ( ( #293 ) ) GLOBAL_UNIT_ASSIGNED_CONTEXT ( ( #35, #80, #184 ) ) REPRESENTATION_CONTEXT ( 'NONE', 'WORKASPACE' ) );
#256 = PERSON_AND_ORGANIZATION_ROLE ( 'classification_officer' ) ;
#257 = DESIGN_CONTEXT ( 'detailed design', #32, 'design' ) ;
#258 = EDGE_CURVE ( 'NONE', #149, #79, #238, .T. ) ;
#259 = CARTESIAN_POINT ( 'NONE',  ( -0.2315305547312626100, -5.999999999999994700, 1.748382715945128500E-014 ) ) ;
#260 = COORDINATED_UNIVERSAL_TIME_OFFSET ( 6, 0, .BEHIND. ) ;
#261 = CARTESIAN_POINT ( 'NONE',  ( 0.0000000000000000000, 0.0000000000000000000, 0.0000000000000000000 ) ) ;
#262 = ORIENTED_EDGE ( 'NONE', *, *, #153, .T. ) ;
#263 = SECURITY_CLASSIFICATION ( '', '', #9 ) ;
#264 = APPROVAL_DATE_TIME ( #186, #240 ) ;
#265 = VERTEX_POINT ( 'NONE', #4 ) ;
#266 = DATE_AND_TIME ( #154, #285 ) ;
#267 = CLOSED_SHELL ( 'NONE', ( #269, #135, #272, #47, #189, #45 ) ) ;
#268 = EDGE_CURVE ( 'NONE', #28, #79, #52, .T. ) ;
#269 = ADVANCED_FACE ( 'NONE', ( #239 ), #84, .F. ) ;
#270 = CARTESIAN_POINT ( 'NONE',  ( -30.51089789091812300, -6.965925826289064200, 20.52964773873030400 ) ) ;
#271 = VERTEX_POINT ( 'NONE', #185 ) ;
#272 = ADVANCED_FACE ( 'NONE', ( #237 ), #124, .T. ) ;
#273 = CARTESIAN_POINT ( 'NONE',  ( -103.4924696489332700, -6.965925826289064200, 20.00000000000000400 ) ) ;
#274 = CARTESIAN_POINT ( 'NONE',  ( -93.64277678217983700, -6.965925826713769800, 24.48771990823296100 ) ) ;
#275 = B_SPLINE_CURVE_WITH_KNOTS ( 'NONE', 3,
 ( #46, #274, #157, #220, #246, #161, #270, #63, #155, #174 ),
 .UNSPECIFIED., .F., .F.,
 ( 4, 2, 2, 2, 4 ),
 ( 0.0000000000000000000, 0.2500000000000000000, 0.5000000000000000000, 0.7500000000000000000, 1.000000000000000000 ),
 .UNSPECIFIED. ) ;
#276 = LOCAL_TIME ( 14, 55, 26.00000000000000000, #66 ) ;
#277 = LOCAL_TIME ( 14, 55, 26.00000000000000000, #260 ) ;
#278 = CARTESIAN_POINT ( 'NONE',  ( -31.16606629939663300, -6.965925826045198800, 20.51909743080170400 ) ) ;
#279 = DIRECTION ( 'NONE',  ( -0.8416837055612408400, -0.0000000000000000000, -0.5399708693926907900 ) ) ;
#280 = PERSON_AND_ORGANIZATION ( #106, #101 ) ;
#281 = ORIENTED_EDGE ( 'NONE', *, *, #258, .T. ) ;
#282 = CARTESIAN_POINT ( 'NONE',  ( -14.12235343570564400, -26.33974596215517000, -15.38660915836263000 ) ) ;
#283 = PERSON_AND_ORGANIZATION_ROLE ( 'design_supplier' ) ;
#284 = DATE_TIME_ROLE ( 'classification_date' ) ;
#285 = LOCAL_TIME ( 14, 55, 26.00000000000000000, #209 ) ;
#286 = APPROVAL_STATUS ( 'not_yet_approved' ) ;
#287 = DIRECTION ( 'NONE',  ( 0.0000000000000000000, -1.000000000000000000, 0.0000000000000000000 ) ) ;
#288 = VECTOR ( 'NONE', #167, 39.37007874015748900 ) ;
#289 = VERTEX_POINT ( 'NONE', #11 ) ;
#290 = LINE ( 'NONE', #253, #213 ) ;
#291 = CARTESIAN_POINT ( 'NONE',  ( -93.90161896994088400, -6.000000000424700300, 24.50519352454205400 ) ) ;
#292 = B_SPLINE_CURVE_WITH_KNOTS ( 'NONE', 3,
 ( #203, #142, #50, #278, #96, #6 ),
 .UNSPECIFIED., .F., .F.,
 ( 4, 2, 4 ),
 ( 0.0000000000000000000, 0.5000000000000000000, 1.000000000000000000 ),
 .UNSPECIFIED. ) ;
#293 = UNCERTAINTY_MEASURE_WITH_UNIT (LENGTH_MEASURE( 1.000000000000000100E-005 ), #35, 'distance_accuracy_value', 'NONE');
#294 = CARTESIAN_POINT ( 'NONE',  ( -84.53458455712375000, -5.999999999999994700, 24.84254931432096200 ) ) ;
#295 = CARTESIAN_POINT ( 'NONE',  ( -0.2315305547312626100, -5.999999999999994700, 1.748382715945128500E-014 ) ) ;
#296 = PERSON_AND_ORGANIZATION ( #106, #101 ) ;
ENDSEC;
END-ISO-10303-21;
