0
SECTION
2
HEADER
9
$ACADVER
1
AC1014
9
$HANDSEED
5
FFFF
0
ENDSEC
0
SECTION
2
TABLES
0
TABLE
2
VPORT
5
8
100
AcDbSymbolTable
0
ENDTAB
0
TABLE
2
LTYPE
5
5
100
AcDbSymbolTable
0
LTYPE
5
14
100
AcDbSymbolTableRecord
100
AcDbLinetypeTableRecord
2
BYBLOCK
70
0
0
LTYPE
5
15
100
AcDbSymbolTableRecord
100
AcDbLinetypeTableRecord
2
BYLAYER
70
0
0
ENDTAB
0
TABLE
2
LAYER
5
2
100
AcDbSymbolTable
70
2
0
LAYER
5
50
100
AcDbSymbolTableRecord
100
AcDbLayerTableRecord
2
0
70
0
6
CONTINUOUS
0
ENDTAB
0
TABLE
2
STYLE
5
3
100
AcDbSymbolTable
70
1
0
STYLE
5
11
100
AcDbSymbolTableRecord
100
AcDbTextStyleTableRecord
2
STANDARD
70
0
0
ENDTAB
0
TABLE
2
VIEW
5
6
100
AcDbSymbolTable
70
0
0
ENDTAB
0
TABLE
2
UCS
5
7
100
AcDbSymbolTable
70
0
0
ENDTAB
0
TABLE
2
APPID
5
9
100
AcDbSymbolTable
70
2
0
APPID
5
12
100
AcDbSymbolTableRecord
100
AcDbRegAppTableRecord
2
ACAD
70
0
0
ENDTAB
0
TABLE
2
DIMSTYLE
5
A
100
AcDbSymbolTable
70
1
0
ENDTAB
0
TABLE
2
BLOCK_RECORD
5
1
100
AcDbSymbolTable
70
1
0
BLOCK_RECORD
5
1F
100
AcDbSymbolTableRecord
100
AcDbBlockTableRecord
2
*MODEL_SPACE
0
BLOCK_RECORD
5
1B
100
AcDbSymbolTableRecord
100
AcDbBlockTableRecord
2
*PAPER_SPACE
0
ENDTAB
0
ENDSEC
0
SECTION
2
BLOCKS
0
BLOCK
5
20
100
AcDbEntity
100
AcDbBlockBegin
2
*MODEL_SPACE
0
ENDBLK
5
21
100
AcDbEntity
100
AcDbBlockEnd
0
BLOCK
5
1C
100
AcDbEntity
100
AcDbBlockBegin
2
*PAPER_SPACE
0
ENDBLK
5
1D
100
AcDbEntity
100
AcDbBlockEnd
0
ENDSEC
0
SECTION
2
ENTITIES
0
LWPOLYLINE
5
100
100
AcDbEntity
8
0
100
AcDbPolyline
90
20
70
1
43
0.0
10
-558.05138207382038
20
50.000000000000071
10
-533.05138207382049
20
50.000000000000064
10
-533.05138207382049
20
47.000000000000057
10
-489.05138207382049
20
47.000000000000064
10
-489.05138207382049
20
50.000000000000078
10
-464.05138207382049
20
50.000000000000071
10
-464.05138207382049
20
47.000000000000057
10
-424.05137408679821
20
47.000000000000064
10
-424.05137408679826
20
-9.9999999999999307
10
-464.05137408679832
20
-9.999999999999913
10
-464.05137408679832
20
-12.999999999999915
10
-489.05137408679832
20
-12.999999999999917
10
-489.05137408679826
20
-9.9999999999999147
10
-533.05137408679821
20
-9.9999999999999147
10
-533.05137408679821
20
-12.999999999999915
10
-558.05137408679821
20
-12.999999999999915
10
-558.05137408679809
20
-9.9999999999999147
10
-598.05137408679809
20
-9.9999999999999201
10
-598.05137408679809
20
47.000000000000064
10
-558.05138207382049
20
47.000000000000064
0
LWPOLYLINE
5
101
100
AcDbEntity
8
0
100
AcDbPolyline
90
8
70
1
43
0.0
10
-579.73635046630534
20
7.3960943923637155
42
-0.41421356237310175
10
-575.73635046630523
20
11.396094392363775
10
-573.73635046630523
20
11.396094392363791
42
-0.41421356237309631
10
-569.73635046630523
20
7.3960943923637874
10
-569.73635046630523
20
5.3960943923637235
42
-0.4142135623730846
10
-573.73635046630523
20
1.3960943923638087
10
-575.73635046630534
20
1.3960943923638269
42
-0.4142135623730846
10
-579.73635046630523
20
5.3960943923637412
0
LWPOLYLINE
5
102
100
AcDbEntity
8
0
100
AcDbPolyline
90
8
70
1
43
0.0
10
-569.73635046630523
20
16.396094392363715
42
-0.4142135623730846
10
-573.73635046630523
20
12.396094392363802
10
-575.73635046630534
20
12.396094392363802
42
-0.41421356237308593
10
-579.73635046630523
20
16.396094392363732
10
-579.73635046630523
20
18.396094392363732
42
-0.41421356237308038
10
-575.73635046630523
20
22.396094392363729
10
-573.73635046630523
20
22.396094392363786
42
-0.41421356237309503
10
-569.73635046630523
20
18.396094392363796
0
LWPOLYLINE
5
103
100
AcDbEntity
8
0
100
AcDbPolyline
90
8
70
1
43
0.0
10
-561.73635046630534
20
22.396094392363779
42
-0.41421356237309503
10
-557.73635046630534
20
18.396094392363793
10
-557.73635046630534
20
16.396094392363729
42
-0.41421356237308593
10
-561.73635046630523
20
12.396094392363796
10
-563.73635046630534
20
12.396094392363814
42
-0.41421356237310542
10
-567.73635046630534
20
16.396094392363729
10
-567.73635046630534
20
18.396094392363725
42
-0.41421356237308038
10
-563.73635046630523
20
22.396094392363722
0
LWPOLYLINE
5
104
100
AcDbEntity
8
0
100
AcDbPolyline
90
4
70
1
43
0.0
10
-557.73635046630534
20
10.371333388756995
10
-567.73635046630534
20
10.371333388756996
10
-567.73635046630534
20
0.37133338875699873
10
-557.73635046630534
20
0.37133338875699473
0
LWPOLYLINE
5
105
100
AcDbEntity
8
0
100
AcDbPolyline
90
16
70
1
43
0.0
10
-508.67932341248007
20
1.9924648936933846
42
-0.41421356237306733
10
-511.67932341248013
20
4.9924648936932856
10
-511.67932341248013
20
5.9924648936933345
42
-0.41421356237310719
10
-508.67932341248002
20
8.9924648936934304
10
-505.67932341248002
20
8.9924648936933913
10
-505.67932341248002
20
10.492464893693379
10
-477.67932341248002
20
10.492464893693388
10
-477.67932341248002
20
8.992464893693386
10
-474.67932341248007
20
8.992464893693402
42
-0.41421356237311585
10
-471.67932341248002
20
5.9924648936932883
10
-471.67932341248013
20
4.9924648936933984
42
-0.41421356237310536
10
-474.67932341248002
20
1.9924648936933913
10
-477.6793234124799
20
1.9924648936933922
10
-477.67932341248002
20
-0.0075351063066178559
10
-505.67932341248002
20
-0.007535106306608419
10
-505.67932341248002
20
1.9924648936934022
0
LWPOLYLINE
5
106
100
AcDbEntity
8
0
100
AcDbPolyline
90
4
70
1
43
0.0
10
-532.9818173673026
20
8.6213333887569714
10
-532.9818173673026
20
0.37133338875698862
10
-514.4818173673026
20
0.37133338875698585
10
-514.4818173673026
20
8.6213333887569679
0
LWPOLYLINE
5
107
100
AcDbEntity
8
0
100
AcDbPolyline
90
4
70
1
43
0.0
10
-553.9752457420467
20
30.621333388756984
10
-553.9752457420467
20
0.12133338875699506
10
-537.4752457420467
20
0.12133338875699895
10
-537.47524574204681
20
30.621333388756987
0
LWPOLYLINE
5
108
100
AcDbEntity
8
0
100
AcDbPolyline
90
4
70
1
43
0.0
10
-467.47274817359664
20
32.321453563478798
10
-467.47274817359664
20
14.071453563478798
10
-450.97274817359664
20
14.071453563478798
10
-450.9727481735967
20
32.321453563478798
0
LWPOLYLINE
5
109
100
AcDbEntity
8
0
100
AcDbPolyline
90
8
70
1
43
0.0
10
-575.73635046630534
20
23.396094392363761
42
-0.4142135623730846
10
-579.73635046630523
20
27.396094392363675
10
-579.73635046630523
20
29.396094392363672
42
-0.41421356237308071
10
-575.73635046630523
20
33.396094392363679
10
-573.73635046630523
20
33.396094392363729
42
-0.41421356237309503
10
-569.73635046630523
20
29.396094392363743
10
-569.73635046630523
20
27.396094392363679
42
-0.41421356237308493
10
-573.73635046630523
20
23.396094392363761
0
LWPOLYLINE
5
110
100
AcDbEntity
8
0
100
AcDbPolyline
90
8
70
1
43
0.0
10
-561.73635046630534
20
33.396094392363722
42
-0.41421356237309503
10
-557.73635046630534
20
29.396094392363739
10
-557.73635046630534
20
27.396094392363675
42
-0.41421356237308493
10
-561.73635046630523
20
23.396094392363757
10
-563.73635046630534
20
23.396094392363757
42
-0.4142135623730846
10
-567.73635046630534
20
27.396094392363672
10
-567.73635046630534
20
29.396094392363668
42
-0.41421356237308071
10
-563.73635046630523
20
33.396094392363672
0
LWPOLYLINE
5
111
100
AcDbEntity
8
0
100
AcDbPolyline
90
4
70
1
43
0.0
10
-532.9818173673026
20
18.621333388756991
10
-532.9818173673026
20
10.371333388756989
10
-514.4818173673026
20
10.371333388756984
10
-514.4818173673026
20
18.621333388756987
0
LWPOLYLINE
5
112
100
AcDbEntity
8
0
100
AcDbPolyline
90
16
70
1
43
0.0
10
-475.12274817359662
20
21.021453563478815
42
-0.41421356237308116
10
-478.12274817359651
20
18.021453563478772
10
-482.62827137610481
20
18.021453563478808
10
-482.62827137610486
20
16.521453563478808
10
-501.62827137610486
20
16.521453563478815
10
-501.62827137610486
20
18.021453563478818
10
-505.12274817359668
20
18.021453563478779
42
-0.41421356237308116
10
-508.12274817359662
20
21.021453563478751
10
-508.12274817359662
20
22.02145356347884
42
-0.41421356237309159
10
-505.12274817359668
20
25.021453563478776
10
-501.62827137610486
20
25.021453563478811
10
-501.62827137610486
20
26.521453563478815
10
-482.62827137610486
20
26.521453563478808
10
-482.62827137610486
20
25.021453563478811
10
-478.12274817359662
20
25.021453563478772
42
-0.41421356237309853
10
-475.12274817359651
20
22.021453563478836
0
CIRCLE
5
113
100
AcDbEntity
8
0
100
AcDbCircle
10
-432.68711825568869
20
7.0662370169069488
30
-1.7763568394002505e-014
40
5
0
CIRCLE
5
114
100
AcDbEntity
8
0
100
AcDbCircle
10
-458.7199261872006
20
6.0634012823540235
30
-3.5527136788005009e-014
40
6.9999999999999929
0
ENDSEC
0
SECTION
2
OBJECTS
0
DICTIONARY
5
C
100
AcDbDictionary
3
ACAD_GROUP
350
D
3
ACAD_MLINESTYLE
350
17
0
DICTIONARY
5
D
100
AcDbDictionary
0
DICTIONARY
5
1A
330
C
100
AcDbDictionary
0
DICTIONARY
5
17
100
AcDbDictionary
0
ENDSEC
0
EOF
