  0
SECTION
  2
HEADER
  9
$ACADVER
  1
AC1014
  9
$HANDSEED
  5
FFFF
  9
$MEASUREMENT
 70
     1
  0
ENDSEC
  0
SECTION
  2
TABLES
  0
TABLE
  2
VPORT
  5
8
330
0
100
AcDbSymbolTable
 70
     4
  0
VPORT
  5
2E
330
8
100
AcDbSymbolTableRecord
100
AcDbViewportTableRecord
  2
*ACTIVE
 70
     0
 10
0.0
 20
0.0
 11
1.0
 21
1.0
 12
210.0
 22
148.5
 13
0.0
 23
0.0
 14
10.0
 24
10.0
 15
10.0
 25
10.0
 16
0.0
 26
0.0
 36
1.0
 17
0.0
 27
0.0
 37
0.0
 40
341.0
 41
1.24
 42
50.0
 43
0.0
 44
0.0
 50
0.0
 51
0.0
 71
     0
 72
   100
 73
     1
 74
     3
 75
     0
 76
     0
 77
     0
 78
     0
  0
ENDTAB
  0
TABLE
  2
LTYPE
  5
5
330
0
100
AcDbSymbolTable
 70
     1
  0
LTYPE
  5
14
330
5
100
AcDbSymbolTableRecord
100
AcDbLinetypeTableRecord
  2
BYBLOCK
 70
     0
  3

 72
    65
 73
     0
 40
0.0
  0
LTYPE
  5
15
330
5
100
AcDbSymbolTableRecord
100
AcDbLinetypeTableRecord
  2
BYLAYER
 70
     0
  3

 72
    65
 73
     0
 40
0.0
  0
LTYPE
  5
16
330
5
100
AcDbSymbolTableRecord
100
AcDbLinetypeTableRecord
  2
CONTINUOUS
 70
     0
  3
Solid line
 72
    65
 73
     0
 40
0.0
  0
ENDTAB
  0
TABLE
  2
LAYER
  5
2
100
AcDbSymbolTable
 70
2
  0
LAYER
  5
50
100
AcDbSymbolTableRecord
100
AcDbLayerTableRecord
  2
0
 70
0
  6
CONTINUOUS
  0
LAYER
  5
51
100
AcDbSymbolTableRecord
100
AcDbLayerTableRecord
  2
Layer_1
 70
0
  6
CONTINUOUS
  0
ENDTAB
  0
TABLE
  2
STYLE
  5
3
330
0
100
AcDbSymbolTable
 70
     1
  0
STYLE
  5
11
330
3
100
AcDbSymbolTableRecord
100
AcDbTextStyleTableRecord
  2
STANDARD
 70
     0
 40
0.0
 41
1.0
 50
0.0
 71
     0
 42
2.5
  3
txt
  4

  0
ENDTAB
  0
TABLE
  2
VIEW
  5
6
330
0
100
AcDbSymbolTable
 70
     0
  0
ENDTAB
  0
TABLE
  2
UCS
  5
7
330
0
100
AcDbSymbolTable
 70
     0
  0
ENDTAB
  0
TABLE
  2
APPID
  5
9
330
0
100
AcDbSymbolTable
 70
     2
  0
APPID
  5
12
330
9
100
AcDbSymbolTableRecord
100
AcDbRegAppTableRecord
  2
ACAD
 70
     0
  0
ENDTAB
  0
TABLE
  2
DIMSTYLE
  5
A
330
0
100
AcDbSymbolTable
 70
     1
  0
DIMSTYLE
105
27
330
A
100
AcDbSymbolTableRecord
100
AcDbDimStyleTableRecord
  2
ISO-25
 70
     0
  3

  4

  5

  6

  7

 40
1.0
 41
2.5
 42
0.625
 43
3.75
 44
1.25
 45
0.0
 46
0.0
 47
0.0
 48
0.0
140
2.5
141
2.5
142
0.0
143
0.03937007874016
144
1.0
145
0.0
146
1.0
147
0.625
 71
     0
 72
     0
 73
     0
 74
     0
 75
     0
 76
     0
 77
     1
 78
     8
170
     0
171
     3
172
     1
173
     0
174
     0
175
     0
176
     0
177
     0
178
     0
270
     2
271
     2
272
     2
273
     2
274
     3
340
11
275
     0
280
     0
281
     0
282
     0
283
     0
284
     8
285
     0
286
     0
287
     3
288
     0
  0
ENDTAB
  0
TABLE
  2
BLOCK_RECORD
  5
1
330
0
100
AcDbSymbolTable
 70
     1
  0
BLOCK_RECORD
  5
1F
330
1
100
AcDbSymbolTableRecord
100
AcDbBlockTableRecord
  2
*MODEL_SPACE
  0
BLOCK_RECORD
  5
1B
330
1
100
AcDbSymbolTableRecord
100
AcDbBlockTableRecord
  2
*PAPER_SPACE
  0
ENDTAB
  0
ENDSEC
  0
SECTION
  2
BLOCKS
  0
BLOCK
  5
20
330
1F
100
AcDbEntity
  8
0
100
AcDbBlockBegin
  2
*MODEL_SPACE
 70
     0
 10
0.0
 20
0.0
 30
0.0
  3
*MODEL_SPACE
  1

  0
ENDBLK
  5
21
330
1F
100
AcDbEntity
  8
0
100
AcDbBlockEnd
  0
BLOCK
  5
1C
330
1B
100
AcDbEntity
 67
     1
  8
0
100
AcDbBlockBegin
  2
*PAPER_SPACE
  1

  0
ENDBLK
  5
1D
330
1B
100
AcDbEntity
 67
     1
  8
0
100
AcDbBlockEnd
  0
ENDSEC
  0
SECTION
  2
ENTITIES
  0
SPLINE
  5
100
100
AcDbEntity
  8
Layer_1
 62
7
100
AcDbSpline
 70
0
 71
3
 72
10
 73
6
 74
4
 40
0.000000
 40
0.000000
 40
0.000000
 40
0.000000
 40
4.370306
 40
7.592958
 40
10.637406
 40
10.637406
 40
10.637406
 40
10.637406
 10
-58.716670
 20
459.349884
 30
0.0
 10
-60.149272
 20
459.169665
 30
0.0
 10
-62.638271
 20
458.856554
 30
0.0
 10
-65.760371
 20
455.767799
 30
0.0
 10
-64.401693
 20
453.837560
 30
0.0
 10
-63.741670
 20
452.899884
 30
0.0
 11
-58.716670
 21
459.349884
 31
0.0
 11
-62.928193
 21
458.182558
 31
0.0
 11
-64.967038
 21
455.686842
 31
0.0
 11
-63.741670
 21
452.899884
 31
0.0
  0
SPLINE
  5
101
100
AcDbEntity
  8
Layer_1
 62
7
100
AcDbSpline
 70
0
 71
3
 72
10
 73
6
 74
4
 40
0.000000
 40
0.000000
 40
0.000000
 40
0.000000
 40
19.519895
 40
39.620836
 40
65.263779
 40
65.263779
 40
65.263779
 40
65.263779
 10
-63.741670
 20
452.899884
 30
0.0
 10
-71.655039
 20
453.175523
 30
0.0
 10
-87.717333
 20
453.735005
 30
0.0
 10
-83.198463
 20
424.273422
 30
0.0
 10
-70.330274
 20
416.104301
 30
0.0
 10
-63.116670
 20
411.524884
 30
0.0
 11
-63.741670
 21
452.899884
 31
0.0
 11
-82.917249
 21
449.249748
 31
0.0
 11
-81.709020
 21
429.185153
 31
0.0
 11
-63.116670
 21
411.524884
 31
0.0
  0
SPLINE
  5
102
100
AcDbEntity
  8
Layer_1
 62
7
100
AcDbSpline
 70
0
 71
3
 72
10
 73
6
 74
4
 40
0.000000
 40
0.000000
 40
0.000000
 40
0.000000
 40
49.002113
 40
82.364222
 40
125.897237
 40
125.897237
 40
125.897237
 40
125.897237
 10
-63.116670
 20
411.524884
 30
0.0
 10
-58.034297
 20
394.479114
 30
0.0
 10
-49.491692
 20
365.828074
 30
0.0
 10
-2.282924
 20
356.370503
 30
0.0
 10
19.564653
 20
371.234727
 30
0.0
 10
31.933330
 20
379.649884
 30
0.0
 11
-63.116670
 21
411.524884
 31
0.0
 11
-39.961333
 21
368.338805
 31
0.0
 11
-7.411917
 21
361.019936
 31
0.0
 11
31.933330
 21
379.649884
 31
0.0
  0
SPLINE
  5
103
100
AcDbEntity
  8
Layer_1
 62
7
100
AcDbSpline
 70
0
 71
3
 72
10
 73
6
 74
4
 40
0.000000
 40
0.000000
 40
0.000000
 40
0.000000
 40
54.924631
 40
102.642376
 40
144.783979
 40
144.783979
 40
144.783979
 40
144.783979
 10
31.933330
 20
379.649884
 30
0.0
 10
36.472895
 20
362.244455
 30
0.0
 10
44.956372
 20
329.717435
 30
0.0
 10
62.455293
 20
280.421871
 30
0.0
 10
92.223053
 20
270.263762
 30
0.0
 10
106.183328
 20
265.499884
 30
0.0
 11
31.933330
 21
379.649884
 31
0.0
 11
46.675082
 21
326.740566
 31
0.0
 11
68.460862
 21
284.286321
 31
0.0
 11
106.183328
 21
265.499884
 31
0.0
  0
SPLINE
  5
104
100
AcDbEntity
  8
Layer_1
 62
7
100
AcDbSpline
 70
0
 71
3
 72
10
 73
6
 74
4
 40
0.000000
 40
0.000000
 40
0.000000
 40
0.000000
 40
42.631350
 40
90.630302
 40
146.021105
 40
146.021105
 40
146.021105
 40
146.021105
 10
106.183328
 20
265.049884
 30
0.0
 10
120.440929
 20
269.564353
 30
0.0
 10
150.751268
 20
279.161697
 30
0.0
 10
168.643445
 20
328.960377
 30
0.0
 10
177.166906
 20
361.706324
 30
0.0
 10
181.733328
 20
379.249884
 30
0.0
 11
106.183328
 21
265.049884
 31
0.0
 11
144.706689
 21
283.308653
 31
0.0
 11
166.844330
 21
325.897669
 31
0.0
 11
181.733328
 21
379.249884
 31
0.0
  0
SPLINE
  5
105
100
AcDbEntity
  8
Layer_1
 62
7
100
AcDbSpline
 70
0
 71
3
 72
10
 73
6
 74
4
 40
0.000000
 40
0.000000
 40
0.000000
 40
0.000000
 40
43.524383
 40
76.877392
 40
125.882155
 40
125.882155
 40
125.882155
 40
125.882155
 10
181.733328
 20
379.249884
 30
0.0
 10
194.100543
 20
370.835341
 30
0.0
 10
215.944833
 20
355.972682
 30
0.0
 10
263.141994
 20
365.455382
 30
0.0
 10
271.678758
 20
394.103560
 30
0.0
 10
276.758328
 20
411.149884
 30
0.0
 11
181.733328
 21
379.249884
 31
0.0
 11
221.072093
 21
360.626418
 31
0.0
 11
253.609472
 21
367.957323
 31
0.0
 11
276.758328
 21
411.149884
 31
0.0
  0
SPLINE
  5
106
100
AcDbEntity
  8
Layer_1
 62
7
100
AcDbSpline
 70
0
 71
3
 72
10
 73
6
 74
4
 40
0.000000
 40
0.000000
 40
0.000000
 40
0.000000
 40
25.647642
 40
45.749310
 40
65.262837
 40
65.262837
 40
65.262837
 40
65.262837
 10
276.758328
 20
411.149884
 30
0.0
 10
283.972643
 20
415.728710
 30
0.0
 10
296.841269
 20
423.896249
 30
0.0
 10
301.381680
 20
453.357401
 30
0.0
 10
285.319959
 20
452.799629
 30
0.0
 10
277.408328
 20
452.524884
 30
0.0
 11
276.758328
 21
411.149884
 31
0.0
 11
295.357158
 21
428.810153
 31
0.0
 11
296.577424
 21
448.874748
 31
0.0
 11
277.408328
 21
452.524884
 31
0.0
  0
SPLINE
  5
107
100
AcDbEntity
  8
Layer_1
 62
7
100
AcDbSpline
 70
0
 71
3
 72
10
 73
6
 74
4
 40
0.000000
 40
0.000000
 40
0.000000
 40
0.000000
 40
6.080414
 40
17.973218
 40
42.993393
 40
42.993393
 40
42.993393
 40
42.993393
 10
277.408328
 20
452.524884
 30
0.0
 10
277.075556
 20
454.842369
 30
0.0
 10
276.091908
 20
461.692669
 30
0.0
 10
256.151754
 20
453.895830
 30
0.0
 10
255.857665
 20
440.860457
 30
0.0
 10
255.658328
 20
432.024884
 30
0.0
 11
277.408328
 21
452.524884
 31
0.0
 11
275.568548
 21
458.320282
 31
0.0
 11
263.986764
 21
455.618237
 31
0.0
 11
255.658328
 21
432.024884
 31
0.0
  0
SPLINE
  5
108
100
AcDbEntity
  8
Layer_1
 62
7
100
AcDbSpline
 70
0
 71
3
 72
10
 73
6
 74
4
 40
0.000000
 40
0.000000
 40
0.000000
 40
0.000000
 40
17.407945
 40
33.899461
 40
51.792182
 40
51.792182
 40
51.792182
 40
51.792182
 10
255.658328
 20
432.024884
 30
0.0
 10
251.038278
 20
428.433225
 30
0.0
 10
242.041397
 20
421.438988
 30
0.0
 10
233.146877
 20
406.252934
 30
0.0
 10
229.438222
 20
395.414790
 30
0.0
 10
227.508328
 20
389.774884
 30
0.0
 11
255.658328
 21
432.024884
 31
0.0
 11
242.635467
 21
420.473189
 31
0.0
 11
233.892752
 21
406.489805
 31
0.0
 11
227.508328
 21
389.774884
 31
0.0
  0
SPLINE
  5
109
100
AcDbEntity
  8
Layer_1
 62
7
100
AcDbSpline
 70
0
 71
3
 72
10
 73
6
 74
4
 40
0.000000
 40
0.000000
 40
0.000000
 40
0.000000
 40
25.897548
 40
47.199545
 40
67.105511
 40
67.105511
 40
67.105511
 40
67.105511
 10
227.508328
 20
389.774884
 30
0.0
 10
224.484835
 20
398.097794
 30
0.0
 10
218.974371
 20
413.266704
 30
0.0
 10
198.426132
 20
425.876204
 30
0.0
 10
184.557652
 20
426.027027
 30
0.0
 10
177.858328
 20
426.099884
 30
0.0
 11
227.508328
 21
389.774884
 31
0.0
 11
215.745716
 21
412.847031
 31
0.0
 11
197.664550
 21
424.109646
 31
0.0
 11
177.858328
 21
426.099884
 31
0.0
  0
LWPOLYLINE
  5
10a
100
AcDbEntity
  8
Layer_1
 62
7
100
AcDbPolyline
 90
2
 70
1
 10
106.183328
 20
265.499884
 30
0.0
 10
106.183328
 20
265.049884
 30
0.0
  0
SPLINE
  5
10b
100
AcDbEntity
  8
Layer_1
 62
7
100
AcDbSpline
 70
0
 71
3
 72
10
 73
6
 74
4
 40
0.000000
 40
0.000000
 40
0.000000
 40
0.000000
 40
21.936345
 40
49.329277
 40
72.645453
 40
72.645453
 40
72.645453
 40
72.645453
 10
177.858328
 20
426.099884
 30
0.0
 10
171.172425
 20
429.375984
 30
0.0
 10
156.137525
 20
436.743104
 30
0.0
 10
131.128329
 20
433.647856
 30
0.0
 10
114.759676
 20
429.898738
 30
0.0
 10
107.233328
 20
428.174884
 30
0.0
 11
177.858328
 21
426.099884
 31
0.0
 11
157.415522
 21
434.055696
 31
0.0
 11
130.042534
 21
433.010603
 31
0.0
 11
107.233328
 21
428.174884
 31
0.0
  0
SPLINE
  5
10c
100
AcDbEntity
  8
Layer_1
 62
7
100
AcDbSpline
 70
0
 71
3
 72
10
 73
6
 74
4
 40
0.000000
 40
0.000000
 40
0.000000
 40
0.000000
 40
23.278605
 40
51.130414
 40
73.462137
 40
73.462137
 40
73.462137
 40
73.462137
 10
107.233328
 20
428.324884
 30
0.0
 10
99.727315
 20
430.083808
 30
0.0
 10
83.240693
 20
433.947206
 30
0.0
 10
57.963133
 20
437.193693
 30
0.0
 10
42.631100
 20
429.775837
 30
0.0
 10
35.808330
 20
426.474884
 30
0.0
 11
107.233328
 21
428.324884
 31
0.0
 11
84.485867
 21
433.269220
 31
0.0
 11
56.659940
 21
434.469646
 31
0.0
 11
35.808330
 21
426.474884
 31
0.0
  0
SPLINE
  5
10d
100
AcDbEntity
  8
Layer_1
 62
7
100
AcDbSpline
 70
0
 71
3
 72
10
 73
6
 74
4
 40
0.000000
 40
0.000000
 40
0.000000
 40
0.000000
 40
19.912415
 40
41.224630
 40
67.125123
 40
67.125123
 40
67.125123
 40
67.125123
 10
35.808330
 20
426.474884
 30
0.0
 10
29.107098
 20
426.401718
 30
0.0
 10
15.233552
 20
426.250244
 30
0.0
 10
-5.325591
 20
413.645575
 30
0.0
 10
-10.840977
 20
398.473278
 30
0.0
 10
-13.866670
 20
390.149884
 30
0.0
 11
35.808330
 21
426.474884
 31
0.0
 11
15.995626
 21
424.484646
 31
0.0
 11
-2.097577
 21
413.222031
 31
0.0
 11
-13.866670
 21
390.149884
 31
0.0
  0
SPLINE
  5
10e
100
AcDbEntity
  8
Layer_1
 62
7
100
AcDbSpline
 70
0
 71
3
 72
10
 73
6
 74
4
 40
0.000000
 40
0.000000
 40
0.000000
 40
0.000000
 40
17.898776
 40
34.400499
 40
51.812746
 40
51.812746
 40
51.812746
 40
51.812746
 10
-13.866670
 20
390.149884
 30
0.0
 10
-15.796935
 20
395.791692
 30
0.0
 10
-19.506802
 20
406.634947
 30
0.0
 10
-28.397170
 20
421.831569
 30
0.0
 10
-37.396301
 20
428.831137
 30
0.0
 10
-42.016670
 20
432.424884
 30
0.0
 11
-13.866670
 21
390.149884
 31
0.0
 11
-20.251094
 21
406.871287
 31
0.0
 11
-28.993809
 21
420.866707
 31
0.0
 11
-42.016670
 21
432.424884
 31
0.0
  0
LWPOLYLINE
  5
10f
100
AcDbEntity
  8
Layer_1
 62
7
100
AcDbPolyline
 90
2
 70
1
 10
107.233328
 20
428.174884
 30
0.0
 10
107.233328
 20
428.324884
 30
0.0
  0
SPLINE
  5
110
100
AcDbEntity
  8
Layer_1
 62
7
100
AcDbSpline
 70
0
 71
3
 72
10
 73
6
 74
4
 40
0.000000
 40
0.000000
 40
0.000000
 40
0.000000
 40
16.936327
 40
27.328011
 40
34.501060
 40
34.501060
 40
34.501060
 40
34.501060
 10
-42.016670
 20
432.424884
 30
0.0
 10
-42.631513
 20
438.018870
 30
0.0
 10
-43.623606
 20
447.045178
 30
0.0
 10
-50.358447
 20
457.737779
 30
0.0
 10
-56.293092
 20
458.882433
 30
0.0
 10
-58.716670
 20
459.349884
 30
0.0
 11
-42.016670
 21
432.424884
 31
0.0
 11
-45.529075
 21
448.992991
 31
0.0
 11
-51.863850
 21
457.230571
 31
0.0
 11
-58.716670
 21
459.349884
 31
0.0
  0
SPLINE
  5
111
100
AcDbEntity
  8
Layer_1
 62
1
100
AcDbSpline
 70
0
 71
3
 72
10
 73
6
 74
4
 40
0.000000
 40
0.000000
 40
0.000000
 40
0.000000
 40
12.176057
 40
20.544870
 40
27.609451
 40
27.609451
 40
27.609451
 40
27.609451
 10
263.762880
 20
428.484125
 30
0.0
 10
266.726639
 20
431.303743
 30
0.0
 10
271.727440
 20
436.061331
 30
0.0
 10
275.877380
 20
444.460870
 30
0.0
 10
276.989263
 20
449.490364
 30
0.0
 10
277.498224
 20
451.792597
 30
0.0
 11
263.762880
 21
428.484125
 31
0.0
 11
271.982325
 21
437.467281
 31
0.0
 11
275.718251
 21
444.955932
 31
0.0
 11
277.498224
 21
451.792597
 31
0.0
  0
SPLINE
  5
112
100
AcDbEntity
  8
Layer_1
 62
1
100
AcDbSpline
 70
0
 71
3
 72
10
 73
6
 74
4
 40
0.000000
 40
0.000000
 40
0.000000
 40
0.000000
 40
5.939484
 40
12.302780
 40
19.197690
 40
19.197690
 40
19.197690
 40
19.197690
 10
168.031656
 20
391.440309
 30
0.0
 10
168.931377
 20
389.645957
 30
0.0
 10
170.795018
 20
385.929215
 30
0.0
 10
176.088281
 20
382.069317
 30
0.0
 10
179.824166
 20
379.745760
 30
0.0
 10
181.767008
 20
378.537397
 30
0.0
 11
168.031656
 21
391.440309
 31
0.0
 11
171.087077
 21
386.346993
 31
0.0
 11
175.960195
 21
382.255018
 31
0.0
 11
181.767008
 21
378.537397
 31
0.0
  0
SPLINE
  5
113
100
AcDbEntity
  8
Layer_1
 62
1
100
AcDbSpline
 70
0
 71
3
 72
10
 73
6
 74
4
 40
0.000000
 40
0.000000
 40
0.000000
 40
0.000000
 40
12.176057
 40
20.544870
 40
27.609451
 40
27.609451
 40
27.609451
 40
27.609451
 10
-51.172488
 20
428.862533
 30
0.0
 10
-54.136247
 20
431.682151
 30
0.0
 10
-59.137048
 20
436.439739
 30
0.0
 10
-63.286988
 20
444.839278
 30
0.0
 10
-64.398871
 20
449.868772
 30
0.0
 10
-64.907832
 20
452.171005
 30
0.0
 11
-51.172488
 21
428.862533
 31
0.0
 11
-59.391933
 21
437.845689
 31
0.0
 11
-63.127859
 21
445.334340
 31
0.0
 11
-64.907832
 21
452.171005
 31
0.0
  0
SPLINE
  5
114
100
AcDbEntity
  8
Layer_1
 62
1
100
AcDbSpline
 70
0
 71
3
 72
10
 73
6
 74
4
 40
0.000000
 40
0.000000
 40
0.000000
 40
0.000000
 40
5.939484
 40
12.302780
 40
19.197690
 40
19.197690
 40
19.197690
 40
19.197690
 10
44.558736
 20
391.818717
 30
0.0
 10
43.659015
 20
390.024365
 30
0.0
 10
41.795374
 20
386.307623
 30
0.0
 10
36.502111
 20
382.447725
 30
0.0
 10
32.766226
 20
380.124168
 30
0.0
 10
30.823384
 20
378.915805
 30
0.0
 11
44.558736
 21
391.818717
 31
0.0
 11
41.503315
 21
386.725401
 31
0.0
 11
36.630197
 21
382.633426
 31
0.0
 11
30.823384
 21
378.915805
 31
0.0
  0
SPLINE
  5
115
100
AcDbEntity
  8
Layer_1
 62
1
100
AcDbSpline
 70
0
 71
3
 72
19
 73
15
 74
13
 40
0.000000
 40
0.000000
 40
0.000000
 40
0.000000
 40
2.509740
 40
5.016637
 40
7.738813
 40
10.527379
 40
13.167048
 40
15.748648
 40
18.258387
 40
20.765282
 40
23.487463
 40
26.220829
 40
28.814375
 40
31.351225
 40
31.351225
 40
31.351225
 40
31.351225
 10
107.653352
 20
290.714109
 30
0.0
 10
106.797078
 20
290.619020
 30
0.0
 10
105.085502
 20
290.428950
 30
0.0
 10
102.809845
 20
292.022031
 30
0.0
 10
101.571101
 20
294.486126
 30
0.0
 10
101.587659
 20
297.310254
 30
0.0
 10
102.848496
 20
299.778401
 30
0.0
 10
105.115300
 20
301.274683
 30
0.0
 10
107.803668
 20
301.251079
 30
0.0
 10
110.052900
 20
299.743637
 30
0.0
 10
111.292856
 20
297.265313
 30
0.0
 10
111.278727
 20
294.511675
 30
0.0
 10
110.107157
 20
291.987865
 30
0.0
 10
108.561947
 20
291.165564
 30
0.0
 10
107.797880
 20
290.758957
 30
0.0
 11
107.653352
 21
290.714109
 31
0.0
 11
105.143697
 21
290.734882
 31
0.0
 11
103.040873
 21
292.099675
 31
0.0
 11
101.791848
 21
294.518389
 31
0.0
 11
101.810547
 21
297.306892
 31
0.0
 11
103.038861
 21
299.643364
 31
0.0
 11
105.215704
 21
301.031173
 31
0.0
 11
107.725357
 21
301.010396
 31
0.0
 11
109.828179
 21
299.645604
 31
0.0
 11
111.077208
 21
297.226885
 31
0.0
 11
111.071986
 21
294.493524
 31
0.0
 11
109.899155
 21
292.180313
 31
0.0
 11
107.797880
 21
290.758957
 31
0.0
  0
SPLINE
  5
116
100
AcDbEntity
  8
Layer_1
 62
7
100
AcDbSpline
 70
0
 71
3
 72
10
 73
6
 74
4
 40
0.000000
 40
0.000000
 40
0.000000
 40
0.000000
 40
26.355602
 40
56.207944
 40
86.606611
 40
86.606611
 40
86.606611
 40
86.606611
 10
379.780736
 20
279.052916
 30
0.0
 10
371.057258
 20
277.775675
 30
0.0
 10
352.452912
 20
275.051735
 30
0.0
 10
326.195504
 20
260.892006
 30
0.0
 10
313.507342
 20
245.146869
 30
0.0
 10
307.105736
 20
237.202916
 30
0.0
 11
379.780736
 21
279.052916
 31
0.0
 11
353.953994
 21
273.799616
 31
0.0
 11
327.730649
 21
259.534327
 31
0.0
 11
307.105736
 21
237.202916
 31
0.0
  0
SPLINE
  5
117
100
AcDbEntity
  8
Layer_1
 62
7
100
AcDbSpline
 70
0
 71
3
 72
10
 73
6
 74
4
 40
0.000000
 40
0.000000
 40
0.000000
 40
0.000000
 40
27.023584
 40
47.881915
 40
65.856286
 40
65.856286
 40
65.856286
 40
65.856286
 10
307.105736
 20
237.202916
 30
0.0
 10
308.613386
 20
228.431360
 30
0.0
 10
311.284726
 20
212.889420
 30
0.0
 10
321.206846
 20
191.335097
 30
0.0
 10
334.023385
 20
187.211563
 30
0.0
 10
339.955736
 20
185.302916
 30
0.0
 11
307.105736
 21
237.202916
 31
0.0
 11
313.075649
 21
210.847001
 31
0.0
 11
323.651092
 21
192.868404
 31
0.0
 11
339.955736
 21
185.302916
 31
0.0
  0
SPLINE
  5
118
100
AcDbEntity
  8
Layer_1
 62
7
100
AcDbSpline
 70
0
 71
3
 72
10
 73
6
 74
4
 40
0.000000
 40
0.000000
 40
0.000000
 40
0.000000
 40
17.915092
 40
29.906024
 40
34.352119
 40
34.352119
 40
34.352119
 40
34.352119
 10
339.955736
 20
185.302916
 30
0.0
 10
334.897241
 20
184.296955
 30
0.0
 10
326.452994
 20
182.617684
 30
0.0
 10
309.799998
 20
176.032078
 30
0.0
 10
314.349995
 20
171.640741
 30
0.0
 10
315.580736
 20
170.452916
 30
0.0
 11
339.955736
 21
185.302916
 31
0.0
 11
322.607950
 21
180.830237
 31
0.0
 11
312.804426
 21
173.925648
 31
0.0
 11
315.580736
 21
170.452916
 31
0.0
  0
SPLINE
  5
119
100
AcDbEntity
  8
Layer_1
 62
7
100
AcDbSpline
 70
0
 71
3
 72
10
 73
6
 74
4
 40
0.000000
 40
0.000000
 40
0.000000
 40
0.000000
 40
7.908087
 40
12.324344
 40
25.529090
 40
25.529090
 40
25.529090
 40
25.529090
 10
315.580736
 20
170.452916
 30
0.0
 10
313.399873
 20
168.173375
 30
0.0
 10
310.001111
 20
164.620828
 30
0.0
 10
316.968424
 20
156.661738
 30
0.0
 10
322.448844
 20
161.829970
 30
0.0
 10
326.555736
 20
165.702916
 30
0.0
 11
315.580736
 21
170.452916
 31
0.0
 11
311.822398
 21
163.494990
 31
0.0
 11
314.612069
 21
160.071386
 31
0.0
 11
326.555736
 21
165.702916
 31
0.0
  0
SPLINE
  5
11a
100
AcDbEntity
  8
Layer_1
 62
7
100
AcDbSpline
 70
0
 71
3
 72
10
 73
6
 74
4
 40
0.000000
 40
0.000000
 40
0.000000
 40
0.000000
 40
8.085850
 40
13.510404
 40
25.439161
 40
25.439161
 40
25.439161
 40
25.439161
 10
326.555736
 20
165.702916
 30
0.0
 10
323.921567
 20
163.146975
 30
0.0
 10
319.520212
 20
158.876331
 30
0.0
 10
330.339184
 20
155.040741
 30
0.0
 10
334.704793
 20
159.463019
 30
0.0
 10
337.705736
 20
162.502916
 30
0.0
 11
326.555736
 21
165.702916
 31
0.0
 11
322.287853
 21
158.835155
 31
0.0
 11
327.278457
 21
156.709205
 31
0.0
 11
337.705736
 21
162.502916
 31
0.0
  0
SPLINE
  5
11b
100
AcDbEntity
  8
Layer_1
 62
7
100
AcDbSpline
 70
0
 71
3
 72
10
 73
6
 74
4
 40
0.000000
 40
0.000000
 40
0.000000
 40
0.000000
 40
10.780343
 40
20.926703
 40
33.974903
 40
33.974903
 40
33.974903
 40
33.974903
 10
337.705736
 20
162.502916
 30
0.0
 10
341.264936
 20
162.425159
 30
0.0
 10
348.174021
 20
162.274218
 30
0.0
 10
359.979437
 20
165.758160
 30
0.0
 10
362.764171
 20
173.514534
 30
0.0
 10
364.330736
 20
177.877916
 30
0.0
 11
337.705736
 21
162.502916
 31
0.0
 11
348.479511
 21
162.879180
 31
0.0
 11
357.961745
 21
166.489700
 31
0.0
 11
364.330736
 21
177.877916
 31
0.0
  0
SPLINE
  5
11c
100
AcDbEntity
  8
Layer_1
 62
7
100
AcDbSpline
 70
0
 71
3
 72
10
 73
6
 74
4
 40
0.000000
 40
0.000000
 40
0.000000
 40
0.000000
 40
14.934154
 40
24.878712
 40
39.787399
 40
39.787399
 40
39.787399
 40
39.787399
 10
364.330736
 20
177.877916
 30
0.0
 10
371.361533
 20
175.887292
 30
0.0
 10
383.074092
 20
172.571124
 30
0.0
 10
374.354120
 20
189.793805
 30
0.0
 10
365.760676
 20
189.955762
 30
0.0
 10
360.605736
 20
190.052916
 30
0.0
 11
364.330736
 21
177.877916
 31
0.0
 11
379.237961
 21
176.981480
 31
0.0
 11
374.938309
 21
185.948488
 31
0.0
 11
360.605736
 21
190.052916
 31
0.0
  0
SPLINE
  5
11d
100
AcDbEntity
  8
Layer_1
 62
7
100
AcDbSpline
 70
0
 71
3
 72
10
 73
6
 74
4
 40
0.000000
 40
0.000000
 40
0.000000
 40
0.000000
 40
10.880048
 40
21.668255
 40
33.319997
 40
33.319997
 40
33.319997
 40
33.319997
 10
360.605736
 20
190.052916
 30
0.0
 10
359.914850
 20
193.611530
 30
0.0
 10
358.538910
 20
200.698719
 30
0.0
 10
353.866486
 20
211.078579
 30
0.0
 10
348.198689
 20
216.080640
 30
0.0
 10
345.255736
 20
218.677916
 30
0.0
 11
360.605736
 21
190.052916
 31
0.0
 11
358.113904
 21
200.643771
 31
0.0
 11
353.404886
 21
210.349983
 31
0.0
 11
345.255736
 21
218.677916
 31
0.0
  0
SPLINE
  5
11e
100
AcDbEntity
  8
Layer_1
 62
7
100
AcDbSpline
 70
0
 71
3
 72
10
 73
6
 74
4
 40
0.000000
 40
0.000000
 40
0.000000
 40
0.000000
 40
16.196569
 40
32.708594
 40
45.288986
 40
45.288986
 40
45.288986
 40
45.288986
 10
345.255736
 20
218.677916
 30
0.0
 10
350.157175
 20
221.212191
 30
0.0
 10
360.055518
 20
226.330100
 30
0.0
 10
367.155632
 20
240.720450
 30
0.0
 10
375.969408
 20
245.211052
 30
0.0
 10
379.780736
 20
247.152916
 30
0.0
 11
345.255736
 21
218.677916
 31
0.0
 11
358.790322
 21
227.574197
 31
0.0
 11
369.142011
 21
240.438469
 31
0.0
 11
379.780736
 21
247.152916
 31
0.0
  0
SPLINE
  5
11f
100
AcDbEntity
  8
Layer_1
 62
7
100
AcDbSpline
 70
0
 71
3
 72
10
 73
6
 74
4
 40
0.000000
 40
0.000000
 40
0.000000
 40
0.000000
 40
12.583852
 40
29.105257
 40
45.305387
 40
45.305387
 40
45.305387
 40
45.305387
 10
379.780736
 20
247.152916
 30
0.0
 10
383.592271
 20
245.208861
 30
0.0
 10
392.407991
 20
240.712448
 30
0.0
 10
399.503200
 20
226.312469
 30
0.0
 10
409.403961
 20
221.189333
 30
0.0
 10
414.305736
 20
218.652916
 30
0.0
 11
379.780736
 21
247.152916
 31
0.0
 11
390.419461
 21
240.431988
 31
0.0
 11
400.771150
 21
227.555678
 31
0.0
 11
414.305736
 21
218.652916
 31
0.0
  0
SPLINE
  5
120
100
AcDbEntity
  8
Layer_1
 62
7
100
AcDbSpline
 70
0
 71
3
 72
10
 73
6
 74
4
 40
0.000000
 40
0.000000
 40
0.000000
 40
0.000000
 40
11.647111
 40
22.424489
 40
33.298228
 40
33.298228
 40
33.298228
 40
33.298228
 10
414.305736
 20
218.652916
 30
0.0
 10
411.363057
 20
216.057795
 30
0.0
 10
405.697439
 20
211.061341
 30
0.0
 10
401.021385
 20
200.691251
 30
0.0
 10
399.646326
 20
193.609534
 30
0.0
 10
398.955736
 20
190.052916
 30
0.0
 11
414.305736
 21
218.652916
 31
0.0
 11
406.156586
 21
210.331465
 31
0.0
 11
401.447568
 21
200.637290
 31
0.0
 11
398.955736
 21
190.052916
 31
0.0
  0
SPLINE
  5
121
100
AcDbEntity
  8
Layer_1
 62
7
100
AcDbSpline
 70
0
 71
3
 72
10
 73
6
 74
4
 40
0.000000
 40
0.000000
 40
0.000000
 40
0.000000
 40
14.910473
 40
24.865887
 40
39.799653
 40
39.799653
 40
39.799653
 40
39.799653
 10
398.955736
 20
190.052916
 30
0.0
 10
393.800484
 20
189.953190
 30
0.0
 10
385.203178
 20
189.786878
 30
0.0
 10
376.486858
 20
172.553000
 30
0.0
 10
388.201706
 20
175.865426
 30
0.0
 10
395.230736
 20
177.852916
 30
0.0
 11
398.955736
 21
190.052916
 31
0.0
 11
384.623163
 21
185.942006
 31
0.0
 11
380.323511
 21
176.962961
 31
0.0
 11
395.230736
 21
177.852916
 31
0.0
  0
SPLINE
  5
122
100
AcDbEntity
  8
Layer_1
 62
7
100
AcDbSpline
 70
0
 71
3
 72
10
 73
6
 74
4
 40
0.000000
 40
0.000000
 40
0.000000
 40
0.000000
 40
13.048200
 40
23.194559
 40
33.974903
 40
33.974903
 40
33.974903
 40
33.974903
 10
395.230736
 20
177.852916
 30
0.0
 10
396.797301
 20
173.489534
 30
0.0
 10
399.582035
 20
165.733160
 30
0.0
 10
411.387451
 20
162.249218
 30
0.0
 10
418.296536
 20
162.400159
 30
0.0
 10
421.855736
 20
162.477916
 30
0.0
 11
395.230736
 21
177.852916
 31
0.0
 11
401.599727
 21
166.464700
 31
0.0
 11
411.081961
 21
162.854180
 31
0.0
 11
421.855736
 21
162.477916
 31
0.0
  0
SPLINE
  5
123
100
AcDbEntity
  8
Layer_1
 62
7
100
AcDbSpline
 70
0
 71
3
 72
10
 73
6
 74
4
 40
0.000000
 40
0.000000
 40
0.000000
 40
0.000000
 40
11.957550
 40
17.366467
 40
25.578908
 40
25.578908
 40
25.578908
 40
25.578908
 10
421.855736
 20
162.477916
 30
0.0
 10
424.874358
 20
159.413392
 30
0.0
 10
429.258433
 20
154.962651
 30
0.0
 10
440.067992
 20
158.950536
 30
0.0
 10
435.568513
 20
163.209904
 30
0.0
 10
432.855736
 20
165.777916
 30
0.0
 11
421.855736
 21
162.477916
 31
0.0
 11
432.312509
 21
156.678010
 31
0.0
 11
437.266083
 21
158.850216
 31
0.0
 11
432.855736
 21
165.777916
 31
0.0
  0
SPLINE
  5
124
100
AcDbEntity
  8
Layer_1
 62
7
100
AcDbSpline
 70
0
 71
3
 72
10
 73
6
 74
4
 40
0.000000
 40
0.000000
 40
0.000000
 40
0.000000
 40
13.339827
 40
17.779050
 40
25.707238
 40
25.707238
 40
25.707238
 40
25.707238
 10
432.855736
 20
165.777916
 30
0.0
 10
436.983850
 20
161.858741
 30
0.0
 10
442.485717
 20
156.635345
 30
0.0
 10
449.582283
 20
164.582714
 30
0.0
 10
446.168901
 20
168.159805
 30
0.0
 10
443.980736
 20
170.452916
 30
0.0
 11
432.855736
 21
165.777916
 31
0.0
 11
444.905730
 21
160.055275
 31
0.0
 11
447.739483
 21
163.472372
 31
0.0
 11
443.980736
 21
170.452916
 31
0.0
  0
SPLINE
  5
125
100
AcDbEntity
  8
Layer_1
 62
7
100
AcDbSpline
 70
0
 71
3
 72
10
 73
6
 74
4
 40
0.000000
 40
0.000000
 40
0.000000
 40
0.000000
 40
4.441035
 40
16.425039
 40
34.338515
 40
34.338515
 40
34.338515
 40
34.338515
 10
443.980736
 20
170.452916
 30
0.0
 10
445.211276
 20
171.638573
 30
0.0
 10
449.762390
 20
176.023694
 30
0.0
 10
433.102025
 20
182.596939
 30
0.0
 10
424.662431
 20
184.273426
 30
0.0
 10
419.605736
 20
185.277916
 30
0.0
 11
443.980736
 21
170.452916
 31
0.0
 11
446.757046
 21
173.919167
 31
0.0
 11
436.953522
 21
180.811718
 31
0.0
 11
419.605736
 21
185.277916
 31
0.0
  0
SPLINE
  5
126
100
AcDbEntity
  8
Layer_1
 62
7
100
AcDbSpline
 70
0
 71
3
 72
10
 73
6
 74
4
 40
0.000000
 40
0.000000
 40
0.000000
 40
0.000000
 40
17.977100
 40
38.845807
 40
65.875712
 40
65.875712
 40
65.875712
 40
65.875712
 10
419.605736
 20
185.277916
 30
0.0
 10
425.538299
 20
187.188913
 30
0.0
 10
438.357675
 20
191.318289
 30
0.0
 10
448.274766
 20
212.882518
 30
0.0
 10
450.947482
 20
228.429513
 30
0.0
 10
452.455736
 20
237.202916
 30
0.0
 11
419.605736
 21
185.277916
 31
0.0
 11
435.910380
 21
192.849885
 31
0.0
 11
446.485823
 21
210.840520
 31
0.0
 11
452.455736
 21
237.202916
 31
0.0
  0
LWPOLYLINE
  5
127
100
AcDbEntity
  8
Layer_1
 62
7
100
AcDbPolyline
 90
2
 70
1
 10
-58.716670
 20
459.349884
 30
0.0
 10
-58.716670
 20
459.349884
 30
0.0
  0
SPLINE
  5
128
100
AcDbEntity
  8
Layer_1
 62
7
100
AcDbSpline
 70
0
 71
3
 72
10
 73
6
 74
4
 40
0.000000
 40
0.000000
 40
0.000000
 40
0.000000
 40
30.393906
 40
60.240497
 40
86.594808
 40
86.594808
 40
86.594808
 40
86.594808
 10
452.455736
 20
237.202916
 30
0.0
 10
446.054327
 20
245.145287
 30
0.0
 10
433.366781
 20
260.887008
 30
0.0
 10
407.106210
 20
275.032867
 30
0.0
 10
388.503917
 20
277.752566
 30
0.0
 10
379.780736
 20
279.027916
 30
0.0
 11
452.455736
 21
237.202916
 31
0.0
 11
431.830823
 21
259.527846
 31
0.0
 11
405.607478
 21
273.781098
 31
0.0
 11
379.780736
 21
279.027916
 31
0.0
  0
SPLINE
  5
129
100
AcDbEntity
  8
Layer_1
 62
7
100
AcDbSpline
 70
0
 71
3
 72
10
 73
6
 74
4
 40
0.000000
 40
0.000000
 40
0.000000
 40
0.000000
 40
4.370306
 40
7.592958
 40
10.637406
 40
10.637406
 40
10.637406
 40
10.637406
 10
507.131528
 20
257.138284
 30
0.0
 10
508.564130
 20
257.318502
 30
0.0
 10
511.053129
 20
257.631614
 30
0.0
 10
514.175229
 20
260.720368
 30
0.0
 10
512.816550
 20
262.650607
 30
0.0
 10
512.156528
 20
263.588284
 30
0.0
 11
507.131528
 21
257.138284
 31
0.0
 11
511.343051
 21
258.305610
 31
0.0
 11
513.381896
 21
260.801326
 31
0.0
 11
512.156528
 21
263.588284
 31
0.0
  0
SPLINE
  5
12a
100
AcDbEntity
  8
Layer_1
 62
7
100
AcDbSpline
 70
0
 71
3
 72
10
 73
6
 74
4
 40
0.000000
 40
0.000000
 40
0.000000
 40
0.000000
 40
19.519894
 40
39.620835
 40
65.263777
 40
65.263777
 40
65.263777
 40
65.263777
 10
512.156528
 20
263.588284
 30
0.0
 10
520.069896
 20
263.312645
 30
0.0
 10
536.132190
 20
262.753162
 30
0.0
 10
531.613320
 20
292.214745
 30
0.0
 10
518.745131
 20
300.383867
 30
0.0
 10
511.531528
 20
304.963284
 30
0.0
 11
512.156528
 21
263.588284
 31
0.0
 11
531.332105
 21
267.238419
 31
0.0
 11
530.123876
 21
287.303015
 31
0.0
 11
511.531528
 21
304.963284
 31
0.0
  0
SPLINE
  5
12b
100
AcDbEntity
  8
Layer_1
 62
7
100
AcDbSpline
 70
0
 71
3
 72
10
 73
6
 74
4
 40
0.000000
 40
0.000000
 40
0.000000
 40
0.000000
 40
49.002113
 40
82.364222
 40
125.897237
 40
125.897237
 40
125.897237
 40
125.897237
 10
511.531528
 20
304.963284
 30
0.0
 10
506.449155
 20
322.009053
 30
0.0
 10
497.906549
 20
350.660094
 30
0.0
 10
450.697781
 20
360.117664
 30
0.0
 10
428.850204
 20
345.253440
 30
0.0
 10
416.481528
 20
336.838284
 30
0.0
 11
511.531528
 21
304.963284
 31
0.0
 11
488.376191
 21
348.149363
 31
0.0
 11
455.826775
 21
355.468231
 31
0.0
 11
416.481528
 21
336.838284
 31
0.0
  0
LWPOLYLINE
  5
12c
100
AcDbEntity
  8
Layer_1
 62
7
100
AcDbPolyline
 90
3
 70
1
 10
379.780736
 20
279.027916
 30
0.0
 10
379.780736
 20
279.052876
 30
0.0
 10
379.780736
 20
279.052916
 30
0.0
  0
SPLINE
  5
12d
100
AcDbEntity
  8
Layer_1
 62
7
100
AcDbSpline
 70
0
 71
3
 72
10
 73
6
 74
4
 40
0.000000
 40
0.000000
 40
0.000000
 40
0.000000
 40
54.924631
 40
102.642376
 40
144.783980
 40
144.783980
 40
144.783980
 40
144.783980
 10
416.481528
 20
336.838284
 30
0.0
 10
411.941962
 20
354.243713
 30
0.0
 10
403.458486
 20
386.770733
 30
0.0
 10
385.959564
 20
436.066297
 30
0.0
 10
356.191803
 20
446.224406
 30
0.0
 10
342.231528
 20
450.988284
 30
0.0
 11
416.481528
 21
336.838284
 31
0.0
 11
401.739775
 21
389.747601
 31
0.0
 11
379.953996
 21
432.201846
 31
0.0
 11
342.231528
 21
450.988284
 31
0.0
  0
SPLINE
  5
12e
100
AcDbEntity
  8
Layer_1
 62
7
100
AcDbSpline
 70
0
 71
3
 72
10
 73
6
 74
4
 40
0.000000
 40
0.000000
 40
0.000000
 40
0.000000
 40
42.631345
 40
90.630296
 40
146.021104
 40
146.021104
 40
146.021104
 40
146.021104
 10
342.231528
 20
451.438284
 30
0.0
 10
327.973929
 20
446.923814
 30
0.0
 10
297.663591
 20
437.326470
 30
0.0
 10
279.771423
 20
387.527787
 30
0.0
 10
271.247950
 20
354.781843
 30
0.0
 10
266.681520
 20
337.238284
 30
0.0
 11
342.231528
 21
451.438284
 31
0.0
 11
303.708172
 21
433.179515
 31
0.0
 11
281.570534
 21
390.590498
 31
0.0
 11
266.681520
 21
337.238284
 31
0.0
  0
SPLINE
  5
12f
100
AcDbEntity
  8
Layer_1
 62
7
100
AcDbSpline
 70
0
 71
3
 72
10
 73
6
 74
4
 40
0.000000
 40
0.000000
 40
0.000000
 40
0.000000
 40
43.524369
 40
76.877380
 40
125.882131
 40
125.882131
 40
125.882131
 40
125.882131
 10
266.681520
 20
337.238284
 30
0.0
 10
254.314310
 20
345.652826
 30
0.0
 10
232.470027
 20
360.515486
 30
0.0
 10
185.272868
 20
351.032789
 30
0.0
 10
176.736120
 20
322.384607
 30
0.0
 10
171.656560
 20
305.338284
 30
0.0
 11
266.681520
 21
337.238284
 31
0.0
 11
227.342770
 21
355.861750
 31
0.0
 11
194.805390
 21
348.530844
 31
0.0
 11
171.656560
 21
305.338284
 31
0.0
  0
SPLINE
  5
130
100
AcDbEntity
  8
Layer_1
 62
7
100
AcDbSpline
 70
0
 71
3
 72
10
 73
6
 74
4
 40
0.000000
 40
0.000000
 40
0.000000
 40
0.000000
 40
25.647668
 40
45.749336
 40
65.262901
 40
65.262901
 40
65.262901
 40
65.262901
 10
171.656560
 20
305.338284
 30
0.0
 10
164.442230
 20
300.759461
 30
0.0
 10
151.573583
 20
292.591931
 30
0.0
 10
147.033171
 20
263.130752
 30
0.0
 10
163.094911
 20
263.688533
 30
0.0
 10
171.006560
 20
263.963284
 30
0.0
 11
171.656560
 21
305.338284
 31
0.0
 11
153.057695
 21
287.678015
 31
0.0
 11
151.837425
 21
267.613419
 31
0.0
 11
171.006560
 21
263.963284
 31
0.0
  0
SPLINE
  5
131
100
AcDbEntity
  8
Layer_1
 62
7
100
AcDbSpline
 70
0
 71
3
 72
10
 73
6
 74
4
 40
0.000000
 40
0.000000
 40
0.000000
 40
0.000000
 40
6.080408
 40
17.973214
 40
42.993395
 40
42.993395
 40
42.993395
 40
42.993395
 10
171.006560
 20
263.963284
 30
0.0
 10
171.339325
 20
261.645799
 30
0.0
 10
172.322953
 20
254.795494
 30
0.0
 10
192.263125
 20
262.592342
 30
0.0
 10
192.557219
 20
275.627712
 30
0.0
 10
192.756560
 20
284.463284
 30
0.0
 11
171.006560
 21
263.963284
 31
0.0
 11
172.846320
 21
258.167885
 31
0.0
 11
184.428107
 21
260.869930
 31
0.0
 11
192.756560
 21
284.463284
 31
0.0
  0
SPLINE
  5
132
100
AcDbEntity
  8
Layer_1
 62
7
100
AcDbSpline
 70
0
 71
3
 72
10
 73
6
 74
4
 40
0.000000
 40
0.000000
 40
0.000000
 40
0.000000
 40
17.407931
 40
33.899447
 40
51.792175
 40
51.792175
 40
51.792175
 40
51.792175
 10
192.756560
 20
284.463284
 30
0.0
 10
197.376603
 20
288.054944
 30
0.0
 10
206.373473
 20
295.049186
 30
0.0
 10
215.267992
 20
310.235236
 30
0.0
 10
218.976659
 20
321.073377
 30
0.0
 10
220.906560
 20
326.713284
 30
0.0
 11
192.756560
 21
284.463284
 31
0.0
 11
205.779401
 21
296.014979
 31
0.0
 11
214.522119
 21
309.998362
 31
0.0
 11
220.906560
 21
326.713284
 31
0.0
  0
SPLINE
  5
133
100
AcDbEntity
  8
Layer_1
 62
7
100
AcDbSpline
 70
0
 71
3
 72
10
 73
6
 74
4
 40
0.000000
 40
0.000000
 40
0.000000
 40
0.000000
 40
25.897545
 40
47.199540
 40
67.105515
 40
67.105515
 40
67.105515
 40
67.105515
 10
220.906560
 20
326.713284
 30
0.0
 10
223.930051
 20
318.390373
 30
0.0
 10
229.440510
 20
303.221463
 30
0.0
 10
249.988751
 20
290.611961
 30
0.0
 10
263.857233
 20
290.461140
 30
0.0
 10
270.556560
 20
290.388284
 30
0.0
 11
220.906560
 21
326.713284
 31
0.0
 11
232.669164
 21
303.641137
 31
0.0
 11
250.750329
 21
292.378522
 31
0.0
 11
270.556560
 21
290.388284
 31
0.0
  0
LWPOLYLINE
  5
134
100
AcDbEntity
  8
Layer_1
 62
7
100
AcDbPolyline
 90
2
 70
1
 10
342.231528
 20
450.988284
 30
0.0
 10
342.231528
 20
451.438284
 30
0.0
  0
SPLINE
  5
135
100
AcDbEntity
  8
Layer_1
 62
7
100
AcDbSpline
 70
0
 71
3
 72
10
 73
6
 74
4
 40
0.000000
 40
0.000000
 40
0.000000
 40
0.000000
 40
21.936308
 40
49.329240
 40
72.645423
 40
72.645423
 40
72.645423
 40
72.645423
 10
270.556560
 20
290.388284
 30
0.0
 10
277.242449
 20
287.112184
 30
0.0
 10
292.277333
 20
279.745058
 30
0.0
 10
317.286522
 20
282.840314
 30
0.0
 10
333.655178
 20
286.589430
 30
0.0
 10
341.181528
 20
288.313284
 30
0.0
 11
270.556560
 21
290.388284
 31
0.0
 11
290.999325
 21
282.432472
 31
0.0
 11
318.372315
 21
283.477565
 31
0.0
 11
341.181528
 21
288.313284
 31
0.0
  0
SPLINE
  5
136
100
AcDbEntity
  8
Layer_1
 62
7
100
AcDbSpline
 70
0
 71
3
 72
10
 73
6
 74
4
 40
0.000000
 40
0.000000
 40
0.000000
 40
0.000000
 40
23.278605
 40
51.130415
 40
73.462139
 40
73.462139
 40
73.462139
 40
73.462139
 10
341.181528
 20
288.163284
 30
0.0
 10
348.687541
 20
286.404360
 30
0.0
 10
365.174164
 20
282.540961
 30
0.0
 10
390.451724
 20
279.294474
 30
0.0
 10
405.783758
 20
286.712330
 30
0.0
 10
412.606528
 20
290.013284
 30
0.0
 11
341.181528
 21
288.163284
 31
0.0
 11
363.928989
 21
283.218947
 31
0.0
 11
391.754918
 21
282.018522
 31
0.0
 11
412.606528
 21
290.013284
 31
0.0
  0
SPLINE
  5
137
100
AcDbEntity
  8
Layer_1
 62
7
100
AcDbSpline
 70
0
 71
3
 72
10
 73
6
 74
4
 40
0.000000
 40
0.000000
 40
0.000000
 40
0.000000
 40
19.912415
 40
41.224630
 40
67.125123
 40
67.125123
 40
67.125123
 40
67.125123
 10
412.606528
 20
290.013284
 30
0.0
 10
419.307760
 20
290.086449
 30
0.0
 10
433.181305
 20
290.237924
 30
0.0
 10
453.740449
 20
302.842592
 30
0.0
 10
459.255834
 20
318.014890
 30
0.0
 10
462.281528
 20
326.338284
 30
0.0
 11
412.606528
 21
290.013284
 31
0.0
 11
432.419232
 21
292.003522
 31
0.0
 11
450.512435
 21
303.266137
 31
0.0
 11
462.281528
 21
326.338284
 31
0.0
  0
SPLINE
  5
138
100
AcDbEntity
  8
Layer_1
 62
7
100
AcDbSpline
 70
0
 71
3
 72
10
 73
6
 74
4
 40
0.000000
 40
0.000000
 40
0.000000
 40
0.000000
 40
17.898776
 40
34.400499
 40
51.812746
 40
51.812746
 40
51.812746
 40
51.812746
 10
462.281528
 20
326.338284
 30
0.0
 10
464.211793
 20
320.696476
 30
0.0
 10
467.921660
 20
309.853220
 30
0.0
 10
476.812027
 20
294.656598
 30
0.0
 10
485.811158
 20
287.657030
 30
0.0
 10
490.431528
 20
284.063284
 30
0.0
 11
462.281528
 21
326.338284
 31
0.0
 11
468.665952
 21
309.616881
 31
0.0
 11
477.408667
 21
295.621460
 31
0.0
 11
490.431528
 21
284.063284
 31
0.0
  0
LWPOLYLINE
  5
139
100
AcDbEntity
  8
Layer_1
 62
7
100
AcDbPolyline
 90
2
 70
1
 10
341.181528
 20
288.313284
 30
0.0
 10
341.181528
 20
288.163284
 30
0.0
  0
SPLINE
  5
13a
100
AcDbEntity
  8
Layer_1
 62
7
100
AcDbSpline
 70
0
 71
3
 72
10
 73
6
 74
4
 40
0.000000
 40
0.000000
 40
0.000000
 40
0.000000
 40
16.936327
 40
27.328011
 40
34.501060
 40
34.501060
 40
34.501060
 40
34.501060
 10
490.431528
 20
284.063284
 30
0.0
 10
491.046370
 20
278.469298
 30
0.0
 10
492.038464
 20
269.442990
 30
0.0
 10
498.773305
 20
258.750388
 30
0.0
 10
504.707950
 20
257.605735
 30
0.0
 10
507.131528
 20
257.138284
 30
0.0
 11
490.431528
 21
284.063284
 31
0.0
 11
493.943933
 21
267.495176
 31
0.0
 11
500.278707
 21
259.257597
 31
0.0
 11
507.131528
 21
257.138284
 31
0.0
  0
SPLINE
  5
13b
100
AcDbEntity
  8
Layer_1
 62
7
100
AcDbSpline
 70
0
 71
3
 72
10
 73
6
 74
4
 40
0.000000
 40
0.000000
 40
0.000000
 40
0.000000
 40
4.370306
 40
7.592958
 40
10.637406
 40
10.637406
 40
10.637406
 40
10.637406
 10
-57.328056
 20
282.690236
 30
0.0
 10
-58.760658
 20
282.510017
 30
0.0
 10
-61.249657
 20
282.196906
 30
0.0
 10
-64.371757
 20
279.108151
 30
0.0
 10
-63.013078
 20
277.177912
 30
0.0
 10
-62.353056
 20
276.240236
 30
0.0
 11
-57.328056
 21
282.690236
 31
0.0
 11
-61.539579
 21
281.522910
 31
0.0
 11
-63.578424
 21
279.027194
 31
0.0
 11
-62.353056
 21
276.240236
 31
0.0
  0
SPLINE
  5
13c
100
AcDbEntity
  8
Layer_1
 62
7
100
AcDbSpline
 70
0
 71
3
 72
10
 73
6
 74
4
 40
0.000000
 40
0.000000
 40
0.000000
 40
0.000000
 40
19.519894
 40
39.620835
 40
65.263777
 40
65.263777
 40
65.263777
 40
65.263777
 10
-62.353056
 20
276.240236
 30
0.0
 10
-70.266424
 20
276.515875
 30
0.0
 10
-86.328718
 20
277.075357
 30
0.0
 10
-81.809848
 20
247.613774
 30
0.0
 10
-68.941659
 20
239.444653
 30
0.0
 10
-61.728056
 20
234.865236
 30
0.0
 11
-62.353056
 21
276.240236
 31
0.0
 11
-81.528633
 21
272.590100
 31
0.0
 11
-80.320404
 21
252.525505
 31
0.0
 11
-61.728056
 21
234.865236
 31
0.0
  0
SPLINE
  5
13d
100
AcDbEntity
  8
Layer_1
 62
7
100
AcDbSpline
 70
0
 71
3
 72
10
 73
6
 74
4
 40
0.000000
 40
0.000000
 40
0.000000
 40
0.000000
 40
49.002104
 40
82.364211
 40
125.897223
 40
125.897223
 40
125.897223
 40
125.897223
 10
-61.728056
 20
234.865236
 30
0.0
 10
-56.645682
 20
217.819471
 30
0.0
 10
-48.103076
 20
189.168438
 30
0.0
 10
-0.894316
 20
179.710854
 30
0.0
 10
20.953260
 20
194.575079
 30
0.0
 10
33.321936
 20
202.990236
 30
0.0
 11
-61.728056
 21
234.865236
 31
0.0
 11
-38.572721
 21
191.679166
 31
0.0
 11
-6.023309
 21
184.360290
 31
0.0
 11
33.321936
 21
202.990236
 31
0.0
  0
LWPOLYLINE
  5
13e
100
AcDbEntity
  8
Layer_1
 62
7
100
AcDbPolyline
 90
2
 70
1
 10
507.131528
 20
257.138284
 30
0.0
 10
507.131528
 20
257.138284
 30
0.0
  0
SPLINE
  5
13f
100
AcDbEntity
  8
Layer_1
 62
7
100
AcDbSpline
 70
0
 71
3
 72
13
 73
9
 74
7
 40
0.000000
 40
0.000000
 40
0.000000
 40
0.000000
 40
13.934582
 40
27.842096
 40
41.559976
 40
48.299560
 40
54.935570
 40
61.451931
 40
61.451931
 40
61.451931
 40
61.451931
 10
33.321936
 20
202.990236
 30
0.0
 10
34.492936
 20
198.495403
 30
0.0
 10
36.832662
 20
189.514469
 30
0.0
 10
40.315518
 20
176.106150
 30
0.0
 10
43.375511
 20
165.065994
 30
0.0
 10
45.989374
 20
156.421128
 30
0.0
 10
48.018324
 20
150.107574
 30
0.0
 10
49.490123
 20
145.977630
 30
0.0
 10
50.219328
 20
143.931444
 30
0.0
 11
33.321936
 21
202.990236
 31
0.0
 11
36.833316
 21
189.505326
 31
0.0
 11
40.368103
 21
176.054519
 31
0.0
 11
44.065248
 21
162.844244
 31
0.0
 11
46.018121
 21
156.393796
 31
0.0
 11
48.063692
 21
150.080931
 31
0.0
 11
50.219328
 21
143.931444
 31
0.0
  0
SPLINE
  5
140
100
AcDbEntity
  8
Layer_1
 62
7
100
AcDbSpline
 70
0
 71
3
 72
13
 73
9
 74
7
 40
0.000000
 40
0.000000
 40
0.000000
 40
0.000000
 40
6.564265
 40
13.251405
 40
20.045047
 40
33.878414
 40
47.907882
 40
61.966632
 40
61.966632
 40
61.966632
 40
61.966632
 10
166.049520
 20
143.047524
 30
0.0
 10
166.788303
 20
145.107250
 30
0.0
 10
168.279697
 20
149.265260
 30
0.0
 10
170.332738
 20
155.624718
 30
0.0
 10
172.976130
 20
164.337511
 30
0.0
 10
176.066724
 20
175.470093
 30
0.0
 10
179.580560
 20
188.994900
 30
0.0
 10
181.940646
 20
198.055308
 30
0.0
 10
183.121920
 20
202.590236
 30
0.0
 11
166.049520
 21
143.047524
 31
0.0
 11
168.232945
 21
149.238019
 31
0.0
 11
170.303108
 21
155.596656
 31
0.0
 11
172.277840
 21
162.096964
 31
0.0
 11
176.012433
 21
175.416681
 31
0.0
 11
179.579541
 21
188.985089
 31
0.0
 11
183.121920
 21
202.590236
 31
0.0
  0
SPLINE
  5
141
100
AcDbEntity
  8
Layer_1
 62
7
100
AcDbSpline
 70
0
 71
3
 72
10
 73
6
 74
4
 40
0.000000
 40
0.000000
 40
0.000000
 40
0.000000
 40
43.524407
 40
76.877420
 40
125.882197
 40
125.882197
 40
125.882197
 40
125.882197
 10
183.121920
 20
202.590236
 30
0.0
 10
195.489142
 20
194.175690
 30
0.0
 10
217.333441
 20
179.313027
 30
0.0
 10
264.530617
 20
188.795724
 30
0.0
 10
273.067386
 20
217.443908
 30
0.0
 10
278.146960
 20
234.490236
 30
0.0
 11
183.121920
 21
202.590236
 31
0.0
 11
222.460708
 21
183.966763
 31
0.0
 11
254.998092
 21
191.297666
 31
0.0
 11
278.146960
 21
234.490236
 31
0.0
  0
SPLINE
  5
142
100
AcDbEntity
  8
Layer_1
 62
7
100
AcDbSpline
 70
0
 71
3
 72
10
 73
6
 74
4
 40
0.000000
 40
0.000000
 40
0.000000
 40
0.000000
 40
25.647629
 40
45.749298
 40
65.262810
 40
65.262810
 40
65.262810
 40
65.262810
 10
278.146960
 20
234.490236
 30
0.0
 10
285.361267
 20
239.069063
 30
0.0
 10
298.229881
 20
247.236608
 30
0.0
 10
302.770299
 20
276.697747
 30
0.0
 10
286.708585
 20
276.139979
 30
0.0
 10
278.796960
 20
275.865236
 30
0.0
 11
278.146960
 21
234.490236
 31
0.0
 11
296.745772
 21
252.150505
 31
0.0
 11
297.966041
 21
272.215100
 31
0.0
 11
278.796960
 21
275.865236
 31
0.0
  0
SPLINE
  5
143
100
AcDbEntity
  8
Layer_1
 62
7
100
AcDbSpline
 70
0
 71
3
 72
10
 73
6
 74
4
 40
0.000000
 40
0.000000
 40
0.000000
 40
0.000000
 40
6.080424
 40
17.973230
 40
42.993393
 40
42.993393
 40
42.993393
 40
42.993393
 10
278.796960
 20
275.865236
 30
0.0
 10
278.464176
 20
278.182721
 30
0.0
 10
277.480493
 20
285.033016
 30
0.0
 10
257.540364
 20
277.236192
 30
0.0
 10
257.246289
 20
264.200812
 30
0.0
 10
257.046960
 20
255.365236
 30
0.0
 11
278.796960
 21
275.865236
 31
0.0
 11
276.957147
 21
281.660634
 31
0.0
 11
265.375360
 21
278.958589
 31
0.0
 11
257.046960
 21
255.365236
 31
0.0
  0
SPLINE
  5
144
100
AcDbEntity
  8
Layer_1
 62
7
100
AcDbSpline
 70
0
 71
3
 72
10
 73
6
 74
4
 40
0.000000
 40
0.000000
 40
0.000000
 40
0.000000
 40
17.407971
 40
33.899487
 40
51.792196
 40
51.792196
 40
51.792196
 40
51.792196
 10
257.046960
 20
255.365236
 30
0.0
 10
252.426898
 20
251.773579
 30
0.0
 10
243.429999
 20
244.779350
 30
0.0
 10
234.535468
 20
229.593292
 30
0.0
 10
230.826839
 20
218.755143
 30
0.0
 10
228.896960
 20
213.115236
 30
0.0
 11
257.046960
 21
255.365236
 31
0.0
 11
244.024065
 21
243.813541
 31
0.0
 11
235.281348
 21
229.830157
 31
0.0
 11
228.896960
 21
213.115236
 31
0.0
  0
SPLINE
  5
145
100
AcDbEntity
  8
Layer_1
 62
7
100
AcDbSpline
 70
0
 71
3
 72
10
 73
6
 74
4
 40
0.000000
 40
0.000000
 40
0.000000
 40
0.000000
 40
25.897545
 40
47.199540
 40
67.105515
 40
67.105515
 40
67.105515
 40
67.105515
 10
228.896960
 20
213.115236
 30
0.0
 10
225.873469
 20
221.438146
 30
0.0
 10
220.363010
 20
236.607057
 30
0.0
 10
199.814769
 20
249.216558
 30
0.0
 10
185.946287
 20
249.367380
 30
0.0
 10
179.246960
 20
249.440236
 30
0.0
 11
228.896960
 21
213.115236
 31
0.0
 11
217.134356
 21
236.187383
 31
0.0
 11
199.053191
 21
247.449998
 31
0.0
 11
179.246960
 21
249.440236
 31
0.0
  0
LWPOLYLINE
  5
146
100
AcDbEntity
  8
Layer_1
 62
7
100
AcDbPolyline
 90
2
 70
1
 10
50.219328
 20
143.931444
 30
0.0
 10
166.049520
 20
143.047524
 30
0.0
  0
SPLINE
  5
147
100
AcDbEntity
  8
Layer_1
 62
7
100
AcDbSpline
 70
0
 71
3
 72
10
 73
6
 74
4
 40
0.000000
 40
0.000000
 40
0.000000
 40
0.000000
 40
21.936353
 40
49.329293
 40
72.645476
 40
72.645476
 40
72.645476
 40
72.645476
 10
179.246960
 20
249.440236
 30
0.0
 10
172.561054
 20
252.716336
 30
0.0
 10
157.526149
 20
260.083456
 30
0.0
 10
132.516946
 20
256.988208
 30
0.0
 10
116.148287
 20
253.239090
 30
0.0
 10
108.621936
 20
251.515236
 30
0.0
 11
179.246960
 21
249.440236
 31
0.0
 11
158.804146
 21
257.396048
 31
0.0
 11
131.431150
 21
256.350955
 31
0.0
 11
108.621936
 21
251.515236
 31
0.0
  0
SPLINE
  5
148
100
AcDbEntity
  8
Layer_1
 62
7
100
AcDbSpline
 70
0
 71
3
 72
10
 73
6
 74
4
 40
0.000000
 40
0.000000
 40
0.000000
 40
0.000000
 40
23.278605
 40
51.130415
 40
73.462139
 40
73.462139
 40
73.462139
 40
73.462139
 10
108.621936
 20
251.665236
 30
0.0
 10
101.115923
 20
253.424160
 30
0.0
 10
84.629300
 20
257.287558
 30
0.0
 10
59.351740
 20
260.534045
 30
0.0
 10
44.019706
 20
253.116189
 30
0.0
 10
37.196936
 20
249.815236
 30
0.0
 11
108.621936
 21
251.665236
 31
0.0
 11
85.874475
 21
256.609572
 31
0.0
 11
58.048546
 21
257.809998
 31
0.0
 11
37.196936
 21
249.815236
 31
0.0
  0
SPLINE
  5
149
100
AcDbEntity
  8
Layer_1
 62
7
100
AcDbSpline
 70
0
 71
3
 72
10
 73
6
 74
4
 40
0.000000
 40
0.000000
 40
0.000000
 40
0.000000
 40
19.912415
 40
41.224630
 40
67.125123
 40
67.125123
 40
67.125123
 40
67.125123
 10
37.196936
 20
249.815236
 30
0.0
 10
30.495704
 20
249.742070
 30
0.0
 10
16.622159
 20
249.590596
 30
0.0
 10
-3.936985
 20
236.985927
 30
0.0
 10
-9.452370
 20
221.813630
 30
0.0
 10
-12.478064
 20
213.490236
 30
0.0
 11
37.196936
 21
249.815236
 31
0.0
 11
17.384232
 21
247.824998
 31
0.0
 11
-0.708971
 21
236.562383
 31
0.0
 11
-12.478064
 21
213.490236
 31
0.0
  0
SPLINE
  5
14a
100
AcDbEntity
  8
Layer_1
 62
7
100
AcDbSpline
 70
0
 71
3
 72
10
 73
6
 74
4
 40
0.000000
 40
0.000000
 40
0.000000
 40
0.000000
 40
17.898776
 40
34.400498
 40
51.812741
 40
51.812741
 40
51.812741
 40
51.812741
 10
-12.478064
 20
213.490236
 30
0.0
 10
-14.408329
 20
219.132043
 30
0.0
 10
-18.118196
 20
229.975299
 30
0.0
 10
-27.008561
 20
245.171920
 30
0.0
 10
-36.007688
 20
252.171489
 30
0.0
 10
-40.628056
 20
255.765236
 30
0.0
 11
-12.478064
 21
213.490236
 31
0.0
 11
-18.862487
 21
230.211639
 31
0.0
 11
-27.605201
 21
244.207059
 31
0.0
 11
-40.628056
 21
255.765236
 31
0.0
  0
LWPOLYLINE
  5
14b
100
AcDbEntity
  8
Layer_1
 62
7
100
AcDbPolyline
 90
2
 70
1
 10
108.621936
 20
251.515236
 30
0.0
 10
108.621936
 20
251.665236
 30
0.0
  0
LWPOLYLINE
  5
14c
100
AcDbEntity
  8
Layer_1
 62
7
100
AcDbPolyline
 90
2
 70
1
 10
-57.328056
 20
282.690236
 30
0.0
 10
-57.328056
 20
282.690236
 30
0.0
  0
LWPOLYLINE
  5
14d
100
AcDbEntity
  8
Layer_1
 62
7
100
AcDbPolyline
 90
2
 70
0
 10
-72.428089
 20
240.471692
 30
0.0
 10
-42.356686
 20
269.133484
 30
0.0
  0
LWPOLYLINE
  5
14e
100
AcDbEntity
  8
Layer_1
 62
7
100
AcDbPolyline
 90
2
 70
0
 10
-79.096690
 20
248.477172
 30
0.0
 10
-47.398526
 20
278.115020
 30
0.0
  0
LWPOLYLINE
  5
14f
100
AcDbEntity
  8
Layer_1
 62
7
100
AcDbPolyline
 90
2
 70
0
 10
287.738728
 20
240.184636
 30
0.0
 10
258.887112
 20
267.744364
 30
0.0
  0
SPLINE
  5
150
100
AcDbEntity
  8
Layer_1
 62
7
100
AcDbSpline
 70
0
 71
3
 72
10
 73
6
 74
4
 40
0.000000
 40
0.000000
 40
0.000000
 40
0.000000
 40
16.936327
 40
27.328011
 40
34.501060
 40
34.501060
 40
34.501060
 40
34.501060
 10
-40.628056
 20
255.765236
 30
0.0
 10
-41.242898
 20
261.359222
 30
0.0
 10
-42.234992
 20
270.385530
 30
0.0
 10
-48.969833
 20
281.078131
 30
0.0
 10
-54.904478
 20
282.222785
 30
0.0
 10
-57.328056
 20
282.690236
 30
0.0
 11
-40.628056
 21
255.765236
 31
0.0
 11
-44.140461
 21
272.333343
 31
0.0
 11
-50.475235
 21
280.570923
 31
0.0
 11
-57.328056
 21
282.690236
 31
0.0
  0
SPLINE
  5
151
100
AcDbEntity
  8
Layer_1
 62
7
100
AcDbSpline
 70
0
 71
3
 72
19
 73
15
 74
13
 40
0.000000
 40
0.000000
 40
0.000000
 40
0.000000
 40
9.625346
 40
18.965208
 40
28.590558
 40
38.215903
 40
47.555766
 40
57.181115
 40
66.806461
 40
76.146323
 40
85.771668
 40
95.206433
 40
104.370769
 40
113.805532
 40
113.805532
 40
113.805532
 40
113.805532
 10
385.191980
 20
195.919663
 30
0.0
 10
381.924652
 20
195.585020
 30
0.0
 10
375.486904
 20
194.925657
 30
0.0
 10
366.817177
 20
200.226935
 30
0.0
 10
361.866763
 20
208.811589
 30
0.0
 10
361.936551
 20
218.817954
 30
0.0
 10
366.959265
 20
227.408677
 30
0.0
 10
375.619921
 20
232.381065
 30
0.0
 10
385.606182
 20
232.303907
 30
0.0
 10
394.200953
 20
227.288482
 30
0.0
 10
399.143712
 20
218.663262
 30
0.0
 10
399.099126
 20
208.897818
 30
0.0
 10
394.395201
 20
200.140417
 30
0.0
 10
388.657069
 20
197.442872
 30
0.0
 10
385.746288
 20
196.074488
 30
0.0
 11
385.191980
 21
195.919663
 31
0.0
 11
375.566902
 21
195.991374
 31
0.0
 11
367.502108
 21
200.702228
 31
0.0
 11
362.711818
 21
209.050908
 31
0.0
 11
362.783528
 21
218.675987
 31
0.0
 11
367.494382
 21
226.740780
 31
0.0
 11
375.843062
 21
231.531071
 31
0.0
 11
385.468141
 21
231.459360
 31
0.0
 11
393.532934
 21
226.748509
 31
0.0
 11
398.323225
 21
218.399833
 31
0.0
 11
398.303200
 21
208.965089
 31
0.0
 11
393.805140
 21
200.980572
 31
0.0
 11
385.746288
 21
196.074488
 31
0.0
  0
SPLINE
  5
152
100
AcDbEntity
  8
Layer_1
 62
7
100
AcDbSpline
 70
0
 71
3
 72
19
 73
15
 74
13
 40
0.000000
 40
0.000000
 40
0.000000
 40
0.000000
 40
3.363370
 40
6.626984
 40
9.990355
 40
13.353725
 40
16.617338
 40
19.980710
 40
23.344079
 40
26.607693
 40
29.971063
 40
33.267838
 40
36.470118
 40
39.766893
 40
39.766893
 40
39.766893
 40
39.766893
 10
382.209850
 20
207.512464
 30
0.0
 10
381.068152
 20
207.395530
 30
0.0
 10
378.818620
 20
207.165130
 30
0.0
 10
375.789170
 20
209.017547
 30
0.0
 10
374.059355
 20
212.017270
 30
0.0
 10
374.083741
 20
215.513779
 30
0.0
 10
375.838820
 20
218.515622
 30
0.0
 10
378.865100
 20
220.253116
 30
0.0
 10
382.354584
 20
220.226155
 30
0.0
 10
385.357841
 20
218.473623
 30
0.0
 10
387.084982
 20
215.459725
 30
0.0
 10
387.069402
 20
212.047401
 30
0.0
 10
385.425717
 20
208.987316
 30
0.0
 10
383.420651
 20
208.044716
 30
0.0
 10
382.403541
 20
207.566564
 30
0.0
 11
382.209850
 21
207.512464
 31
0.0
 11
378.846573
 21
207.537522
 31
0.0
 11
376.028505
 21
209.183628
 31
0.0
 11
374.354641
 21
212.100895
 31
0.0
 11
374.379699
 21
215.464171
 31
0.0
 11
376.025805
 21
218.282240
 31
0.0
 11
378.943072
 21
219.956104
 31
0.0
 11
382.306348
 21
219.931046
 31
0.0
 11
385.124416
 21
218.284940
 31
0.0
 11
386.798280
 21
215.367675
 31
0.0
 11
386.791283
 21
212.070907
 31
0.0
 11
385.219533
 21
209.280890
 31
0.0
 11
382.403541
 21
207.566564
 31
0.0
  0
SPLINE
  5
153
100
AcDbEntity
  8
Layer_1
 62
7
100
AcDbSpline
 70
0
 71
3
 72
19
 73
15
 74
13
 40
0.000000
 40
0.000000
 40
0.000000
 40
0.000000
 40
9.625346
 40
18.965208
 40
28.590558
 40
38.215903
 40
47.555766
 40
57.181115
 40
66.806461
 40
76.146323
 40
85.771668
 40
95.206433
 40
104.370769
 40
113.805532
 40
113.805532
 40
113.805532
 40
113.805532
 10
468.714593
 20
256.687599
 30
0.0
 10
465.447265
 20
256.352956
 30
0.0
 10
459.009517
 20
255.693593
 30
0.0
 10
450.339790
 20
260.994871
 30
0.0
 10
445.389376
 20
269.579525
 30
0.0
 10
445.459164
 20
279.585890
 30
0.0
 10
450.481878
 20
288.176613
 30
0.0
 10
459.142533
 20
293.149001
 30
0.0
 10
469.128795
 20
293.071843
 30
0.0
 10
477.723565
 20
288.056418
 30
0.0
 10
482.666325
 20
279.431198
 30
0.0
 10
482.621739
 20
269.665754
 30
0.0
 10
477.917814
 20
260.908353
 30
0.0
 10
472.179682
 20
258.210808
 30
0.0
 10
469.268901
 20
256.842424
 30
0.0
 11
468.714593
 21
256.687599
 31
0.0
 11
459.089514
 21
256.759310
 31
0.0
 11
451.024721
 21
261.470164
 31
0.0
 11
446.234431
 21
269.818844
 31
0.0
 11
446.306141
 21
279.443923
 31
0.0
 11
451.016995
 21
287.508716
 31
0.0
 11
459.365675
 21
292.299007
 31
0.0
 11
468.990754
 21
292.227296
 31
0.0
 11
477.055547
 21
287.516445
 31
0.0
 11
481.845838
 21
279.167769
 31
0.0
 11
481.825813
 21
269.733025
 31
0.0
 11
477.327752
 21
261.748508
 31
0.0
 11
469.268901
 21
256.842424
 31
0.0
  0
SPLINE
  5
154
100
AcDbEntity
  8
Layer_1
 62
7
100
AcDbSpline
 70
0
 71
3
 72
19
 73
15
 74
13
 40
0.000000
 40
0.000000
 40
0.000000
 40
0.000000
 40
3.363370
 40
6.626984
 40
9.990355
 40
13.353725
 40
16.617338
 40
19.980710
 40
23.344079
 40
26.607693
 40
29.971063
 40
33.267838
 40
36.470118
 40
39.766893
 40
39.766893
 40
39.766893
 40
39.766893
 10
465.732462
 20
268.280400
 30
0.0
 10
464.590765
 20
268.163466
 30
0.0
 10
462.341233
 20
267.933066
 30
0.0
 10
459.311783
 20
269.785483
 30
0.0
 10
457.581968
 20
272.785206
 30
0.0
 10
457.606353
 20
276.281715
 30
0.0
 10
459.361433
 20
279.283558
 30
0.0
 10
462.387712
 20
281.021052
 30
0.0
 10
465.877196
 20
280.994091
 30
0.0
 10
468.880454
 20
279.241559
 30
0.0
 10
470.607595
 20
276.227661
 30
0.0
 10
470.592015
 20
272.815337
 30
0.0
 10
468.948330
 20
269.755252
 30
0.0
 10
466.943263
 20
268.812652
 30
0.0
 10
465.926153
 20
268.334500
 30
0.0
 11
465.732462
 21
268.280400
 31
0.0
 11
462.369186
 21
268.305458
 31
0.0
 11
459.551118
 21
269.951564
 31
0.0
 11
457.877254
 21
272.868831
 31
0.0
 11
457.902311
 21
276.232107
 31
0.0
 11
459.548418
 21
279.050176
 31
0.0
 11
462.465684
 21
280.724040
 31
0.0
 11
465.828961
 21
280.698982
 31
0.0
 11
468.647029
 21
279.052876
 31
0.0
 11
470.320893
 21
276.135611
 31
0.0
 11
470.313896
 21
272.838843
 31
0.0
 11
468.742146
 21
270.048826
 31
0.0
 11
465.926153
 21
268.334500
 31
0.0
  0
SPLINE
  5
155
100
AcDbEntity
  8
Layer_1
 62
7
100
AcDbSpline
 70
0
 71
3
 72
19
 73
15
 74
13
 40
0.000000
 40
0.000000
 40
0.000000
 40
0.000000
 40
9.625346
 40
18.965208
 40
28.590558
 40
38.215903
 40
47.555766
 40
57.181115
 40
66.806461
 40
76.146323
 40
85.771668
 40
95.206433
 40
104.370769
 40
113.805532
 40
113.805532
 40
113.805532
 40
113.805532
 10
205.777241
 20
149.966823
 30
0.0
 10
202.509913
 20
149.632180
 30
0.0
 10
196.072165
 20
148.972817
 30
0.0
 10
187.402438
 20
154.274095
 30
0.0
 10
182.452024
 20
162.858749
 30
0.0
 10
182.521812
 20
172.865114
 30
0.0
 10
187.544526
 20
181.455837
 30
0.0
 10
196.205181
 20
186.428225
 30
0.0
 10
206.191443
 20
186.351067
 30
0.0
 10
214.786213
 20
181.335642
 30
0.0
 10
219.728973
 20
172.710422
 30
0.0
 10
219.684387
 20
162.944978
 30
0.0
 10
214.980462
 20
154.187577
 30
0.0
 10
209.242330
 20
151.490032
 30
0.0
 10
206.331549
 20
150.121648
 30
0.0
 11
205.777241
 21
149.966823
 31
0.0
 11
196.152162
 21
150.038534
 31
0.0
 11
188.087369
 21
154.749388
 31
0.0
 11
183.297079
 21
163.098068
 31
0.0
 11
183.368789
 21
172.723147
 31
0.0
 11
188.079643
 21
180.787940
 31
0.0
 11
196.428323
 21
185.578231
 31
0.0
 11
206.053402
 21
185.506520
 31
0.0
 11
214.118195
 21
180.795669
 31
0.0
 11
218.908486
 21
172.446993
 31
0.0
 11
218.888461
 21
163.012249
 31
0.0
 11
214.390400
 21
155.027732
 31
0.0
 11
206.331549
 21
150.121648
 31
0.0
  0
SPLINE
  5
156
100
AcDbEntity
  8
Layer_1
 62
7
100
AcDbSpline
 70
0
 71
3
 72
19
 73
15
 74
13
 40
0.000000
 40
0.000000
 40
0.000000
 40
0.000000
 40
3.363370
 40
6.626984
 40
9.990355
 40
13.353725
 40
16.617338
 40
19.980710
 40
23.344079
 40
26.607693
 40
29.971063
 40
33.267838
 40
36.470118
 40
39.766893
 40
39.766893
 40
39.766893
 40
39.766893
 10
202.795110
 20
161.559624
 30
0.0
 10
201.653413
 20
161.442690
 30
0.0
 10
199.403881
 20
161.212290
 30
0.0
 10
196.374431
 20
163.064707
 30
0.0
 10
194.644616
 20
166.064430
 30
0.0
 10
194.669001
 20
169.560939
 30
0.0
 10
196.424081
 20
172.562782
 30
0.0
 10
199.450360
 20
174.300276
 30
0.0
 10
202.939844
 20
174.273315
 30
0.0
 10
205.943102
 20
172.520783
 30
0.0
 10
207.670243
 20
169.506885
 30
0.0
 10
207.654663
 20
166.094561
 30
0.0
 10
206.010978
 20
163.034476
 30
0.0
 10
204.005911
 20
162.091876
 30
0.0
 10
202.988801
 20
161.613724
 30
0.0
 11
202.795110
 21
161.559624
 31
0.0
 11
199.431834
 21
161.584682
 31
0.0
 11
196.613766
 21
163.230788
 31
0.0
 11
194.939902
 21
166.148055
 31
0.0
 11
194.964959
 21
169.511331
 31
0.0
 11
196.611066
 21
172.329400
 31
0.0
 11
199.528332
 21
174.003264
 31
0.0
 11
202.891609
 21
173.978206
 31
0.0
 11
205.709677
 21
172.332100
 31
0.0
 11
207.383541
 21
169.414835
 31
0.0
 11
207.376544
 21
166.118067
 31
0.0
 11
205.804794
 21
163.328050
 31
0.0
 11
202.988801
 21
161.613724
 31
0.0
  0
SPLINE
  5
157
100
AcDbEntity
  8
Layer_1
 62
7
100
AcDbSpline
 70
0
 71
3
 72
19
 73
15
 74
13
 40
0.000000
 40
0.000000
 40
0.000000
 40
0.000000
 40
9.625346
 40
18.965208
 40
28.590558
 40
38.215903
 40
47.555766
 40
57.181115
 40
66.806461
 40
76.146323
 40
85.771668
 40
95.206433
 40
104.370769
 40
113.805532
 40
113.805532
 40
113.805532
 40
113.805532
 10
297.489041
 20
174.828327
 30
0.0
 10
294.221713
 20
174.493684
 30
0.0
 10
287.783965
 20
173.834321
 30
0.0
 10
279.114238
 20
179.135599
 30
0.0
 10
274.163824
 20
187.720253
 30
0.0
 10
274.233612
 20
197.726618
 30
0.0
 10
279.256326
 20
206.317341
 30
0.0
 10
287.916981
 20
211.289729
 30
0.0
 10
297.903243
 20
211.212571
 30
0.0
 10
306.498013
 20
206.197146
 30
0.0
 10
311.440773
 20
197.571926
 30
0.0
 10
311.396187
 20
187.806482
 30
0.0
 10
306.692262
 20
179.049081
 30
0.0
 10
300.954130
 20
176.351536
 30
0.0
 10
298.043349
 20
174.983152
 30
0.0
 11
297.489041
 21
174.828327
 31
0.0
 11
287.863962
 21
174.900038
 31
0.0
 11
279.799169
 21
179.610892
 31
0.0
 11
275.008879
 21
187.959572
 31
0.0
 11
275.080589
 21
197.584651
 31
0.0
 11
279.791443
 21
205.649444
 31
0.0
 11
288.140123
 21
210.439735
 31
0.0
 11
297.765202
 21
210.368024
 31
0.0
 11
305.829995
 21
205.657173
 31
0.0
 11
310.620286
 21
197.308497
 31
0.0
 11
310.600261
 21
187.873753
 31
0.0
 11
306.102200
 21
179.889236
 31
0.0
 11
298.043349
 21
174.983152
 31
0.0
  0
SPLINE
  5
158
100
AcDbEntity
  8
Layer_1
 62
7
100
AcDbSpline
 70
0
 71
3
 72
19
 73
15
 74
13
 40
0.000000
 40
0.000000
 40
0.000000
 40
0.000000
 40
3.363370
 40
6.626984
 40
9.990355
 40
13.353725
 40
16.617338
 40
19.980710
 40
23.344079
 40
26.607693
 40
29.971063
 40
33.267838
 40
36.470118
 40
39.766893
 40
39.766893
 40
39.766893
 40
39.766893
 10
294.506910
 20
186.421128
 30
0.0
 10
293.365213
 20
186.304194
 30
0.0
 10
291.115681
 20
186.073794
 30
0.0
 10
288.086231
 20
187.926211
 30
0.0
 10
286.356416
 20
190.925934
 30
0.0
 10
286.380801
 20
194.422443
 30
0.0
 10
288.135881
 20
197.424286
 30
0.0
 10
291.162160
 20
199.161780
 30
0.0
 10
294.651644
 20
199.134819
 30
0.0
 10
297.654902
 20
197.382287
 30
0.0
 10
299.382043
 20
194.368389
 30
0.0
 10
299.366463
 20
190.956065
 30
0.0
 10
297.722778
 20
187.895980
 30
0.0
 10
295.717711
 20
186.953380
 30
0.0
 10
294.700601
 20
186.475228
 30
0.0
 11
294.506910
 21
186.421128
 31
0.0
 11
291.143634
 21
186.446186
 31
0.0
 11
288.325566
 21
188.092292
 31
0.0
 11
286.651702
 21
191.009559
 31
0.0
 11
286.676759
 21
194.372835
 31
0.0
 11
288.322866
 21
197.190904
 31
0.0
 11
291.240132
 21
198.864768
 31
0.0
 11
294.603409
 21
198.839710
 31
0.0
 11
297.421477
 21
197.193604
 31
0.0
 11
299.095341
 21
194.276339
 31
0.0
 11
299.088344
 21
190.979571
 31
0.0
 11
297.516594
 21
188.189554
 31
0.0
 11
294.700601
 21
186.475228
 31
0.0
  0
SPLINE
  5
159
100
AcDbEntity
  8
Layer_1
 62
7
100
AcDbSpline
 70
0
 71
3
 72
10
 73
6
 74
4
 40
0.000000
 40
0.000000
 40
0.000000
 40
0.000000
 40
10.243437
 40
19.328310
 40
31.747359
 40
31.747359
 40
31.747359
 40
31.747359
 10
-23.497402
 20
287.725196
 30
0.0
 10
-26.792663
 20
287.888514
 30
0.0
 10
-33.010482
 20
288.196678
 30
0.0
 10
-45.155431
 20
290.207187
 30
0.0
 10
-44.884199
 20
298.597019
 30
0.0
 10
-44.727555
 20
303.442356
 30
0.0
 11
-23.497402
 21
287.725196
 31
0.0
 11
-33.713551
 21
288.472388
 31
0.0
 11
-42.363254
 21
291.250438
 31
0.0
 11
-44.727555
 21
303.442356
 31
0.0
  0
LWPOLYLINE
  5
15a
100
AcDbEntity
  8
Layer_1
 62
7
100
AcDbPolyline
 90
2
 70
0
 10
294.724824
 20
248.096828
 30
0.0
 10
264.080744
 20
277.368820
 30
0.0
  0
SPLINE
  5
15b
100
AcDbEntity
  8
Layer_1
 62
7
100
AcDbSpline
 70
0
 71
3
 72
10
 73
6
 74
4
 40
0.000000
 40
0.000000
 40
0.000000
 40
0.000000
 40
5.041617
 40
10.239207
 40
15.842827
 40
15.842827
 40
15.842827
 40
15.842827
 10
-44.727555
 20
303.442356
 30
0.0
 10
-43.748290
 20
305.059223
 30
0.0
 10
-41.759463
 20
308.342979
 30
0.0
 10
-35.906992
 20
306.383302
 30
0.0
 10
-32.510107
 20
305.639090
 30
0.0
 10
-30.747818
 20
305.252996
 30
0.0
 11
-44.727555
 21
303.442356
 31
0.0
 11
-41.354911
 21
307.189777
 31
0.0
 11
-36.194336
 21
306.570571
 31
0.0
 11
-30.747818
 21
305.252996
 31
0.0
  0
LWPOLYLINE
  5
15c
100
AcDbEntity
  8
Layer_1
 62
7
100
AcDbPolyline
 90
2
 70
1
 10
-30.747818
 20
305.252996
 30
0.0
 10
-38.581245
 20
333.732252
 30
0.0
  0
SPLINE
  5
15d
100
AcDbEntity
  8
Layer_1
 62
7
100
AcDbSpline
 70
0
 71
3
 72
10
 73
6
 74
4
 40
0.000000
 40
0.000000
 40
0.000000
 40
0.000000
 40
10.499182
 40
19.711996
 40
29.520949
 40
29.520949
 40
29.520949
 40
29.520949
 10
-38.581245
 20
333.732252
 30
0.0
 10
-37.765360
 20
337.335314
 30
0.0
 10
-36.233553
 20
344.099988
 30
0.0
 10
-26.762974
 20
348.822182
 30
0.0
 10
-20.748779
 20
350.560036
 30
0.0
 10
-17.647440
 20
351.456196
 30
0.0
 11
-38.581245
 21
333.732252
 31
0.0
 11
-34.774137
 21
343.516870
 31
0.0
 11
-26.974899
 21
348.420729
 31
0.0
 11
-17.647440
 21
351.456196
 31
0.0
  0
SPLINE
  5
15e
100
AcDbEntity
  8
Layer_1
 62
7
100
AcDbSpline
 70
0
 71
3
 72
13
 73
9
 74
7
 40
0.000000
 40
0.000000
 40
0.000000
 40
0.000000
 40
4.058928
 40
11.532006
 40
16.972535
 40
30.435904
 40
43.725778
 40
53.122332
 40
53.122332
 40
53.122332
 40
53.122332
 10
5.849684
 20
332.179844
 30
0.0
 10
5.968399
 20
333.529634
 30
0.0
 10
6.305686
 20
337.364585
 30
0.0
 10
7.001826
 20
342.918324
 30
0.0
 10
12.240890
 20
351.244379
 30
0.0
 10
27.042979
 20
344.030725
 30
0.0
 10
24.806180
 20
330.353049
 30
0.0
 10
20.816008
 20
324.033375
 30
0.0
 10
19.163307
 20
321.415812
 30
0.0
 11
5.849684
 21
332.179844
 31
0.0
 11
6.222641
 21
336.221601
 31
0.0
 11
7.766788
 21
343.533407
 31
0.0
 11
11.056290
 21
347.866828
 31
0.0
 11
23.588346
 21
342.946474
 31
0.0
 11
23.677692
 21
329.656901
 31
0.0
 11
19.163307
 21
321.415812
 31
0.0
  0
SPLINE
  5
15f
100
AcDbEntity
  8
Layer_1
 62
7
100
AcDbSpline
 70
0
 71
3
 72
10
 73
6
 74
4
 40
0.000000
 40
0.000000
 40
0.000000
 40
0.000000
 40
13.359700
 40
26.700436
 40
35.653854
 40
35.653854
 40
35.653854
 40
35.653854
 10
19.163307
 20
321.415812
 30
0.0
 10
22.023125
 20
318.183846
 30
0.0
 10
27.738700
 20
311.724501
 30
0.0
 10
36.468943
 20
301.131679
 30
0.0
 10
32.990886
 20
293.989870
 30
0.0
 10
31.594085
 20
291.121692
 30
0.0
 11
19.163307
 21
321.415812
 31
0.0
 11
27.948633
 21
311.351039
 31
0.0
 11
34.343074
 21
299.642651
 31
0.0
 11
31.594085
 21
291.121692
 31
0.0
  0
SPLINE
  5
160
100
AcDbEntity
  8
Layer_1
 62
7
100
AcDbSpline
 70
0
 71
3
 72
13
 73
9
 74
7
 40
0.000000
 40
0.000000
 40
0.000000
 40
0.000000
 40
1.600387
 40
3.172185
 40
4.654463
 40
7.145167
 40
9.005013
 40
11.485251
 40
11.485251
 40
11.485251
 40
11.485251
 10
31.594085
 20
291.121692
 30
0.0
 10
31.906460
 20
290.689377
 30
0.0
 10
32.525631
 20
289.832469
 30
0.0
 10
33.430254
 20
288.570214
 30
0.0
 10
34.413789
 20
287.009603
 30
0.0
 10
35.413457
 20
285.313718
 30
0.0
 10
35.136427
 20
282.712243
 30
0.0
 10
33.605713
 20
282.251366
 30
0.0
 10
32.730953
 20
281.987988
 30
0.0
 11
31.594085
 21
291.121692
 31
0.0
 11
32.530540
 21
289.823890
 31
0.0
 11
33.433920
 21
288.537635
 31
0.0
 11
34.231599
 21
287.288292
 31
0.0
 11
35.219361
 21
285.001824
 31
0.0
 11
34.912817
 21
283.167415
 31
0.0
 11
32.730953
 21
281.987988
 31
0.0
  0
SPLINE
  5
161
100
AcDbEntity
  8
Layer_1
 62
7
100
AcDbSpline
 70
0
 71
3
 72
10
 73
6
 74
4
 40
0.000000
 40
0.000000
 40
0.000000
 40
0.000000
 40
9.270107
 40
17.926980
 40
26.908571
 40
26.908571
 40
26.908571
 40
26.908571
 10
32.730953
 20
281.987988
 30
0.0
 10
29.722087
 20
281.216562
 30
0.0
 10
23.903397
 20
279.724741
 30
0.0
 10
16.373979
 20
274.320867
 30
0.0
 10
13.327346
 20
269.239935
 30
0.0
 10
11.775986
 20
266.652700
 30
0.0
 11
32.730953
 21
281.987988
 31
0.0
 11
23.918928
 21
279.109948
 31
0.0
 11
16.919831
 21
274.015433
 31
0.0
 11
11.775986
 21
266.652700
 31
0.0
  0
SPLINE
  5
162
100
AcDbEntity
  8
Layer_1
 62
7
100
AcDbSpline
 70
0
 71
3
 72
13
 73
9
 74
7
 40
0.000000
 40
0.000000
 40
0.000000
 40
0.000000
 40
2.272763
 40
3.860758
 40
6.267696
 40
7.762858
 40
9.376453
 40
11.043304
 40
11.043304
 40
11.043304
 40
11.043304
 10
11.775986
 20
266.652700
 30
0.0
 10
11.501244
 20
265.822251
 30
0.0
 10
11.034537
 20
264.411563
 30
0.0
 10
8.576021
 20
264.713686
 30
0.0
 10
7.344052
 20
266.107756
 30
0.0
 10
6.096410
 20
267.451076
 30
0.0
 10
5.093450
 20
268.689986
 30
0.0
 10
4.412679
 20
269.545332
 30
0.0
 10
4.066768
 20
269.979948
 30
0.0
 11
11.775986
 21
266.652700
 31
0.0
 11
10.588687
 21
264.714718
 31
0.0
 11
9.003207
 21
264.804068
 31
0.0
 11
7.136779
 21
266.323868
 31
0.0
 11
6.134835
 21
267.433651
 31
0.0
 11
5.106614
 21
268.677215
 31
0.0
 11
4.066768
 21
269.979948
 31
0.0
  0
LWPOLYLINE
  5
163
100
AcDbEntity
  8
Layer_1
 62
7
100
AcDbPolyline
 90
2
 70
1
 10
-17.647440
 20
351.456196
 30
0.0
 10
5.849684
 20
332.179844
 30
0.0
  0
LWPOLYLINE
  5
164
100
AcDbEntity
  8
Layer_1
 62
7
100
AcDbPolyline
 90
2
 70
1
 10
-23.497439
 20
287.725164
 30
0.0
 10
-23.497402
 20
287.725196
 30
0.0
  0
LWPOLYLINE
  5
165
100
AcDbEntity
  8
Layer_1
 62
1
100
AcDbPolyline
 90
2
 70
0
 10
-23.138000
 20
287.702972
 30
0.0
 10
-30.584354
 20
304.776380
 30
0.0
  0
SPLINE
  5
166
100
AcDbEntity
  8
Layer_1
 62
7
100
AcDbSpline
 70
0
 71
3
 72
10
 73
6
 74
4
 40
0.000000
 40
0.000000
 40
0.000000
 40
0.000000
 40
8.369587
 40
19.982611
 40
37.298611
 40
37.298611
 40
37.298611
 40
37.298611
 10
4.066768
 20
269.979948
 30
0.0
 10
1.397150
 20
268.615266
 30
0.0
 10
-4.976632
 20
265.357051
 30
0.0
 10
-16.138085
 20
274.663357
 30
0.0
 10
-20.741800
 20
282.834297
 30
0.0
 10
-23.497439
 20
287.725164
 30
0.0
 11
4.066768
 21
269.979948
 31
0.0
 11
-3.872953
 21
267.332152
 31
0.0
 11
-13.778335
 21
273.393978
 31
0.0
 11
-23.497439
 21
287.725164
 31
0.0
  0
LWPOLYLINE
  5
167
100
AcDbEntity
  8
Layer_1
 62
1
100
AcDbPolyline
 90
2
 70
0
 10
19.002586
 20
321.288756
 30
0.0
 10
5.854010
 20
332.174556
 30
0.0
  0
SPLINE
  5
168
100
AcDbEntity
  8
Layer_1
 62
1
100
AcDbSpline
 70
0
 71
3
 72
10
 73
6
 74
4
 40
0.000000
 40
0.000000
 40
0.000000
 40
0.000000
 40
4.350535
 40
9.625178
 40
18.794743
 40
18.794743
 40
18.794743
 40
18.794743
 10
-25.026857
 20
301.807332
 30
0.0
 10
-24.244120
 20
303.027644
 30
0.0
 10
-22.512385
 20
305.727479
 30
0.0
 10
-18.435058
 20
310.557162
 30
0.0
 10
-14.346221
 20
313.165367
 30
0.0
 10
-11.750519
 20
314.821124
 30
0.0
 11
-25.026857
 21
301.807332
 31
0.0
 11
-22.605846
 21
305.422005
 31
0.0
 11
-19.152629
 21
309.409128
 31
0.0
 11
-11.750519
 21
314.821124
 31
0.0
  0
LWPOLYLINE
  5
169
100
AcDbEntity
  8
Layer_1
 62
1
100
AcDbPolyline
 90
2
 70
0
 10
-11.750519
 20
314.821124
 30
0.0
 10
-6.758049
 20
308.717364
 30
0.0
  0
SPLINE
  5
16a
100
AcDbEntity
  8
Layer_1
 62
1
100
AcDbSpline
 70
0
 71
3
 72
10
 73
6
 74
4
 40
0.000000
 40
0.000000
 40
0.000000
 40
0.000000
 40
6.508688
 40
12.741109
 40
18.608452
 40
18.608452
 40
18.608452
 40
18.608452
 10
-9.270367
 20
316.834484
 30
0.0
 10
-7.682823
 20
318.304321
 30
0.0
 10
-4.575121
 20
321.181607
 30
0.0
 10
0.273593
 20
325.196658
 30
0.0
 10
4.143651
 20
326.451929
 30
0.0
 10
6.020296
 20
327.060628
 30
0.0
 11
-9.270367
 21
316.834484
 31
0.0
 11
-4.452364
 21
321.210540
 31
0.0
 11
0.559025
 21
324.915814
 31
0.0
 11
6.020296
 21
327.060628
 31
0.0
  0
LWPOLYLINE
  5
16b
100
AcDbEntity
  8
Layer_1
 62
1
100
AcDbPolyline
 90
2
 70
0
 10
-10.468030
 20
298.972284
 30
0.0
 10
-8.434002
 20
295.004500
 30
0.0
  0
SPLINE
  5
16c
100
AcDbEntity
  8
Layer_1
 62
1
100
AcDbSpline
 70
0
 71
3
 72
10
 73
6
 74
4
 40
0.000000
 40
0.000000
 40
0.000000
 40
0.000000
 40
7.153331
 40
14.103675
 40
20.933047
 40
20.933047
 40
20.933047
 40
20.933047
 10
-8.434002
 20
295.004500
 30
0.0
 10
-6.886747
 20
296.815898
 30
0.0
 10
-3.836143
 20
300.387294
 30
0.0
 10
1.273723
 20
305.231868
 30
0.0
 10
5.347705
 20
307.395442
 30
0.0
 10
7.366813
 20
308.467732
 30
0.0
 11
-8.434002
 21
295.004500
 31
0.0
 11
-3.691350
 21
300.359629
 31
0.0
 11
1.483954
 21
304.998971
 31
0.0
 11
7.366813
 21
308.467732
 31
0.0
  0
SPLINE
  5
16d
100
AcDbEntity
  8
Layer_1
 62
1
100
AcDbSpline
 70
0
 71
3
 72
19
 73
15
 74
13
 40
0.000000
 40
0.000000
 40
0.000000
 40
0.000000
 40
1.585423
 40
3.074461
 40
4.500381
 40
5.866840
 40
7.247256
 40
8.777964
 40
10.363349
 40
11.855121
 40
13.284166
 40
14.650727
 40
16.028215
 40
17.555982
 40
17.555982
 40
17.555982
 40
17.555982
 10
-11.443898
 20
305.741552
 30
0.0
 10
-11.826114
 20
305.363867
 30
0.0
 10
-12.567309
 20
304.631457
 30
0.0
 10
-14.105123
 20
304.282623
 30
0.0
 10
-15.551787
 20
304.669196
 30
0.0
 10
-16.501557
 20
305.812756
 30
0.0
 10
-16.628677
 20
307.307598
 30
0.0
 10
-15.985806
 20
308.725393
 30
0.0
 10
-14.768725
 20
309.743612
 30
0.0
 10
-13.265482
 20
310.138323
 30
0.0
 10
-11.801672
 20
309.768498
 30
0.0
 10
-10.839253
 20
308.650110
 30
0.0
 10
-10.658709
 20
307.137613
 30
0.0
 10
-11.136047
 20
306.272158
 30
0.0
 10
-11.387061
 20
305.817047
 30
0.0
 11
-11.443898
 21
305.741552
 31
0.0
 11
-12.672814
 21
304.739888
 31
0.0
 11
-14.123790
 21
304.405369
 31
0.0
 11
-15.491576
 21
304.808369
 31
0.0
 11
-16.363862
 21
305.860191
 31
0.0
 11
-16.511173
 21
307.232723
 31
0.0
 11
-15.902520
 21
308.637219
 31
0.0
 11
-14.687261
 21
309.655351
 31
0.0
 11
-13.238592
 21
310.011359
 31
0.0
 11
-11.861276
 21
309.630348
 31
0.0
 11
-10.969964
 21
308.594466
 31
0.0
 11
-10.799972
 21
307.227508
 31
0.0
 11
-11.387061
 21
305.817047
 31
0.0
  0
LWPOLYLINE
  5
16e
100
AcDbEntity
  8
Layer_1
 62
1
100
AcDbPolyline
 90
2
 70
0
 10
7.366813
 20
308.467732
 30
0.0
 10
4.398988
 20
311.054684
 30
0.0
  0
LWPOLYLINE
  5
16f
100
AcDbEntity
  8
Layer_1
 62
1
100
AcDbPolyline
 90
2
 70
0
 10
-39.701692
 20
305.399316
 30
0.0
 10
-40.519384
 20
294.551228
 30
0.0
  0
LWPOLYLINE
  5
170
100
AcDbEntity
  8
Layer_1
 62
1
100
AcDbPolyline
 90
2
 70
0
 10
11.677077
 20
344.030716
 30
0.0
 10
20.360405
 20
343.781356
 30
0.0
  0
SPLINE
  5
171
100
AcDbEntity
  8
Layer_1
 62
1
100
AcDbSpline
 70
0
 71
3
 72
19
 73
15
 74
13
 40
0.000000
 40
0.000000
 40
0.000000
 40
0.000000
 40
1.585423
 40
3.074461
 40
4.500381
 40
5.866840
 40
7.247256
 40
8.777964
 40
10.363349
 40
11.855121
 40
13.284166
 40
14.650727
 40
16.028215
 40
17.555982
 40
17.555982
 40
17.555982
 40
17.555982
 10
-1.279898
 20
314.180984
 30
0.0
 10
-1.662114
 20
313.803299
 30
0.0
 10
-2.403309
 20
313.070889
 30
0.0
 10
-3.941123
 20
312.722055
 30
0.0
 10
-5.387787
 20
313.108628
 30
0.0
 10
-6.337557
 20
314.252188
 30
0.0
 10
-6.464677
 20
315.747030
 30
0.0
 10
-5.821806
 20
317.164825
 30
0.0
 10
-4.604725
 20
318.183044
 30
0.0
 10
-3.101482
 20
318.577755
 30
0.0
 10
-1.637672
 20
318.207930
 30
0.0
 10
-0.675253
 20
317.089542
 30
0.0
 10
-0.494709
 20
315.577045
 30
0.0
 10
-0.972047
 20
314.711590
 30
0.0
 10
-1.223061
 20
314.256479
 30
0.0
 11
-1.279898
 21
314.180984
 31
0.0
 11
-2.508814
 21
313.179320
 31
0.0
 11
-3.959790
 21
312.844801
 31
0.0
 11
-5.327576
 21
313.247801
 31
0.0
 11
-6.199862
 21
314.299623
 31
0.0
 11
-6.347173
 21
315.672155
 31
0.0
 11
-5.738520
 21
317.076651
 31
0.0
 11
-4.523261
 21
318.094783
 31
0.0
 11
-3.074592
 21
318.450791
 31
0.0
 11
-1.697276
 21
318.069780
 31
0.0
 11
-0.805964
 21
317.033898
 31
0.0
 11
-0.635972
 21
315.666940
 31
0.0
 11
-1.223061
 21
314.256479
 31
0.0
  0
SPLINE
  5
172
100
AcDbEntity
  8
Layer_1
 62
1
100
AcDbSpline
 70
0
 71
3
 72
10
 73
6
 74
4
 40
0.000000
 40
0.000000
 40
0.000000
 40
0.000000
 40
11.201449
 40
24.051085
 40
34.812433
 40
34.812433
 40
34.812433
 40
34.812433
 10
-8.613750
 20
286.338068
 30
0.0
 10
-4.567084
 20
285.954065
 30
0.0
 10
4.121676
 20
285.129558
 30
0.0
 10
10.209506
 20
297.427539
 30
0.0
 10
10.994924
 20
305.087393
 30
0.0
 10
11.352899
 20
308.578580
 30
0.0
 11
-8.613750
 21
286.338068
 31
0.0
 11
2.553879
 21
287.207853
 31
0.0
 11
9.584406
 21
297.963542
 31
0.0
 11
11.352899
 21
308.578580
 31
0.0
  0
LWPOLYLINE
  5
173
100
AcDbEntity
  8
Layer_1
 62
1
100
AcDbPolyline
 90
2
 70
0
 10
0.872135
 20
273.766444
 30
0.0
 10
3.681639
 20
270.331564
 30
0.0
  0
LWPOLYLINE
  5
174
100
AcDbEntity
  8
Layer_1
 62
1
100
AcDbPolyline
 90
2
 70
1
 10
-8.613750
 20
286.338068
 30
0.0
 10
-8.613750
 20
286.338068
 30
0.0
  0
SPLINE
  5
175
100
AcDbEntity
  8
Layer_1
 62
1
100
AcDbSpline
 70
0
 71
3
 72
10
 73
6
 74
4
 40
0.000000
 40
0.000000
 40
0.000000
 40
0.000000
 40
17.135409
 40
33.771346
 40
54.771392
 40
54.771392
 40
54.771392
 40
54.771392
 10
11.352899
 20
308.578580
 30
0.0
 10
15.376666
 20
303.921911
 30
0.0
 10
23.306914
 20
294.744308
 30
0.0
 10
10.861235
 20
272.586053
 30
0.0
 10
-1.638933
 20
281.412889
 30
0.0
 10
-8.613750
 20
286.338068
 30
0.0
 11
11.352899
 21
308.578580
 31
0.0
 11
19.406933
 21
293.453938
 31
0.0
 11
11.081484
 21
279.051115
 31
0.0
 11
-8.613750
 21
286.338068
 31
0.0
  0
LWPOLYLINE
  5
176
100
AcDbEntity
  8
Layer_1
 62
1
100
AcDbPolyline
 90
2
 70
0
 10
28.390804
 20
294.778196
 30
0.0
 10
31.200307
 20
291.343316
 30
0.0
  0
ENDSEC
  0
SECTION
  2
OBJECTS
  0
DICTIONARY
  5
C
330
0
100
AcDbDictionary
  3
ACAD_GROUP
350
D
  3
ACAD_MLINESTYLE
350
17
  0
DICTIONARY
  5
D
330
C
100
AcDbDictionary
  0
DICTIONARY
  5
1A
330
C
100
AcDbDictionary
  0
DICTIONARY
  5
17
330
C
100
AcDbDictionary
  3
STANDARD
350
18
  0
DICTIONARY
  5
19
330
C
100
AcDbDictionary
  0
ENDSEC
  0
EOF
