  0
SECTION
  2
HEADER
  9
$ACADVER
  1
AC1014
  9
$HANDSEED
  5
FFFF
  9
$MEASUREMENT
 70
     1
  0
ENDSEC
  0
SECTION
  2
TABLES
  0
TABLE
  2
VPORT
  5
8
330
0
100
AcDbSymbolTable
 70
     4
  0
VPORT
  5
2E
330
8
100
AcDbSymbolTableRecord
100
AcDbViewportTableRecord
  2
*ACTIVE
 70
     0
 10
0.0
 20
0.0
 11
1.0
 21
1.0
 12
210.0
 22
148.5
 13
0.0
 23
0.0
 14
10.0
 24
10.0
 15
10.0
 25
10.0
 16
0.0
 26
0.0
 36
1.0
 17
0.0
 27
0.0
 37
0.0
 40
341.0
 41
1.24
 42
50.0
 43
0.0
 44
0.0
 50
0.0
 51
0.0
 71
     0
 72
   100
 73
     1
 74
     3
 75
     0
 76
     0
 77
     0
 78
     0
  0
ENDTAB
  0
TABLE
  2
LTYPE
  5
5
330
0
100
AcDbSymbolTable
 70
     1
  0
LTYPE
  5
14
330
5
100
AcDbSymbolTableRecord
100
AcDbLinetypeTableRecord
  2
BYBLOCK
 70
     0
  3

 72
    65
 73
     0
 40
0.0
  0
LTYPE
  5
15
330
5
100
AcDbSymbolTableRecord
100
AcDbLinetypeTableRecord
  2
BYLAYER
 70
     0
  3

 72
    65
 73
     0
 40
0.0
  0
LTYPE
  5
16
330
5
100
AcDbSymbolTableRecord
100
AcDbLinetypeTableRecord
  2
CONTINUOUS
 70
     0
  3
Solid line
 72
    65
 73
     0
 40
0.0
  0
ENDTAB
  0
TABLE
  2
LAYER
  5
2
100
AcDbSymbolTable
 70
2
  0
LAYER
  5
50
100
AcDbSymbolTableRecord
100
AcDbLayerTableRecord
  2
0
 70
0
  6
CONTINUOUS
  0
LAYER
  5
51
100
AcDbSymbolTableRecord
100
AcDbLayerTableRecord
  2
Layer_1
 70
0
  6
CONTINUOUS
  0
ENDTAB
  0
TABLE
  2
STYLE
  5
3
330
0
100
AcDbSymbolTable
 70
     1
  0
STYLE
  5
11
330
3
100
AcDbSymbolTableRecord
100
AcDbTextStyleTableRecord
  2
STANDARD
 70
     0
 40
0.0
 41
1.0
 50
0.0
 71
     0
 42
2.5
  3
txt
  4

  0
ENDTAB
  0
TABLE
  2
VIEW
  5
6
330
0
100
AcDbSymbolTable
 70
     0
  0
ENDTAB
  0
TABLE
  2
UCS
  5
7
330
0
100
AcDbSymbolTable
 70
     0
  0
ENDTAB
  0
TABLE
  2
APPID
  5
9
330
0
100
AcDbSymbolTable
 70
     2
  0
APPID
  5
12
330
9
100
AcDbSymbolTableRecord
100
AcDbRegAppTableRecord
  2
ACAD
 70
     0
  0
ENDTAB
  0
TABLE
  2
DIMSTYLE
  5
A
330
0
100
AcDbSymbolTable
 70
     1
  0
DIMSTYLE
105
27
330
A
100
AcDbSymbolTableRecord
100
AcDbDimStyleTableRecord
  2
ISO-25
 70
     0
  3

  4

  5

  6

  7

 40
1.0
 41
2.5
 42
0.625
 43
3.75
 44
1.25
 45
0.0
 46
0.0
 47
0.0
 48
0.0
140
2.5
141
2.5
142
0.0
143
0.03937007874016
144
1.0
145
0.0
146
1.0
147
0.625
 71
     0
 72
     0
 73
     0
 74
     0
 75
     0
 76
     0
 77
     1
 78
     8
170
     0
171
     3
172
     1
173
     0
174
     0
175
     0
176
     0
177
     0
178
     0
270
     2
271
     2
272
     2
273
     2
274
     3
340
11
275
     0
280
     0
281
     0
282
     0
283
     0
284
     8
285
     0
286
     0
287
     3
288
     0
  0
ENDTAB
  0
TABLE
  2
BLOCK_RECORD
  5
1
330
0
100
AcDbSymbolTable
 70
     1
  0
BLOCK_RECORD
  5
1F
330
1
100
AcDbSymbolTableRecord
100
AcDbBlockTableRecord
  2
*MODEL_SPACE
  0
BLOCK_RECORD
  5
1B
330
1
100
AcDbSymbolTableRecord
100
AcDbBlockTableRecord
  2
*PAPER_SPACE
  0
ENDTAB
  0
ENDSEC
  0
SECTION
  2
BLOCKS
  0
BLOCK
  5
20
330
1F
100
AcDbEntity
  8
0
100
AcDbBlockBegin
  2
*MODEL_SPACE
 70
     0
 10
0.0
 20
0.0
 30
0.0
  3
*MODEL_SPACE
  1

  0
ENDBLK
  5
21
330
1F
100
AcDbEntity
  8
0
100
AcDbBlockEnd
  0
BLOCK
  5
1C
330
1B
100
AcDbEntity
 67
     1
  8
0
100
AcDbBlockBegin
  2
*PAPER_SPACE
  1

  0
ENDBLK
  5
1D
330
1B
100
AcDbEntity
 67
     1
  8
0
100
AcDbBlockEnd
  0
ENDSEC
  0
SECTION
  2
ENTITIES
  0
LINE
  5
100
100
AcDbEntity
  8
Layer_1
 62
7
100
AcDbLine
 10
0.078199
 20
0.163396
 30
0.0
 11
0.077800
 21
0.143036
 31
0.0
  0
LINE
  5
101
100
AcDbEntity
  8
Layer_1
 62
7
100
AcDbLine
 10
0.077800
 20
0.143036
 30
0.0
 11
0.066622
 21
0.142438
 31
0.0
  0
LINE
  5
102
100
AcDbEntity
  8
Layer_1
 62
7
100
AcDbLine
 10
0.060834
 20
0.139643
 30
0.0
 11
0.054446
 21
0.132258
 31
0.0
  0
LINE
  5
103
100
AcDbEntity
  8
Layer_1
 62
7
100
AcDbLine
 10
0.054446
 20
0.132258
 30
0.0
 11
0.041472
 21
0.128266
 31
0.0
  0
SPLINE
  5
104
100
AcDbEntity
  8
Layer_1
 62
7
100
AcDbSpline
 70
0
 71
3
 72
10
 73
6
 74
4
 40
0.000000
 40
0.000000
 40
0.000000
 40
0.000000
 40
0.002804
 40
0.004809
 40
0.006524
 40
0.006524
 40
0.006524
 40
0.006524
 10
0.066622
 20
0.142438
 30
0.0
 10
0.065701
 20
0.142245
 30
0.0
 10
0.064123
 20
0.141915
 30
0.0
 10
0.062206
 20
0.140827
 30
0.0
 10
0.061267
 20
0.140017
 30
0.0
 10
0.060834
 20
0.139643
 30
0.0
 11
0.066622
 21
0.142438
 31
0.0
 11
0.063917
 21
0.141700
 31
0.0
 11
0.062166
 21
0.140724
 31
0.0
 11
0.060834
 21
0.139643
 31
0.0
  0
LINE
  5
105
100
AcDbEntity
  8
Layer_1
 62
7
100
AcDbLine
 10
0.026303
 20
0.114893
 30
0.0
 11
0.021313
 21
0.106509
 31
0.0
  0
LINE
  5
106
100
AcDbEntity
  8
Layer_1
 62
7
100
AcDbLine
 10
0.021313
 20
0.106509
 30
0.0
 11
0.015125
 21
0.109903
 31
0.0
  0
SPLINE
  5
107
100
AcDbEntity
  8
Layer_1
 62
7
100
AcDbSpline
 70
0
 71
3
 72
10
 73
6
 74
4
 40
0.000000
 40
0.000000
 40
0.000000
 40
0.000000
 40
0.007227
 40
0.013895
 40
0.020441
 40
0.020441
 40
0.020441
 40
0.020441
 10
0.041472
 20
0.128266
 30
0.0
 10
0.039320
 20
0.127148
 30
0.0
 10
0.035183
 20
0.124998
 30
0.0
 10
0.030391
 20
0.120044
 30
0.0
 10
0.027657
 20
0.116599
 30
0.0
 10
0.026303
 20
0.114893
 30
0.0
 11
0.041472
 21
0.128266
 31
0.0
 11
0.035254
 21
0.124582
 31
0.0
 11
0.030455
 21
0.119953
 31
0.0
 11
0.026303
 21
0.114893
 31
0.0
  0
LINE
  5
108
100
AcDbEntity
  8
Layer_1
 62
7
100
AcDbLine
 10
0.014127
 20
0.105312
 30
0.0
 11
0.020115
 21
0.098925
 31
0.0
  0
SPLINE
  5
109
100
AcDbEntity
  8
Layer_1
 62
7
100
AcDbSpline
 70
0
 71
3
 72
10
 73
6
 74
4
 40
0.000000
 40
0.000000
 40
0.000000
 40
0.000000
 40
0.001737
 40
0.003321
 40
0.004869
 40
0.004869
 40
0.004869
 40
0.004869
 10
0.015125
 20
0.109903
 30
0.0
 10
0.014833
 20
0.109405
 30
0.0
 10
0.014274
 20
0.108455
 30
0.0
 10
0.013747
 20
0.106855
 30
0.0
 10
0.014001
 20
0.105822
 30
0.0
 10
0.014127
 20
0.105312
 30
0.0
 11
0.015125
 21
0.109903
 31
0.0
 11
0.014303
 21
0.108372
 31
0.0
 11
0.013895
 21
0.106842
 31
0.0
 11
0.014127
 21
0.105312
 31
0.0
  0
LINE
  5
10a
100
AcDbEntity
  8
Layer_1
 62
7
100
AcDbLine
 10
0.030694
 20
0.057008
 30
0.0
 11
0.042071
 21
0.041040
 31
0.0
  0
LINE
  5
10b
100
AcDbEntity
  8
Layer_1
 62
7
100
AcDbLine
 10
0.042071
 20
0.041040
 30
0.0
 11
0.038079
 21
0.040442
 31
0.0
  0
LINE
  5
10c
100
AcDbEntity
  8
Layer_1
 62
7
100
AcDbLine
 10
0.038079
 20
0.040442
 30
0.0
 11
0.031492
 21
0.041040
 31
0.0
  0
LINE
  5
10d
100
AcDbEntity
  8
Layer_1
 62
7
100
AcDbLine
 10
0.031492
 20
0.041040
 30
0.0
 11
0.030295
 21
0.037048
 31
0.0
  0
LINE
  5
10e
100
AcDbEntity
  8
Layer_1
 62
7
100
AcDbLine
 10
0.030295
 20
0.037048
 30
0.0
 11
0.034287
 21
0.036250
 31
0.0
  0
LINE
  5
10f
100
AcDbEntity
  8
Layer_1
 62
7
100
AcDbLine
 10
0.034287
 20
0.036250
 30
0.0
 11
0.031692
 21
0.034453
 31
0.0
  0
LINE
  5
110
100
AcDbEntity
  8
Layer_1
 62
7
100
AcDbLine
 10
0.031692
 20
0.034453
 30
0.0
 11
0.032690
 21
0.030861
 31
0.0
  0
LINE
  5
111
100
AcDbEntity
  8
Layer_1
 62
7
100
AcDbLine
 10
0.032690
 20
0.030861
 30
0.0
 11
0.033887
 21
0.030462
 31
0.0
  0
LINE
  5
112
100
AcDbEntity
  8
Layer_1
 62
7
100
AcDbLine
 10
0.033887
 20
0.030462
 30
0.0
 11
0.031891
 21
0.027867
 31
0.0
  0
LINE
  5
113
100
AcDbEntity
  8
Layer_1
 62
7
100
AcDbLine
 10
0.031891
 20
0.027867
 30
0.0
 11
0.032091
 21
0.023875
 31
0.0
  0
SPLINE
  5
114
100
AcDbEntity
  8
Layer_1
 62
7
100
AcDbSpline
 70
0
 71
3
 72
13
 73
9
 74
7
 40
0.000000
 40
0.000000
 40
0.000000
 40
0.000000
 40
0.007352
 40
0.014161
 40
0.020661
 40
0.028180
 40
0.035741
 40
0.044175
 40
0.044175
 40
0.044175
 40
0.044175
 10
0.020115
 20
0.098925
 30
0.0
 10
0.019796
 20
0.096492
 30
0.0
 10
0.019181
 20
0.091808
 30
0.0
 10
0.019638
 20
0.084857
 30
0.0
 10
0.021836
 20
0.078238
 30
0.0
 10
0.023992
 20
0.071404
 30
0.0
 10
0.025956
 20
0.063724
 30
0.0
 10
0.029058
 20
0.059327
 30
0.0
 10
0.030694
 20
0.057008
 30
0.0
 11
0.020115
 21
0.098925
 31
0.0
 11
0.019408
 21
0.091607
 31
0.0
 11
0.019935
 21
0.084818
 31
0.0
 11
0.021712
 21
0.078565
 31
0.0
 11
0.023926
 21
0.071380
 31
0.0
 11
0.026278
 21
0.064194
 31
0.0
 11
0.030694
 21
0.057008
 31
0.0
  0
LINE
  5
115
100
AcDbEntity
  8
Layer_1
 62
7
100
AcDbLine
 10
0.040075
 20
0.022278
 30
0.0
 11
0.042271
 21
0.025471
 31
0.0
  0
SPLINE
  5
116
100
AcDbEntity
  8
Layer_1
 62
7
100
AcDbSpline
 70
0
 71
3
 72
13
 73
9
 74
7
 40
0.000000
 40
0.000000
 40
0.000000
 40
0.000000
 40
0.002423
 40
0.004193
 40
0.005580
 40
0.007794
 40
0.009372
 40
0.010645
 40
0.010645
 40
0.010645
 40
0.010645
 10
0.032091
 20
0.023875
 30
0.0
 10
0.032400
 20
0.023153
 30
0.0
 10
0.032934
 20
0.021904
 30
0.0
 10
0.034064
 20
0.020132
 30
0.0
 10
0.036005
 20
0.020318
 30
0.0
 10
0.037664
 20
0.020425
 30
0.0
 10
0.039326
 20
0.021093
 30
0.0
 10
0.039844
 20
0.021912
 30
0.0
 10
0.040075
 20
0.022278
 30
0.0
 11
0.032091
 21
0.023875
 31
0.0
 11
0.033123
 21
0.021682
 31
0.0
 11
0.034300
 21
0.020360
 31
0.0
 11
0.035684
 21
0.020282
 31
0.0
 11
0.037878
 21
0.020582
 31
0.0
 11
0.039298
 21
0.021269
 31
0.0
 11
0.040075
 21
0.022278
 31
0.0
  0
LINE
  5
117
100
AcDbEntity
  8
Layer_1
 62
7
100
AcDbLine
 10
0.048059
 20
0.022078
 30
0.0
 11
0.047660
 21
0.027867
 31
0.0
  0
LINE
  5
118
100
AcDbEntity
  8
Layer_1
 62
7
100
AcDbLine
 10
0.047660
 20
0.027867
 30
0.0
 11
0.049855
 21
0.031459
 31
0.0
  0
LINE
  5
119
100
AcDbEntity
  8
Layer_1
 62
7
100
AcDbLine
 10
0.049855
 20
0.031459
 30
0.0
 11
0.083588
 21
0.002917
 31
0.0
  0
LINE
  5
11a
100
AcDbEntity
  8
Layer_1
 62
7
100
AcDbLine
 10
0.083588
 20
0.002917
 30
0.0
 11
0.120315
 21
0.041240
 31
0.0
  0
LINE
  5
11b
100
AcDbEntity
  8
Layer_1
 62
7
100
AcDbLine
 10
0.120315
 20
0.041240
 30
0.0
 11
0.121512
 21
0.041639
 31
0.0
  0
LINE
  5
11c
100
AcDbEntity
  8
Layer_1
 62
7
100
AcDbLine
 10
0.121512
 20
0.041639
 30
0.0
 11
0.122111
 21
0.035851
 31
0.0
  0
SPLINE
  5
11d
100
AcDbEntity
  8
Layer_1
 62
7
100
AcDbSpline
 70
0
 71
3
 72
13
 73
9
 74
7
 40
0.000000
 40
0.000000
 40
0.000000
 40
0.000000
 40
0.001846
 40
0.003702
 40
0.006244
 40
0.007308
 40
0.008329
 40
0.009440
 40
0.009440
 40
0.009440
 40
0.009440
 10
0.042271
 20
0.025471
 30
0.0
 10
0.042448
 20
0.024883
 30
0.0
 10
0.042803
 20
0.023702
 30
0.0
 10
0.043243
 20
0.021653
 30
0.0
 10
0.044946
 20
0.020306
 30
0.0
 10
0.046537
 20
0.020560
 30
0.0
 10
0.047426
 20
0.021197
 30
0.0
 10
0.047842
 20
0.021776
 30
0.0
 10
0.048059
 20
0.022078
 30
0.0
 11
0.042271
 21
0.025471
 31
0.0
 11
0.042779
 21
0.023697
 31
0.0
 11
0.043384
 21
0.021942
 31
0.0
 11
0.045464
 21
0.020481
 31
0.0
 11
0.046516
 21
0.020641
 31
0.0
 11
0.047360
 21
0.021214
 31
0.0
 11
0.048059
 21
0.022078
 31
0.0
  0
LINE
  5
11e
100
AcDbEntity
  8
Layer_1
 62
7
100
AcDbLine
 10
0.128099
 20
0.034453
 30
0.0
 11
0.132690
 21
0.035851
 31
0.0
  0
LINE
  5
11f
100
AcDbEntity
  8
Layer_1
 62
7
100
AcDbLine
 10
0.132690
 20
0.035851
 30
0.0
 11
0.138678
 21
0.037048
 31
0.0
  0
LINE
  5
120
100
AcDbEntity
  8
Layer_1
 62
7
100
AcDbLine
 10
0.138678
 20
0.037048
 30
0.0
 11
0.139277
 21
0.041240
 31
0.0
  0
LINE
  5
121
100
AcDbEntity
  8
Layer_1
 62
7
100
AcDbLine
 10
0.139277
 20
0.041240
 30
0.0
 11
0.142271
 21
0.043835
 31
0.0
  0
LINE
  5
122
100
AcDbEntity
  8
Layer_1
 62
7
100
AcDbLine
 10
0.142271
 20
0.043835
 30
0.0
 11
0.143867
 21
0.046430
 31
0.0
  0
LINE
  5
123
100
AcDbEntity
  8
Layer_1
 62
7
100
AcDbLine
 10
0.143867
 20
0.046430
 30
0.0
 11
0.141672
 21
0.049424
 31
0.0
  0
LINE
  5
124
100
AcDbEntity
  8
Layer_1
 62
7
100
AcDbLine
 10
0.141672
 20
0.049424
 30
0.0
 11
0.141672
 21
0.050222
 31
0.0
  0
LINE
  5
125
100
AcDbEntity
  8
Layer_1
 62
7
100
AcDbLine
 10
0.141672
 20
0.050222
 30
0.0
 11
0.142869
 21
0.050821
 31
0.0
  0
LINE
  5
126
100
AcDbEntity
  8
Layer_1
 62
7
100
AcDbLine
 10
0.142869
 20
0.050821
 30
0.0
 11
0.143069
 21
0.052418
 31
0.0
  0
LINE
  5
127
100
AcDbEntity
  8
Layer_1
 62
7
100
AcDbLine
 10
0.143069
 20
0.052418
 30
0.0
 11
0.141871
 21
0.053216
 31
0.0
  0
LINE
  5
128
100
AcDbEntity
  8
Layer_1
 62
7
100
AcDbLine
 10
0.141871
 20
0.053216
 30
0.0
 11
0.137281
 21
0.053016
 31
0.0
  0
LINE
  5
129
100
AcDbEntity
  8
Layer_1
 62
7
100
AcDbLine
 10
0.137281
 20
0.053016
 30
0.0
 11
0.131692
 21
0.052617
 31
0.0
  0
LINE
  5
12a
100
AcDbEntity
  8
Layer_1
 62
7
100
AcDbLine
 10
0.131692
 20
0.052617
 30
0.0
 11
0.138079
 21
0.064394
 31
0.0
  0
LINE
  5
12b
100
AcDbEntity
  8
Layer_1
 62
7
100
AcDbLine
 10
0.138079
 20
0.064394
 30
0.0
 11
0.143668
 21
0.079563
 31
0.0
  0
LINE
  5
12c
100
AcDbEntity
  8
Layer_1
 62
7
100
AcDbLine
 10
0.143668
 20
0.079563
 30
0.0
 11
0.146462
 21
0.085551
 31
0.0
  0
LINE
  5
12d
100
AcDbEntity
  8
Layer_1
 62
7
100
AcDbLine
 10
0.146462
 20
0.085551
 30
0.0
 11
0.144466
 21
0.088146
 31
0.0
  0
SPLINE
  5
12e
100
AcDbEntity
  8
Layer_1
 62
7
100
AcDbSpline
 70
0
 71
3
 72
10
 73
6
 74
4
 40
0.000000
 40
0.000000
 40
0.000000
 40
0.000000
 40
0.002540
 40
0.004613
 40
0.006248
 40
0.006248
 40
0.006248
 40
0.006248
 10
0.122111
 20
0.035851
 30
0.0
 10
0.122881
 20
0.035505
 30
0.0
 10
0.124280
 20
0.034878
 30
0.0
 10
0.126314
 20
0.034262
 30
0.0
 10
0.127553
 20
0.034395
 30
0.0
 10
0.128099
 20
0.034453
 30
0.0
 11
0.122111
 21
0.035851
 31
0.0
 11
0.124453
 21
0.034866
 31
0.0
 11
0.126466
 21
0.034374
 31
0.0
 11
0.128099
 21
0.034453
 31
0.0
  0
LINE
  5
12f
100
AcDbEntity
  8
Layer_1
 62
7
100
AcDbLine
 10
0.157440
 20
0.093735
 30
0.0
 11
0.155444
 21
0.095731
 31
0.0
  0
LINE
  5
130
100
AcDbEntity
  8
Layer_1
 62
7
100
AcDbLine
 10
0.155444
 20
0.095731
 30
0.0
 11
0.144865
 21
0.094134
 31
0.0
  0
SPLINE
  5
131
100
AcDbEntity
  8
Layer_1
 62
7
100
AcDbSpline
 70
0
 71
3
 72
10
 73
6
 74
4
 40
0.000000
 40
0.000000
 40
0.000000
 40
0.000000
 40
0.004394
 40
0.008871
 40
0.014533
 40
0.014533
 40
0.014533
 40
0.014533
 10
0.144466
 20
0.088146
 30
0.0
 10
0.145898
 20
0.088406
 30
0.0
 10
0.148788
 20
0.088930
 30
0.0
 10
0.153725
 20
0.089765
 30
0.0
 10
0.156109
 20
0.092312
 30
0.0
 10
0.157440
 20
0.093735
 30
0.0
 11
0.144466
 21
0.088146
 31
0.0
 11
0.148791
 21
0.088922
 31
0.0
 11
0.153116
 21
0.090080
 31
0.0
 11
0.157440
 21
0.093735
 31
0.0
  0
LINE
  5
132
100
AcDbEntity
  8
Layer_1
 62
7
100
AcDbLine
 10
0.137281
 20
0.115691
 30
0.0
 11
0.133688
 21
0.120681
 31
0.0
  0
LINE
  5
133
100
AcDbEntity
  8
Layer_1
 62
7
100
AcDbLine
 10
0.133688
 20
0.120681
 30
0.0
 11
0.132490
 21
0.125272
 31
0.0
  0
LINE
  5
134
100
AcDbEntity
  8
Layer_1
 62
7
100
AcDbLine
 10
0.132490
 20
0.125272
 30
0.0
 11
0.126901
 21
0.126869
 31
0.0
  0
SPLINE
  5
135
100
AcDbEntity
  8
Layer_1
 62
7
100
AcDbSpline
 70
0
 71
3
 72
10
 73
6
 74
4
 40
0.000000
 40
0.000000
 40
0.000000
 40
0.000000
 40
0.007585
 40
0.015224
 40
0.022921
 40
0.022921
 40
0.022921
 40
0.022921
 10
0.144865
 20
0.094134
 30
0.0
 10
0.144359
 20
0.096617
 30
0.0
 10
0.143343
 20
0.101601
 30
0.0
 10
0.140418
 20
0.108689
 30
0.0
 10
0.138329
 20
0.113351
 30
0.0
 10
0.137281
 20
0.115691
 30
0.0
 11
0.144865
 21
0.094134
 31
0.0
 11
0.143117
 21
0.101515
 31
0.0
 11
0.140392
 21
0.108651
 31
0.0
 11
0.137281
 21
0.115691
 31
0.0
  0
LINE
  5
136
100
AcDbEntity
  8
Layer_1
 62
7
100
AcDbLine
 10
0.085584
 20
0.143036
 30
0.0
 11
0.083189
 21
0.143036
 31
0.0
  0
LINE
  5
137
100
AcDbEntity
  8
Layer_1
 62
7
100
AcDbLine
 10
0.083189
 20
0.143036
 30
0.0
 11
0.083588
 21
0.163595
 31
0.0
  0
SPLINE
  5
138
100
AcDbEntity
  8
Layer_1
 62
7
100
AcDbSpline
 70
0
 71
3
 72
16
 73
12
 74
10
 40
0.000000
 40
0.000000
 40
0.000000
 40
0.000000
 40
0.008350
 40
0.014984
 40
0.021200
 40
0.023816
 40
0.027195
 40
0.030568
 40
0.034730
 40
0.039911
 40
0.045886
 40
0.045886
 40
0.045886
 40
0.045886
 10
0.126901
 20
0.126869
 30
0.0
 10
0.124346
 20
0.128046
 30
0.0
 10
0.119759
 20
0.130159
 30
0.0
 10
0.113695
 20
0.133071
 30
0.0
 10
0.106983
 20
0.132737
 30
0.0
 10
0.106484
 20
0.137482
 30
0.0
 10
0.103189
 20
0.138608
 30
0.0
 10
0.100464
 20
0.140957
 30
0.0
 10
0.096385
 20
0.142468
 30
0.0
 10
0.091297
 20
0.143000
 30
0.0
 10
0.087577
 20
0.143024
 30
0.0
 10
0.085584
 20
0.143036
 30
0.0
 11
0.126901
 21
0.126869
 31
0.0
 11
0.119327
 21
0.130384
 31
0.0
 11
0.113069
 21
0.132584
 31
0.0
 11
0.107141
 21
0.134453
 31
0.0
 11
0.106160
 21
0.136879
 31
0.0
 11
0.103359
 21
0.138769
 31
0.0
 11
0.100554
 21
0.140641
 31
0.0
 11
0.096691
 21
0.142191
 31
0.0
 11
0.091558
 21
0.142894
 31
0.0
 11
0.085584
 21
0.143036
 31
0.0
  0
LINE
  5
139
100
AcDbEntity
  8
Layer_1
 62
7
100
AcDbLine
 10
0.078199
 20
0.163396
 30
0.0
 11
0.078199
 21
0.163396
 31
0.0
  0
LINE
  5
13a
100
AcDbEntity
  8
Layer_1
 62
7
100
AcDbLine
 10
0.081193
 20
0.132857
 30
0.0
 11
0.075804
 21
0.137048
 31
0.0
  0
SPLINE
  5
13b
100
AcDbEntity
  8
Layer_1
 62
7
100
AcDbSpline
 70
0
 71
3
 72
13
 73
9
 74
7
 40
0.000000
 40
0.000000
 40
0.000000
 40
0.000000
 40
0.000847
 40
0.001816
 40
0.003106
 40
0.004488
 40
0.005444
 40
0.006383
 40
0.006383
 40
0.006383
 40
0.006383
 10
0.083588
 20
0.163595
 30
0.0
 10
0.083415
 20
0.163828
 30
0.0
 10
0.083044
 20
0.164326
 30
0.0
 10
0.081962
 20
0.164579
 30
0.0
 10
0.080751
 20
0.164259
 30
0.0
 10
0.079612
 20
0.164676
 30
0.0
 10
0.078359
 20
0.164420
 30
0.0
 10
0.078252
 20
0.163735
 30
0.0
 10
0.078199
 20
0.163396
 30
0.0
 11
0.083588
 21
0.163595
 31
0.0
 11
0.083011
 21
0.164216
 31
0.0
 11
0.082080
 21
0.164482
 31
0.0
 11
0.080794
 21
0.164394
 31
0.0
 11
0.079422
 21
0.164567
 31
0.0
 11
0.078510
 21
0.164282
 31
0.0
 11
0.078199
 21
0.163396
 31
0.0
  0
LINE
  5
13c
100
AcDbEntity
  8
Layer_1
 62
7
100
AcDbLine
 10
0.071013
 20
0.102118
 30
0.0
 11
0.082191
 21
0.089943
 31
0.0
  0
LINE
  5
13d
100
AcDbEntity
  8
Layer_1
 62
7
100
AcDbLine
 10
0.082191
 20
0.089943
 30
0.0
 11
0.095364
 21
0.102717
 31
0.0
  0
SPLINE
  5
13e
100
AcDbEntity
  8
Layer_1
 62
7
100
AcDbSpline
 70
0
 71
3
 72
19
 73
15
 74
13
 40
0.000000
 40
0.000000
 40
0.000000
 40
0.000000
 40
0.003828
 40
0.006588
 40
0.008953
 40
0.011805
 40
0.014586
 40
0.017582
 40
0.020467
 40
0.024239
 40
0.029960
 40
0.038261
 40
0.045259
 40
0.051597
 40
0.051597
 40
0.051597
 40
0.051597
 10
0.075804
 20
0.137048
 30
0.0
 10
0.074628
 20
0.137563
 30
0.0
 10
0.072605
 20
0.138449
 30
0.0
 10
0.069504
 20
0.138520
 30
0.0
 10
0.067078
 20
0.137344
 30
0.0
 10
0.064607
 20
0.136400
 30
0.0
 10
0.062135
 20
0.134731
 30
0.0
 10
0.060906
 20
0.132055
 30
0.0
 10
0.059178
 20
0.129311
 30
0.0
 10
0.058647
 20
0.125130
 30
0.0
 10
0.058910
 20
0.119113
 30
0.0
 10
0.062504
 20
0.112875
 30
0.0
 10
0.066472
 20
0.106877
 30
0.0
 10
0.069550
 20
0.103651
 30
0.0
 10
0.071013
 20
0.102118
 30
0.0
 11
0.075804
 21
0.137048
 31
0.0
 11
0.072189
 21
0.138311
 31
0.0
 11
0.069430
 21
0.138292
 31
0.0
 11
0.067221
 21
0.137447
 31
0.0
 11
0.064618
 21
0.136283
 31
0.0
 11
0.062390
 21
0.134618
 31
0.0
 11
0.060834
 21
0.132058
 31
0.0
 11
0.059507
 21
0.129496
 31
0.0
 11
0.058817
 21
0.125787
 31
0.0
 11
0.059237
 21
0.120082
 31
0.0
 11
0.062783
 21
0.112577
 31
0.0
 11
0.066767
 21
0.106824
 31
0.0
 11
0.071013
 21
0.102118
 31
0.0
  0
LINE
  5
13f
100
AcDbEntity
  8
Layer_1
 62
7
100
AcDbLine
 10
0.083788
 20
0.136050
 30
0.0
 11
0.081193
 21
0.132857
 31
0.0
  0
SPLINE
  5
140
100
AcDbEntity
  8
Layer_1
 62
7
100
AcDbSpline
 70
0
 71
3
 72
22
 73
18
 74
16
 40
0.000000
 40
0.000000
 40
0.000000
 40
0.000000
 40
0.003698
 40
0.008029
 40
0.014400
 40
0.018572
 40
0.022165
 40
0.025358
 40
0.029263
 40
0.032636
 40
0.036442
 40
0.040841
 40
0.043820
 40
0.046176
 40
0.050312
 40
0.052357
 40
0.054056
 40
0.054056
 40
0.054056
 40
0.054056
 10
0.095364
 20
0.102717
 30
0.0
 10
0.096132
 20
0.103680
 30
0.0
 10
0.097797
 20
0.105771
 30
0.0
 10
0.100453
 20
0.109831
 30
0.0
 10
0.101603
 20
0.114704
 30
0.0
 10
0.104084
 20
0.118848
 30
0.0
 10
0.104094
 20
0.122592
 30
0.0
 10
0.104613
 20
0.126072
 30
0.0
 10
0.104885
 20
0.129701
 30
0.0
 10
0.103027
 20
0.132961
 30
0.0
 10
0.100930
 20
0.136390
 30
0.0
 10
0.097108
 20
0.137400
 30
0.0
 10
0.093943
 20
0.138088
 30
0.0
 10
0.090781
 20
0.137750
 30
0.0
 10
0.087900
 20
0.137775
 30
0.0
 10
0.085416
 20
0.136845
 30
0.0
 10
0.084296
 20
0.136298
 30
0.0
 10
0.083788
 20
0.136050
 30
0.0
 11
0.095364
 21
0.102717
 31
0.0
 11
0.097627
 21
0.105643
 31
0.0
 11
0.099889
 21
0.109336
 31
0.0
 11
0.102151
 21
0.115292
 31
0.0
 11
0.103794
 21
0.119126
 31
0.0
 11
0.104185
 21
0.122698
 31
0.0
 11
0.104546
 21
0.125871
 31
0.0
 11
0.104493
 21
0.129775
 31
0.0
 11
0.103078
 21
0.132837
 31
0.0
 11
0.100754
 21
0.135851
 31
0.0
 11
0.096666
 21
0.137477
 31
0.0
 11
0.093726
 21
0.137955
 31
0.0
 11
0.091372
 21
0.137847
 31
0.0
 11
0.087256
 21
0.137446
 31
0.0
 11
0.085325
 21
0.136773
 31
0.0
 11
0.083788
 21
0.136050
 31
0.0
  0
LINE
  5
141
100
AcDbEntity
  8
Layer_1
 62
7
100
AcDbLine
 10
0.080993
 20
0.085152
 30
0.0
 11
0.080133
 21
0.084125
 31
0.0
  0
SPLINE
  5
142
100
AcDbEntity
  8
Layer_1
 62
7
100
AcDbSpline
 70
0
 71
3
 72
13
 73
9
 74
7
 40
0.000000
 40
0.000000
 40
0.000000
 40
0.000000
 40
0.007408
 40
0.015333
 40
0.023884
 40
0.035776
 40
0.045125
 40
0.049925
 40
0.049925
 40
0.049925
 40
0.049925
 10
0.052650
 20
0.124873
 30
0.0
 10
0.053151
 20
0.122444
 30
0.0
 10
0.054189
 20
0.117417
 30
0.0
 10
0.057796
 20
0.110260
 30
0.0
 10
0.062766
 20
0.102158
 30
0.0
 10
0.070061
 20
0.095345
 30
0.0
 10
0.075742
 20
0.088699
 30
0.0
 10
0.079663
 20
0.086051
 30
0.0
 10
0.080993
 20
0.085152
 30
0.0
 11
0.052650
 21
0.124873
 31
0.0
 11
0.054452
 21
0.117687
 31
0.0
 11
0.057794
 21
0.110501
 31
0.0
 11
0.062430
 21
0.103316
 31
0.0
 11
0.070506
 21
0.094587
 31
0.0
 11
0.077098
 21
0.087959
 31
0.0
 11
0.080993
 21
0.085152
 31
0.0
  0
LINE
  5
143
100
AcDbEntity
  8
Layer_1
 62
7
100
AcDbLine
 10
0.049656
 20
0.125072
 30
0.0
 11
0.052650
 21
0.124873
 31
0.0
  0
LINE
  5
144
100
AcDbEntity
  8
Layer_1
 62
7
100
AcDbLine
 10
0.130295
 20
0.115491
 30
0.0
 11
0.122311
 21
0.108306
 31
0.0
  0
SPLINE
  5
145
100
AcDbEntity
  8
Layer_1
 62
7
100
AcDbSpline
 70
0
 71
3
 72
37
 73
33
 74
31
 40
0.000000
 40
0.000000
 40
0.000000
 40
0.000000
 40
0.003759
 40
0.005012
 40
0.006219
 40
0.009265
 40
0.013429
 40
0.019360
 40
0.021524
 40
0.022420
 40
0.023240
 40
0.025401
 40
0.026336
 40
0.026650
 40
0.031516
 40
0.035681
 40
0.038572
 40
0.043272
 40
0.047386
 40
0.050293
 40
0.057989
 40
0.062134
 40
0.066143
 40
0.070475
 40
0.074852
 40
0.079111
 40
0.084998
 40
0.087695
 40
0.090013
 40
0.094104
 40
0.096233
 40
0.097922
 40
0.097922
 40
0.097922
 40
0.097922
 10
0.080133
 20
0.084125
 30
0.0
 10
0.079003
 20
0.084723
 30
0.0
 10
0.077496
 20
0.085519
 30
0.0
 10
0.075434
 20
0.085703
 30
0.0
 10
0.073555
 20
0.085922
 30
0.0
 10
0.071274
 20
0.083859
 30
0.0
 10
0.067593
 20
0.081674
 30
0.0
 10
0.065155
 20
0.078041
 30
0.0
 10
0.062171
 20
0.077119
 30
0.0
 10
0.060884
 20
0.077157
 30
0.0
 10
0.059565
 20
0.077092
 30
0.0
 10
0.058474
 20
0.077960
 30
0.0
 10
0.057400
 20
0.078382
 30
0.0
 10
0.055984
 20
0.079874
 30
0.0
 10
0.055230
 20
0.083059
 30
0.0
 10
0.053279
 20
0.086503
 30
0.0
 10
0.050974
 20
0.089720
 30
0.0
 10
0.047871
 20
0.092062
 30
0.0
 10
0.045002
 20
0.094958
 30
0.0
 10
0.039993
 20
0.095598
 30
0.0
 10
0.035873
 20
0.098857
 30
0.0
 10
0.031995
 20
0.101790
 30
0.0
 10
0.026524
 20
0.103312
 30
0.0
 10
0.030413
 20
0.107785
 30
0.0
 10
0.031812
 20
0.111454
 30
0.0
 10
0.034503
 20
0.115655
 30
0.0
 10
0.037495
 20
0.118712
 30
0.0
 10
0.040331
 20
0.120990
 30
0.0
 10
0.042697
 20
0.122893
 30
0.0
 10
0.045266
 20
0.124215
 30
0.0
 10
0.047828
 20
0.124885
 30
0.0
 10
0.049095
 20
0.125015
 30
0.0
 10
0.049656
 20
0.125072
 30
0.0
 11
0.080133
 21
0.084125
 31
0.0
 11
0.076656
 21
0.085552
 31
0.0
 11
0.075413
 21
0.085711
 31
0.0
 11
0.074207
 21
0.085751
 31
0.0
 11
0.071565
 21
0.084234
 31
0.0
 11
0.068227
 21
0.081744
 31
0.0
 11
0.063828
 21
0.077767
 31
0.0
 11
0.061751
 21
0.077161
 31
0.0
 11
0.060854
 21
0.077145
 31
0.0
 11
0.060035
 21
0.077168
 31
0.0
 11
0.058078
 21
0.078084
 31
0.0
 11
0.057262
 21
0.078543
 31
0.0
 11
0.057041
 21
0.078765
 31
0.0
 11
0.054955
 21
0.083162
 31
0.0
 11
0.052991
 21
0.086834
 31
0.0
 11
0.051253
 21
0.089144
 31
0.0
 11
0.047767
 21
0.092297
 31
0.0
 11
0.044476
 21
0.094766
 31
0.0
 11
0.041672
 21
0.095531
 31
0.0
 11
0.035055
 21
0.099462
 31
0.0
 11
0.031554
 21
0.101682
 31
0.0
 11
0.028099
 21
0.103715
 31
0.0
 11
0.029973
 21
0.107621
 31
0.0
 11
0.031997
 21
0.111501
 31
0.0
 11
0.034287
 21
0.115092
 31
0.0
 11
0.038348
 21
0.119354
 31
0.0
 11
0.040429
 21
0.121069
 31
0.0
 11
0.042271
 21
0.122477
 31
0.0
 11
0.045918
 21
0.124330
 31
0.0
 11
0.047980
 21
0.124862
 31
0.0
 11
0.049656
 21
0.125072
 31
0.0
  0
LINE
  5
146
100
AcDbEntity
  8
Layer_1
 62
7
100
AcDbLine
 10
0.125704
 20
0.099923
 30
0.0
 11
0.123109
 21
0.098326
 31
0.0
  0
LINE
  5
147
100
AcDbEntity
  8
Layer_1
 62
7
100
AcDbLine
 10
0.123109
 20
0.098326
 30
0.0
 11
0.124706
 21
0.096130
 31
0.0
  0
LINE
  5
148
100
AcDbEntity
  8
Layer_1
 62
7
100
AcDbLine
 10
0.124706
 20
0.096130
 30
0.0
 11
0.125105
 21
0.093735
 31
0.0
  0
SPLINE
  5
149
100
AcDbEntity
  8
Layer_1
 62
7
100
AcDbSpline
 70
0
 71
3
 72
13
 73
9
 74
7
 40
0.000000
 40
0.000000
 40
0.000000
 40
0.000000
 40
0.002419
 40
0.004206
 40
0.006060
 40
0.008122
 40
0.010203
 40
0.012653
 40
0.012653
 40
0.012653
 40
0.012653
 10
0.122311
 20
0.108306
 30
0.0
 10
0.123128
 20
0.108487
 30
0.0
 10
0.124550
 20
0.108802
 30
0.0
 10
0.126413
 20
0.107768
 30
0.0
 10
0.127566
 20
0.106091
 30
0.0
 10
0.127251
 20
0.104041
 30
0.0
 10
0.127230
 20
0.101788
 30
0.0
 10
0.126239
 20
0.100577
 30
0.0
 10
0.125704
 20
0.099923
 30
0.0
 11
0.122311
 21
0.108306
 31
0.0
 11
0.124721
 21
0.108507
 31
0.0
 11
0.126300
 21
0.107671
 31
0.0
 11
0.127301
 21
0.106110
 31
0.0
 11
0.127303
 21
0.104048
 31
0.0
 11
0.127025
 21
0.101985
 31
0.0
 11
0.125704
 21
0.099923
 31
0.0
  0
LINE
  5
14a
100
AcDbEntity
  8
Layer_1
 62
7
100
AcDbLine
 10
0.139676
 20
0.092338
 30
0.0
 11
0.137680
 21
0.101919
 31
0.0
  0
LINE
  5
14b
100
AcDbEntity
  8
Layer_1
 62
7
100
AcDbLine
 10
0.137680
 20
0.101919
 30
0.0
 11
0.132889
 21
0.111899
 31
0.0
  0
LINE
  5
14c
100
AcDbEntity
  8
Layer_1
 62
7
100
AcDbLine
 10
0.132889
 20
0.111899
 30
0.0
 11
0.130295
 21
0.115491
 31
0.0
  0
LINE
  5
14d
100
AcDbEntity
  8
Layer_1
 62
7
100
AcDbLine
 10
0.133887
 20
0.080761
 30
0.0
 11
0.137879
 21
0.079763
 31
0.0
  0
LINE
  5
14e
100
AcDbEntity
  8
Layer_1
 62
7
100
AcDbLine
 10
0.137879
 20
0.079763
 30
0.0
 11
0.132091
 21
0.064593
 31
0.0
  0
LINE
  5
14f
100
AcDbEntity
  8
Layer_1
 62
7
100
AcDbLine
 10
0.132091
 20
0.064593
 30
0.0
 11
0.125105
 21
0.055212
 31
0.0
  0
SPLINE
  5
150
100
AcDbEntity
  8
Layer_1
 62
7
100
AcDbSpline
 70
0
 71
3
 72
13
 73
9
 74
7
 40
0.000000
 40
0.000000
 40
0.000000
 40
0.000000
 40
0.001224
 40
0.002964
 40
0.007366
 40
0.010897
 40
0.013088
 40
0.014938
 40
0.014938
 40
0.014938
 40
0.014938
 10
0.125105
 20
0.093735
 30
0.0
 10
0.125480
 20
0.093573
 30
0.0
 10
0.126386
 20
0.093181
 30
0.0
 10
0.128765
 20
0.092504
 30
0.0
 10
0.132049
 20
0.092695
 30
0.0
 10
0.135261
 20
0.091342
 30
0.0
 10
0.137827
 20
0.091685
 30
0.0
 10
0.139095
 20
0.092133
 30
0.0
 10
0.139676
 20
0.092338
 30
0.0
 11
0.125105
 21
0.093735
 31
0.0
 11
0.126237
 21
0.093269
 31
0.0
 11
0.127913
 21
0.092803
 31
0.0
 11
0.132291
 21
0.092338
 31
0.0
 11
0.135733
 21
0.091553
 31
0.0
 11
0.137913
 21
0.091779
 31
0.0
 11
0.139676
 21
0.092338
 31
0.0
  0
LINE
  5
151
100
AcDbEntity
  8
Layer_1
 62
7
100
AcDbLine
 10
0.120913
 20
0.061000
 30
0.0
 11
0.120315
 21
0.065791
 31
0.0
  0
SPLINE
  5
152
100
AcDbEntity
  8
Layer_1
 62
7
100
AcDbSpline
 70
0
 71
3
 72
10
 73
6
 74
4
 40
0.000000
 40
0.000000
 40
0.000000
 40
0.000000
 40
0.002359
 40
0.004763
 40
0.007248
 40
0.007248
 40
0.007248
 40
0.007248
 10
0.125105
 20
0.055212
 30
0.0
 10
0.124472
 20
0.055691
 30
0.0
 10
0.123194
 20
0.056659
 30
0.0
 10
0.121962
 20
0.058785
 30
0.0
 10
0.121267
 20
0.060254
 30
0.0
 10
0.120913
 20
0.061000
 30
0.0
 11
0.125105
 21
0.055212
 31
0.0
 11
0.123321
 21
0.056755
 31
0.0
 11
0.122009
 21
0.058769
 31
0.0
 11
0.120913
 21
0.061000
 31
0.0
  0
LINE
  5
153
100
AcDbEntity
  8
Layer_1
 62
7
100
AcDbLine
 10
0.133887
 20
0.080761
 30
0.0
 11
0.133887
 21
0.080761
 31
0.0
  0
LINE
  5
154
100
AcDbEntity
  8
Layer_1
 62
7
100
AcDbLine
 10
0.100953
 20
0.059404
 30
0.0
 11
0.116123
 21
0.050621
 31
0.0
  0
LINE
  5
155
100
AcDbEntity
  8
Layer_1
 62
7
100
AcDbLine
 10
0.116123
 20
0.050621
 30
0.0
 11
0.118518
 21
0.047028
 31
0.0
  0
LINE
  5
156
100
AcDbEntity
  8
Layer_1
 62
7
100
AcDbLine
 10
0.118518
 20
0.047028
 30
0.0
 11
0.082590
 21
0.011499
 31
0.0
  0
SPLINE
  5
157
100
AcDbEntity
  8
Layer_1
 62
7
100
AcDbSpline
 70
0
 71
3
 72
13
 73
9
 74
7
 40
0.000000
 40
0.000000
 40
0.000000
 40
0.000000
 40
0.005774
 40
0.010392
 40
0.016056
 40
0.018443
 40
0.020569
 40
0.023411
 40
0.023411
 40
0.023411
 40
0.023411
 10
0.120315
 20
0.065791
 30
0.0
 10
0.122222
 20
0.065925
 30
0.0
 10
0.125657
 20
0.066167
 30
0.0
 10
0.130768
 20
0.069574
 30
0.0
 10
0.128317
 20
0.075937
 30
0.0
 10
0.132510
 20
0.075911
 30
0.0
 10
0.134112
 20
0.078095
 30
0.0
 10
0.133969
 20
0.079791
 30
0.0
 10
0.133887
 20
0.080761
 30
0.0
 11
0.120315
 21
0.065791
 31
0.0
 11
0.125999
 21
0.066800
 31
0.0
 11
0.129373
 21
0.069954
 31
0.0
 11
0.130095
 21
0.075571
 31
0.0
 11
0.132372
 21
0.076288
 31
0.0
 11
0.133731
 21
0.077923
 31
0.0
 11
0.133887
 21
0.080761
 31
0.0
  0
LINE
  5
158
100
AcDbEntity
  8
Layer_1
 62
7
100
AcDbLine
 10
0.072211
 20
0.043835
 30
0.0
 11
0.074007
 21
0.045631
 31
0.0
  0
SPLINE
  5
159
100
AcDbEntity
  8
Layer_1
 62
7
100
AcDbSpline
 70
0
 71
3
 72
16
 73
12
 74
10
 40
0.000000
 40
0.000000
 40
0.000000
 40
0.000000
 40
0.013909
 40
0.026214
 40
0.037336
 40
0.042065
 40
0.047505
 40
0.053387
 40
0.055339
 40
0.057256
 40
0.059006
 40
0.059006
 40
0.059006
 40
0.059006
 10
0.082590
 20
0.011499
 30
0.0
 10
0.078871
 20
0.014444
 30
0.0
 10
0.071862
 20
0.019994
 30
0.0
 10
0.064635
 20
0.028693
 30
0.0
 10
0.052126
 20
0.033956
 30
0.0
 10
0.057290
 20
0.040934
 30
0.0
 10
0.061823
 20
0.042730
 30
0.0
 10
0.065866
 20
0.046890
 30
0.0
 10
0.068743
 20
0.044888
 30
0.0
 10
0.070388
 20
0.043999
 30
0.0
 10
0.071622
 20
0.043888
 30
0.0
 10
0.072211
 20
0.043835
 30
0.0
 11
0.082590
 21
0.011499
 31
0.0
 11
0.071978
 21
0.020491
 31
0.0
 11
0.062786
 21
0.028671
 31
0.0
 11
0.054646
 21
0.036250
 31
0.0
 11
0.057206
 21
0.040226
 31
0.0
 11
0.061756
 21
0.043207
 31
0.0
 11
0.067021
 21
0.045831
 31
0.0
 11
0.068751
 21
0.044928
 31
0.0
 11
0.070481
 21
0.044101
 31
0.0
 11
0.072211
 21
0.043835
 31
0.0
  0
LINE
  5
15a
100
AcDbEntity
  8
Layer_1
 62
7
100
AcDbLine
 10
0.096562
 20
0.052617
 30
0.0
 11
0.097959
 21
0.057008
 31
0.0
  0
LINE
  5
15b
100
AcDbEntity
  8
Layer_1
 62
7
100
AcDbLine
 10
0.097959
 20
0.057008
 30
0.0
 11
0.100953
 21
0.059404
 31
0.0
  0
LINE
  5
15c
100
AcDbEntity
  8
Layer_1
 62
7
100
AcDbLine
 10
0.047261
 20
0.045232
 30
0.0
 11
0.051053
 21
0.047627
 31
0.0
  0
LINE
  5
15d
100
AcDbEntity
  8
Layer_1
 62
7
100
AcDbLine
 10
0.051053
 20
0.047627
 30
0.0
 11
0.048658
 21
0.055611
 31
0.0
  0
SPLINE
  5
15e
100
AcDbEntity
  8
Layer_1
 62
7
100
AcDbSpline
 70
0
 71
3
 72
22
 73
18
 74
16
 40
0.000000
 40
0.000000
 40
0.000000
 40
0.000000
 40
0.001423
 40
0.002850
 40
0.004648
 40
0.006079
 40
0.007303
 40
0.008544
 40
0.010617
 40
0.012682
 40
0.014804
 40
0.016173
 40
0.017404
 40
0.018588
 40
0.021393
 40
0.023889
 40
0.026367
 40
0.026367
 40
0.026367
 40
0.026367
 10
0.074007
 20
0.045631
 30
0.0
 10
0.074380
 20
0.045347
 30
0.0
 10
0.075128
 20
0.044779
 30
0.0
 10
0.076481
 20
0.043851
 30
0.0
 10
0.078074
 20
0.044255
 30
0.0
 10
0.079594
 20
0.044406
 30
0.0
 10
0.080540
 20
0.045348
 30
0.0
 10
0.081193
 20
0.046988
 30
0.0
 10
0.083351
 20
0.045950
 30
0.0
 10
0.085267
 20
0.046397
 30
0.0
 10
0.087341
 20
0.046438
 30
0.0
 10
0.088218
 20
0.047882
 30
0.0
 10
0.088902
 20
0.048879
 30
0.0
 10
0.089414
 20
0.050805
 30
0.0
 10
0.092292
 20
0.049794
 30
0.0
 10
0.094380
 20
0.051443
 30
0.0
 10
0.095837
 20
0.052227
 30
0.0
 10
0.096562
 20
0.052617
 30
0.0
 11
0.074007
 21
0.045631
 31
0.0
 11
0.075147
 21
0.044780
 31
0.0
 11
0.076406
 21
0.044106
 31
0.0
 11
0.078199
 21
0.044234
 31
0.0
 11
0.079589
 21
0.044574
 31
0.0
 11
0.080476
 21
0.045417
 31
0.0
 11
0.081193
 21
0.046430
 31
0.0
 11
0.083255
 21
0.046223
 31
0.0
 11
0.085318
 21
0.046328
 31
0.0
 11
0.087380
 21
0.046829
 31
0.0
 11
0.088240
 21
0.047893
 31
0.0
 11
0.088859
 21
0.048958
 31
0.0
 11
0.089376
 21
0.050022
 31
0.0
 11
0.092169
 21
0.050292
 31
0.0
 11
0.094416
 21
0.051379
 31
0.0
 11
0.096562
 21
0.052617
 31
0.0
  0
LINE
  5
15f
100
AcDbEntity
  8
Layer_1
 62
7
100
AcDbLine
 10
0.036682
 20
0.066390
 30
0.0
 11
0.032091
 21
0.066988
 31
0.0
  0
LINE
  5
160
100
AcDbEntity
  8
Layer_1
 62
7
100
AcDbLine
 10
0.032091
 20
0.066988
 30
0.0
 11
0.033488
 21
0.064394
 31
0.0
  0
LINE
  5
161
100
AcDbEntity
  8
Layer_1
 62
7
100
AcDbLine
 10
0.033488
 20
0.064394
 30
0.0
 11
0.047261
 21
0.045232
 31
0.0
  0
LINE
  5
162
100
AcDbEntity
  8
Layer_1
 62
7
100
AcDbLine
 10
0.087585
 20
0.088406
 30
0.0
 11
0.089611
 21
0.085724
 31
0.0
  0
LINE
  5
163
100
AcDbEntity
  8
Layer_1
 62
7
100
AcDbLine
 10
0.089611
 20
0.085724
 30
0.0
 11
0.089720
 21
0.073845
 31
0.0
  0
LINE
  5
164
100
AcDbEntity
  8
Layer_1
 62
7
100
AcDbLine
 10
0.089720
 20
0.073845
 30
0.0
 11
0.091581
 21
0.069904
 31
0.0
  0
LINE
  5
165
100
AcDbEntity
  8
Layer_1
 62
7
100
AcDbLine
 10
0.091581
 20
0.069904
 30
0.0
 11
0.092895
 21
0.068152
 31
0.0
  0
LINE
  5
166
100
AcDbEntity
  8
Layer_1
 62
7
100
AcDbLine
 10
0.092895
 20
0.068152
 30
0.0
 11
0.091746
 21
0.067495
 31
0.0
  0
LINE
  5
167
100
AcDbEntity
  8
Layer_1
 62
7
100
AcDbLine
 10
0.091746
 20
0.067495
 30
0.0
 11
0.088187
 21
0.073079
 31
0.0
  0
SPLINE
  5
168
100
AcDbEntity
  8
Layer_1
 62
7
100
AcDbSpline
 70
0
 71
3
 72
19
 73
15
 74
13
 40
0.000000
 40
0.000000
 40
0.000000
 40
0.000000
 40
0.001683
 40
0.003607
 40
0.006268
 40
0.008276
 40
0.009915
 40
0.011523
 40
0.013657
 40
0.015424
 40
0.017213
 40
0.018425
 40
0.019989
 40
0.022380
 40
0.022380
 40
0.022380
 40
0.022380
 10
0.048658
 20
0.055611
 30
0.0
 10
0.048115
 20
0.055453
 30
0.0
 10
0.046951
 20
0.055115
 30
0.0
 10
0.044925
 20
0.054943
 30
0.0
 10
0.042428
 20
0.054689
 30
0.0
 10
0.041242
 20
0.056725
 30
0.0
 10
0.040635
 20
0.058252
 30
0.0
 10
0.041653
 20
0.060755
 30
0.0
 10
0.038863
 20
0.059267
 30
0.0
 10
0.037362
 20
0.060338
 30
0.0
 10
0.035737
 20
0.061093
 30
0.0
 10
0.035651
 20
0.062739
 30
0.0
 10
0.035794
 20
0.064435
 30
0.0
 10
0.036348
 20
0.065653
 30
0.0
 10
0.036682
 20
0.066390
 30
0.0
 11
0.048658
 21
0.055611
 31
0.0
 11
0.047028
 21
0.055190
 31
0.0
 11
0.045119
 21
0.054954
 31
0.0
 11
0.042470
 21
0.055212
 31
0.0
 11
0.041253
 21
0.056809
 31
0.0
 11
0.040884
 21
0.058406
 31
0.0
 11
0.041073
 21
0.060002
 31
0.0
 11
0.038960
 21
0.059703
 31
0.0
 11
0.037300
 21
0.060307
 31
0.0
 11
0.035883
 21
0.061400
 31
0.0
 11
0.035682
 21
0.062595
 31
0.0
 11
0.035841
 21
0.064151
 31
0.0
 11
0.036682
 21
0.066390
 31
0.0
  0
LINE
  5
169
100
AcDbEntity
  8
Layer_1
 62
7
100
AcDbLine
 10
0.087585
 20
0.088406
 30
0.0
 11
0.087585
 21
0.088406
 31
0.0
  0
SPLINE
  5
16a
100
AcDbEntity
  8
Layer_1
 62
7
100
AcDbSpline
 70
0
 71
3
 72
22
 73
18
 74
16
 40
0.000000
 40
0.000000
 40
0.000000
 40
0.000000
 40
0.000732
 40
0.002134
 40
0.003013
 40
0.003693
 40
0.004771
 40
0.005452
 40
0.006837
 40
0.009247
 40
0.010715
 40
0.012219
 40
0.015356
 40
0.017216
 40
0.020982
 40
0.027652
 40
0.031213
 40
0.031213
 40
0.031213
 40
0.031213
 10
0.088187
 20
0.073079
 30
0.0
 10
0.087943
 20
0.073089
 30
0.0
 10
0.087232
 20
0.073119
 30
0.0
 10
0.086230
 20
0.073134
 30
0.0
 10
0.085240
 20
0.073229
 30
0.0
 10
0.084372
 20
0.073064
 30
0.0
 10
0.083573
 20
0.072916
 30
0.0
 10
0.082536
 20
0.072786
 30
0.0
 10
0.081048
 20
0.072400
 30
0.0
 10
0.079534
 20
0.072333
 30
0.0
 10
0.077294
 20
0.070946
 30
0.0
 10
0.077852
 20
0.073889
 30
0.0
 10
0.077913
 20
0.075598
 30
0.0
 10
0.078175
 20
0.078721
 30
0.0
 10
0.081774
 20
0.081289
 30
0.0
 10
0.084482
 20
0.084998
 30
0.0
 10
0.086784
 20
0.087526
 30
0.0
 10
0.087585
 20
0.088406
 30
0.0
 11
0.088187
 21
0.073079
 31
0.0
 11
0.087456
 21
0.073107
 31
0.0
 11
0.086055
 21
0.073160
 31
0.0
 11
0.085177
 21
0.073188
 31
0.0
 11
0.084504
 21
0.073089
 31
0.0
 11
0.083441
 21
0.072905
 31
0.0
 11
0.082768
 21
0.072805
 31
0.0
 11
0.081412
 21
0.072525
 31
0.0
 11
0.079070
 21
0.071954
 31
0.0
 11
0.077677
 21
0.071492
 31
0.0
 11
0.077663
 21
0.072996
 31
0.0
 11
0.077965
 21
0.076118
 31
0.0
 11
0.078279
 21
0.077951
 31
0.0
 11
0.080789
 21
0.080759
 31
0.0
 11
0.085221
 21
0.085744
 31
0.0
 11
0.087585
 21
0.088406
 31
0.0
  0
LINE
  5
16b
100
AcDbEntity
  8
Layer_1
 62
7
100
AcDbLine
 10
0.101599
 20
0.091965
 30
0.0
 11
0.099409
 21
0.090432
 31
0.0
  0
LINE
  5
16c
100
AcDbEntity
  8
Layer_1
 62
7
100
AcDbLine
 10
0.099409
 20
0.090432
 30
0.0
 11
0.095687
 21
0.095906
 31
0.0
  0
LINE
  5
16d
100
AcDbEntity
  8
Layer_1
 62
7
100
AcDbLine
 10
0.095687
 20
0.095906
 30
0.0
 11
0.104008
 21
0.107511
 31
0.0
  0
LINE
  5
16e
100
AcDbEntity
  8
Layer_1
 62
7
100
AcDbLine
 10
0.104008
 20
0.107511
 30
0.0
 11
0.109701
 21
0.123714
 31
0.0
  0
LINE
  5
16f
100
AcDbEntity
  8
Layer_1
 62
7
100
AcDbLine
 10
0.109701
 20
0.123714
 30
0.0
 11
0.110795
 21
0.126561
 31
0.0
  0
LINE
  5
170
100
AcDbEntity
  8
Layer_1
 62
7
100
AcDbLine
 10
0.082330
 20
0.089556
 30
0.0
 11
0.087804
 21
0.090651
 31
0.0
  0
SPLINE
  5
171
100
AcDbEntity
  8
Layer_1
 62
7
100
AcDbSpline
 70
0
 71
3
 72
19
 73
15
 74
13
 40
0.000000
 40
0.000000
 40
0.000000
 40
0.000000
 40
0.007127
 40
0.011209
 40
0.015257
 40
0.019164
 40
0.026484
 40
0.030651
 40
0.033357
 40
0.038474
 40
0.042541
 40
0.047431
 40
0.050359
 40
0.052948
 40
0.052948
 40
0.052948
 40
0.052948
 10
0.110795
 20
0.126561
 30
0.0
 10
0.113308
 20
0.126336
 30
0.0
 10
0.117260
 20
0.125983
 30
0.0
 10
0.120721
 20
0.122732
 30
0.0
 10
0.126221
 20
0.120968
 30
0.0
 10
0.120629
 20
0.116515
 30
0.0
 10
0.118460
 20
0.112705
 30
0.0
 10
0.115015
 20
0.109153
 30
0.0
 10
0.111428
 20
0.107370
 30
0.0
 10
0.108396
 20
0.104772
 30
0.0
 10
0.104958
 20
0.101546
 30
0.0
 10
0.103099
 20
0.097948
 30
0.0
 10
0.102151
 20
0.094610
 30
0.0
 10
0.101775
 20
0.092809
 30
0.0
 10
0.101599
 20
0.091965
 30
0.0
 11
0.110795
 21
0.126561
 31
0.0
 11
0.117764
 21
0.125064
 31
0.0
 11
0.121200
 21
0.122861
 31
0.0
 11
0.124590
 21
0.120649
 31
0.0
 11
0.122185
 21
0.117570
 31
0.0
 11
0.117541
 21
0.111912
 31
0.0
 11
0.114518
 21
0.109044
 31
0.0
 11
0.112191
 21
0.107663
 31
0.0
 11
0.108159
 21
0.104512
 31
0.0
 11
0.105321
 21
0.101599
 31
0.0
 11
0.102992
 21
0.097299
 31
0.0
 11
0.102156
 21
0.094492
 31
0.0
 11
0.101599
 21
0.091965
 31
0.0
  0
SPLINE
  5
172
100
AcDbEntity
  8
Layer_1
 62
7
100
AcDbSpline
 70
0
 71
3
 72
10
 73
6
 74
4
 40
0.000000
 40
0.000000
 40
0.000000
 40
0.000000
 40
0.001257
 40
0.002711
 40
0.004700
 40
0.004700
 40
0.004700
 40
0.004700
 10
0.087804
 20
0.090651
 30
0.0
 10
0.088134
 20
0.090388
 30
0.0
 10
0.088844
 20
0.089821
 30
0.0
 10
0.089538
 20
0.088303
 30
0.0
 10
0.089272
 20
0.087154
 30
0.0
 10
0.089118
 20
0.086490
 30
0.0
 11
0.087804
 21
0.090651
 31
0.0
 11
0.088726
 21
0.089796
 31
0.0
 11
0.089321
 21
0.088469
 31
0.0
 11
0.089118
 21
0.086490
 31
0.0
  0
ENDSEC
  0
SECTION
  2
OBJECTS
  0
DICTIONARY
  5
C
330
0
100
AcDbDictionary
  3
ACAD_GROUP
350
D
  3
ACAD_MLINESTYLE
350
17
  0
DICTIONARY
  5
D
330
C
100
AcDbDictionary
  0
DICTIONARY
  5
1A
330
C
100
AcDbDictionary
  0
DICTIONARY
  5
17
330
C
100
AcDbDictionary
  3
STANDARD
350
18
  0
DICTIONARY
  5
19
330
C
100
AcDbDictionary
  0
ENDSEC
  0
EOF
