0
SECTION
2
HEADER
9
$INSUNITS
70
4
9
$ACADVER
1
AC1014
9
$HANDSEED
5
FFFF
0
ENDSEC
0
SECTION
2
TABLES
0
TABLE
2
VPORT
5
8
100
AcDbSymbolTable
0
ENDTAB
0
TABLE
2
LTYPE
5
5
100
AcDbSymbolTable
0
LTYPE
5
14
100
AcDbSymbolTableRecord
100
AcDbLinetypeTableRecord
2
BYBLOCK
70
0
0
LTYPE
5
15
100
AcDbSymbolTableRecord
100
AcDbLinetypeTableRecord
2
BYLAYER
70
0
0
ENDTAB
0
TABLE
2
LAYER
5
2
100
AcDbSymbolTable
70
2
0
LAYER
5
50
100
AcDbSymbolTableRecord
100
AcDbLayerTableRecord
2
0
70
0
6
CONTINUOUS
0
ENDTAB
0
TABLE
2
STYLE
5
3
100
AcDbSymbolTable
70
1
0
STYLE
5
11
100
AcDbSymbolTableRecord
100
AcDbTextStyleTableRecord
2
STANDARD
70
0
0
ENDTAB
0
TABLE
2
VIEW
5
6
100
AcDbSymbolTable
70
0
0
ENDTAB
0
TABLE
2
UCS
5
7
100
AcDbSymbolTable
70
0
0
ENDTAB
0
TABLE
2
APPID
5
9
100
AcDbSymbolTable
70
2
0
APPID
5
12
100
AcDbSymbolTableRecord
100
AcDbRegAppTableRecord
2
ACAD
70
0
0
ENDTAB
0
TABLE
2
DIMSTYLE
5
A
100
AcDbSymbolTable
70
1
0
ENDTAB
0
TABLE
2
BLOCK_RECORD
5
1
100
AcDbSymbolTable
70
1
0
BLOCK_RECORD
5
1F
100
AcDbSymbolTableRecord
100
AcDbBlockTableRecord
2
*MODEL_SPACE
0
BLOCK_RECORD
5
1B
100
AcDbSymbolTableRecord
100
AcDbBlockTableRecord
2
*PAPER_SPACE
0
ENDTAB
0
ENDSEC
0
SECTION
2
BLOCKS
0
BLOCK
5
20
100
AcDbEntity
100
AcDbBlockBegin
2
*MODEL_SPACE
0
ENDBLK
5
21
100
AcDbEntity
100
AcDbBlockEnd
0
BLOCK
5
1C
100
AcDbEntity
100
AcDbBlockBegin
2
*PAPER_SPACE
0
ENDBLK
5
1D
100
AcDbEntity
100
AcDbBlockEnd
0
ENDSEC
0
SECTION
2
ENTITIES
0
ARC
5
100
100
AcDbEntity
8
0
100
AcDbCircle
10
283.12867960415417
20
-13.394617055465236
30
0
40
1.5865371218127009
100
AcDbArc
50
-89.858818923153066
51
89.85881892523463
0
ARC
5
101
100
AcDbEntity
8
0
100
AcDbCircle
10
283.13258896123216
20
-13.394617055465204
30
0
40
1.5865371218127207
100
AcDbArc
50
90.141181076840766
51
180
0
ARC
5
102
100
AcDbEntity
8
0
100
AcDbCircle
10
283.13258896123216
20
-13.394617055465204
30
0
40
1.5865371218127322
100
AcDbArc
50
180
51
269.85881892523662
0
LWPOLYLINE
5
103
100
AcDbEntity
8
0
100
AcDbPolyline
90
4
70
1
43
0.0
10
324.60706645432651
20
-23.265464249153851
10
324.60704922886379
20
-14.265462350338572
10
318.11096464740626
20
-14.265462350338524
10
318.11096464740621
20
-23.265464249153737
0
ARC
5
104
100
AcDbEntity
8
0
100
AcDbCircle
10
283.62203185193141
20
-55.087955055204667
30
0
40
1.5865371218126985
100
AcDbArc
50
-89.858818923155084
51
89.85881892523463
0
ARC
5
105
100
AcDbEntity
8
0
100
AcDbCircle
10
283.6259412090094
20
-55.087955055204631
30
0
40
1.5865371218127158
100
AcDbArc
50
90.141181076842841
51
180
0
ARC
5
106
100
AcDbEntity
8
0
100
AcDbCircle
10
283.6259412090094
20
-55.087955055204631
30
0
40
1.5865371218127322
100
AcDbArc
50
180
51
269.85881892523463
0
ARC
5
107
100
AcDbEntity
8
0
100
AcDbCircle
10
366.91248994831381
20
-14.695274990924323
30
0
40
1.5865371218126918
100
AcDbArc
50
-89.858818923157187
51
89.85881892523463
0
ARC
5
108
100
AcDbEntity
8
0
100
AcDbCircle
10
366.91639930539168
20
-14.695274990924261
30
0
40
1.5865371218126292
100
AcDbArc
50
90.141181076842841
51
180
0
ARC
5
109
100
AcDbEntity
8
0
100
AcDbCircle
10
366.91639930539168
20
-14.695274990924261
30
0
40
1.5865371218126256
100
AcDbArc
50
180
51
269.85881892523662
0
ARC
5
110
100
AcDbEntity
8
0
100
AcDbCircle
10
39.168428653845673
20
-101.7683967882445
30
0
40
1.5865371218126985
100
AcDbArc
50
-89.858818923154828
51
89.858818925234374
0
ARC
5
111
100
AcDbEntity
8
0
100
AcDbCircle
10
39.172338010923639
20
-101.76839678824443
30
0
40
1.586537121812698
100
AcDbArc
50
90.141181076840525
51
180
0
ARC
5
112
100
AcDbEntity
8
0
100
AcDbCircle
10
39.172338010923639
20
-101.76839678824443
30
0
40
1.5865371218126967
100
AcDbArc
50
180
51
269.85881892523514
0
ARC
5
113
100
AcDbEntity
8
0
100
AcDbCircle
10
370.53485961267853
20
-159.59304054344108
30
0
40
1.6071416125402771
100
AcDbArc
50
-89.860628927282576
51
89.860628929367834
0
ARC
5
114
100
AcDbEntity
8
0
100
AcDbCircle
10
370.53876896975646
20
-159.59304054344108
30
0
40
1.6071416125404068
100
AcDbArc
50
90.069685691595836
51
180
0
ARC
5
115
100
AcDbEntity
8
0
100
AcDbCircle
10
370.53876896975646
20
-159.59304054344108
30
0
40
1.607141612540417
100
AcDbArc
50
180
51
269.93031431043272
0
LWPOLYLINE
5
116
100
AcDbEntity
8
0
100
AcDbPolyline
90
4
70
1
43
0.0
10
180.6651898086777
20
-54.057215812241623
10
180.66518980867772
20
-47.557216354816958
10
171.66910490848159
20
-47.557216354816916
10
171.66910490848156
20
-54.057215812241488
0
ARC
5
117
100
AcDbEntity
8
0
100
AcDbCircle
10
192.31544244400357
20
-50.807939344119674
30
0
40
1.5865371218126809
100
AcDbArc
50
-89.858818923153066
51
89.858818925233592
0
ARC
5
118
100
AcDbEntity
8
0
100
AcDbCircle
10
192.3193518010815
20
-50.807939344119568
30
0
40
1.5865371218126625
100
AcDbArc
50
90.141181076839757
51
180
0
ARC
5
119
100
AcDbEntity
8
0
100
AcDbCircle
10
192.3193518010815
20
-50.807939344119568
30
0
40
1.5865371218126967
100
AcDbArc
50
180
51
269.85881892523662
0
LWPOLYLINE
5
120
100
AcDbEntity
8
0
100
AcDbPolyline
90
4
70
1
43
0.0
10
57.872539415621034
20
-47.55721635481607
10
48.876454515424925
20
-47.557216354816028
10
48.876454515424882
20
-54.057215812240585
10
57.872539415620977
20
-54.05721581224072
0
LWPOLYLINE
5
121
100
AcDbEntity
8
0
100
AcDbPolyline
90
4
70
1
43
0.0
10
203.96908697799265
20
-54.057215812241793
10
212.96517187818876
20
-54.057215812241857
10
212.96515465272591
20
-47.5572163548172
10
203.96906975252983
20
-47.557216354817157
0
ARC
5
122
100
AcDbEntity
8
0
100
AcDbCircle
10
343.83197517410338
20
-159.60785438788517
30
0
40
1.6071416125403484
100
AcDbArc
50
-89.860628927278498
51
89.860628929363799
0
ARC
5
123
100
AcDbEntity
8
0
100
AcDbCircle
10
343.83588453118136
20
-159.60785438788514
30
0
40
1.6071416125403124
100
AcDbArc
50
90.069685691433705
51
180
0
ARC
5
124
100
AcDbEntity
8
0
100
AcDbCircle
10
343.83588453118136
20
-159.60785438788514
30
0
40
1.6071416125402749
100
AcDbArc
50
180
51
269.93031431094136
0
ARC
5
125
100
AcDbEntity
8
0
100
AcDbCircle
10
116.04440131433333
20
-55.167948121869628
30
0
40
1.5865371218126896
100
AcDbArc
50
-89.858818923155084
51
89.858818925232057
0
ARC
5
126
100
AcDbEntity
8
0
100
AcDbCircle
10
116.04831067141127
20
-55.167948121869578
30
0
40
1.5865371218127073
100
AcDbArc
50
90.141181076841292
51
180
0
ARC
5
127
100
AcDbEntity
8
0
100
AcDbCircle
10
116.04831067141127
20
-55.167948121869578
30
0
40
1.5865371218127144
100
AcDbArc
50
180
51
269.85881892523514
0
ARC
5
128
100
AcDbEntity
8
0
100
AcDbCircle
10
366.91248994831358
20
-43.831925435186733
30
0
40
1.5865371218126187
100
AcDbArc
50
-89.858818923153066
51
89.858818925230523
0
ARC
5
129
100
AcDbEntity
8
0
100
AcDbCircle
10
366.91639930539156
20
-43.831925435186598
30
0
40
1.5865371218126274
100
AcDbArc
50
90.141181076842841
51
180
0
ARC
5
130
100
AcDbEntity
8
0
100
AcDbCircle
10
366.91639930539156
20
-43.831925435186598
30
0
40
1.5865371218126256
100
AcDbArc
50
180
51
269.85881892523463
0
LWPOLYLINE
5
131
100
AcDbEntity
8
0
100
AcDbPolyline
90
4
70
1
43
0.0
10
13.880159002267563
20
-23.265464249151584
10
13.88014177680482
20
-14.265462350336307
10
7.3840571953473777
20
-14.265462350336261
10
7.384057195347312
20
-23.265464249151471
0
ARC
5
132
100
AcDbEntity
8
0
100
AcDbCircle
10
349.72823303445352
20
-14.692819522124276
30
0
40
1.586537121812621
100
AcDbArc
50
-89.858818923153066
51
89.858818925228476
0
ARC
5
133
100
AcDbEntity
8
0
100
AcDbCircle
10
349.73214239153151
20
-14.692819522124145
30
0
40
1.5865371218126314
100
AcDbArc
50
90.141181076842841
51
180
0
ARC
5
134
100
AcDbEntity
8
0
100
AcDbCircle
10
349.73214239153151
20
-14.692819522124145
30
0
40
1.5865371218126256
100
AcDbArc
50
180
51
269.85881892523662
0
ARC
5
135
100
AcDbEntity
8
0
100
AcDbCircle
10
14.875876015404314
20
-101.77655301046649
30
0
40
1.5865371218126807
100
AcDbArc
50
-89.858818923155511
51
89.858818925231361
0
ARC
5
136
100
AcDbEntity
8
0
100
AcDbCircle
10
14.879785372482228
20
-101.77655301046642
30
0
40
1.5865371218126803
100
AcDbArc
50
90.141181076839501
51
180
0
ARC
5
137
100
AcDbEntity
8
0
100
AcDbCircle
10
14.879785372482228
20
-101.77655301046642
30
0
40
1.5865371218126789
100
AcDbArc
50
180
51
269.85881892523651
0
ARC
5
138
100
AcDbEntity
8
0
100
AcDbCircle
10
39.344537993205336
20
-185.46460000994361
30
0
40
1.5865371218126987
100
AcDbArc
50
-89.858818923154331
51
89.858818925230011
0
ARC
5
139
100
AcDbEntity
8
0
100
AcDbCircle
10
39.348447350283308
20
-185.46460000994355
30
0
40
1.586537121812698
100
AcDbArc
50
90.141181076840525
51
180
0
ARC
5
140
100
AcDbEntity
8
0
100
AcDbCircle
10
39.348447350283308
20
-185.46460000994355
30
0
40
1.5865371218126967
100
AcDbArc
50
180
51
269.85881892523537
0
ARC
5
141
100
AcDbEntity
8
0
100
AcDbCircle
10
39.344537993205535
20
-160.4549669656555
30
0
40
1.5865371218126985
100
AcDbArc
50
-89.858818923155084
51
89.858818925234374
0
ARC
5
142
100
AcDbEntity
8
0
100
AcDbCircle
10
39.348447350283479
20
-160.45496696565544
30
0
40
1.5865371218126803
100
AcDbArc
50
90.141181076840269
51
180
0
ARC
5
143
100
AcDbEntity
8
0
100
AcDbCircle
10
39.348447350283479
20
-160.45496696565544
30
0
40
1.5865371218126789
100
AcDbArc
50
180
51
269.85881892523565
0
ARC
5
144
100
AcDbEntity
8
0
100
AcDbCircle
10
321.40886574615831
20
-29.24513145536649
30
0
40
1.5865371218126187
100
AcDbArc
50
-89.858818923151034
51
89.858818925226416
0
ARC
5
145
100
AcDbEntity
8
0
100
AcDbCircle
10
321.4127751032363
20
-29.245131455366419
30
0
40
1.5865371218126891
100
AcDbArc
50
90.141181076840795
51
180
0
ARC
5
146
100
AcDbEntity
8
0
100
AcDbCircle
10
321.4127751032363
20
-29.245131455366419
30
0
40
1.5865371218126612
100
AcDbArc
50
180
51
269.85881892523662
0
LWPOLYLINE
5
147
100
AcDbEntity
8
0
100
AcDbPolyline
90
4
70
1
43
0.0
10
324.65889787190645
20
-44.259290475151118
10
324.65889787190656
20
-35.25927996359713
10
318.16281329044904
20
-35.259279963597081
10
318.16281329044898
20
-44.259290475150991
0
LWPOLYLINE
5
148
100
AcDbEntity
8
0
100
AcDbPolyline
90
4
70
1
43
0.0
10
16.576485365010974
20
-47.557216354815715
10
16.576481058645204
20
-54.057215812240358
10
25.572565958841338
20
-54.057215812240493
10
25.572565958841388
20
-47.557216354815836
0
ARC
5
149
100
AcDbEntity
8
0
100
AcDbCircle
10
115.55106317765521
20
-13.474593188796877
30
0
40
1.5865371218126918
100
AcDbArc
50
-89.858818923155084
51
89.85881892523156
0
ARC
5
150
100
AcDbEntity
8
0
100
AcDbCircle
10
115.55497253473314
20
-13.47459318879682
30
0
40
1.5865371218127047
100
AcDbArc
50
90.141181076840269
51
180
0
ARC
5
151
100
AcDbEntity
8
0
100
AcDbCircle
10
115.55497253473314
20
-13.47459318879682
30
0
40
1.5865371218126967
100
AcDbArc
50
180
51
269.85881892523565
0
ARC
5
152
100
AcDbEntity
8
0
100
AcDbCircle
10
371.31503406136943
20
-148.80719583239741
30
0
40
1.6071416125402771
100
AcDbArc
50
-89.860628927282576
51
89.860628929367834
0
ARC
5
153
100
AcDbEntity
8
0
100
AcDbCircle
10
371.31894341844725
20
-148.80719583239733
30
0
40
1.6071416125403442
100
AcDbArc
50
90.069685691326299
51
180
0
ARC
5
154
100
AcDbEntity
8
0
100
AcDbCircle
10
371.31894341844725
20
-148.80719583239733
30
0
40
1.6071416125403459
100
AcDbArc
50
180
51
269.93031431043067
0
ARC
5
155
100
AcDbEntity
8
0
100
AcDbCircle
10
343.82147736301732
20
-80.741331343933709
30
0
40
1.5865371218126276
100
AcDbArc
50
-89.858818923153066
51
89.858818925228476
0
ARC
5
156
100
AcDbEntity
8
0
100
AcDbCircle
10
343.82538672009531
20
-80.741331343933581
30
0
40
1.5865371218126358
100
AcDbArc
50
90.141181076842841
51
180
0
ARC
5
157
100
AcDbEntity
8
0
100
AcDbCircle
10
343.82538672009531
20
-80.741331343933581
30
0
40
1.5865371218126256
100
AcDbArc
50
180
51
269.85881892523662
0
ARC
5
158
100
AcDbEntity
8
0
100
AcDbCircle
10
368.11403000145873
20
-80.733175121711696
30
0
40
1.5865371218126276
100
AcDbArc
50
-89.858818923153066
51
89.858818925228476
0
ARC
5
159
100
AcDbEntity
8
0
100
AcDbCircle
10
368.11793935853672
20
-80.733175121711568
30
0
40
1.5865371218126358
100
AcDbArc
50
90.141181076842841
51
180
0
ARC
5
160
100
AcDbEntity
8
0
100
AcDbCircle
10
368.11793935853672
20
-80.733175121711568
30
0
40
1.5865371218126256
100
AcDbArc
50
180
51
269.85881892523662
0
ARC
5
161
100
AcDbEntity
8
0
100
AcDbCircle
10
15.051985354764142
20
-160.4631231878775
30
0
40
1.5865371218126629
100
AcDbArc
50
-89.858818923154686
51
89.858818925234829
0
ARC
5
162
100
AcDbEntity
8
0
100
AcDbCircle
10
15.055894711842061
20
-160.46312318787733
30
0
40
1.5865371218126447
100
AcDbArc
50
90.141181076838876
51
180
0
ARC
5
163
100
AcDbEntity
8
0
100
AcDbCircle
10
15.055894711842061
20
-160.46312318787733
30
0
40
1.5865371218126456
100
AcDbArc
50
180
51
269.85881892523713
0
ARC
5
164
100
AcDbEntity
8
0
100
AcDbCircle
10
37.326910461862688
20
-50.795157499674147
30
0
40
1.5865371218126896
100
AcDbArc
50
-89.858818923154828
51
89.858818925231802
0
ARC
5
165
100
AcDbEntity
8
0
100
AcDbCircle
10
37.330819818940626
20
-50.795157499674062
30
0
40
1.5865371218126714
100
AcDbArc
50
90.141181076839757
51
180
0
ARC
5
166
100
AcDbEntity
8
0
100
AcDbCircle
10
37.330819818940626
20
-50.795157499674062
30
0
40
1.58653712181267
100
AcDbArc
50
180
51
269.85881892523611
0
ARC
5
167
100
AcDbEntity
8
0
100
AcDbCircle
10
15.051985354763959
20
-185.47275623216561
30
0
40
1.5865371218126985
100
AcDbArc
50
-89.858818923154544
51
89.8588189252349
0
ARC
5
168
100
AcDbEntity
8
0
100
AcDbCircle
10
15.055894711841924
20
-185.47275623216552
30
0
40
1.586537121812698
100
AcDbArc
50
90.141181076840397
51
180
0
ARC
5
169
100
AcDbEntity
8
0
100
AcDbCircle
10
15.055894711841924
20
-185.47275623216552
30
0
40
1.5865371218126989
100
AcDbArc
50
180
51
269.8588189252356
0
ARC
5
170
100
AcDbEntity
8
0
100
AcDbCircle
10
349.72823303445341
20
-43.829469966386547
30
0
40
1.5865371218126891
100
AcDbArc
50
-89.85881892315922
51
89.858818925238737
0
ARC
5
171
100
AcDbEntity
8
0
100
AcDbCircle
10
349.73214239153123
20
-43.829469966386483
30
0
40
1.5865371218126274
100
AcDbArc
50
90.141181076842841
51
180
0
ARC
5
172
100
AcDbEntity
8
0
100
AcDbCircle
10
349.73214239153123
20
-43.829469966386483
30
0
40
1.5865371218126256
100
AcDbArc
50
180
51
269.85881892523662
0
LWPOLYLINE
5
173
100
AcDbEntity
8
0
100
AcDbPolyline
90
4
70
1
43
0.0
10
13.931990419847669
20
-35.259279963594864
10
7.4359058383902248
20
-35.259279963594814
10
7.4359058383901591
20
-44.259290475148738
10
13.931990419847601
20
-44.259290475148845
0
ARC
5
174
100
AcDbEntity
8
0
100
AcDbCircle
10
307.32867839006855
20
-50.807216855231623
30
0
40
1.5865371218126809
100
AcDbArc
50
-89.858818923155084
51
89.85881892523463
0
ARC
5
175
100
AcDbEntity
8
0
100
AcDbCircle
10
307.33258774714648
20
-50.807216855231516
30
0
40
1.5865371218126625
100
AcDbArc
50
90.141181076840795
51
180
0
ARC
5
176
100
AcDbEntity
8
0
100
AcDbCircle
10
307.33258774714648
20
-50.807216855231516
30
0
40
1.5865371218126967
100
AcDbArc
50
180
51
269.85881892523463
0
ARC
5
177
100
AcDbEntity
8
0
100
AcDbCircle
10
10.681983694077877
20
-29.245139922030866
30
0
40
1.5865371218126851
100
AcDbArc
50
-89.858818923154828
51
89.858818925232001
0
ARC
5
178
100
AcDbEntity
8
0
100
AcDbCircle
10
10.685893051155819
20
-29.245139922030795
30
0
40
1.5865371218126847
100
AcDbArc
50
90.141181076839885
51
180
0
ARC
5
179
100
AcDbEntity
8
0
100
AcDbCircle
10
10.685893051155819
20
-29.245139922030795
30
0
40
1.5865371218126845
100
AcDbArc
50
180
51
269.85881892523605
0
ARC
5
180
100
AcDbEntity
8
0
100
AcDbCircle
10
368.84635371299953
20
-187.81386576548684
30
0
40
1.6071416125403484
100
AcDbArc
50
-89.860628927278498
51
89.860628929363799
0
ARC
5
181
100
AcDbEntity
8
0
100
AcDbCircle
10
368.8502630700774
20
-187.81386576548681
30
0
40
1.6071416125403017
100
AcDbArc
50
90.069685691646498
51
180
0
ARC
5
182
100
AcDbEntity
8
0
100
AcDbCircle
10
368.8502630700774
20
-187.81386576548681
30
0
40
1.6071416125402749
100
AcDbArc
50
180
51
269.93031431049957
0
LINE
5
183
100
AcDbEntity
8
0
100
AcDbLine
10
12.315350245704055
20
-7.8072050974686871
30
0
11
7.3153539145924187
21
-12.807227205727296
31
0
0
LINE
5
184
100
AcDbEntity
8
0
100
AcDbLine
10
372.31894376642958
20
-7.8072050974712379
30
0
11
372.31503440935165
21
-7.807205097471309
31
0
0
LINE
5
185
100
AcDbEntity
8
0
100
AcDbLine
10
372.31503440935165
20
-7.807205097471309
30
0
11
12.315350245704055
21
-7.8072050974686871
31
0
0
LINE
5
186
100
AcDbEntity
8
0
100
AcDbLine
10
372.31894376642958
20
-7.8072050974712379
30
0
11
377.31890995298124
21
-12.807227205729955
31
0
0
LINE
5
187
100
AcDbEntity
8
0
100
AcDbLine
10
377.31890995298124
20
-12.807227205729955
30
0
11
377.31890995298102
21
-32.8072122859001
31
0
0
LINE
5
188
100
AcDbEntity
8
0
100
AcDbLine
10
377.31890995298102
20
-32.8072122859001
30
0
11
375.31899773631142
21
-34.807143425513772
31
0
0
LINE
5
189
100
AcDbEntity
8
0
100
AcDbLine
10
375.31899773631142
20
-34.807143425513772
30
0
11
375.39286052788867
21
-192.94888441375764
31
0
0
LINE
5
190
100
AcDbEntity
8
0
100
AcDbLine
10
375.39286052788867
20
-192.94888441375764
30
0
11
375.38895117081074
21
-192.94888441375772
31
0
0
LINE
5
191
100
AcDbEntity
8
0
100
AcDbLine
10
362.31506758532134
20
-192.90760358806784
30
0
11
375.38895117081074
21
-192.94888441375772
31
0
0
LINE
5
192
100
AcDbEntity
8
0
100
AcDbLine
10
362.3150675853214
20
-187.80720862282197
30
0
11
362.31506758532134
21
-192.90760358806784
31
0
0
LINE
5
193
100
AcDbEntity
8
0
100
AcDbLine
10
337.31506439793498
20
-162.80720143439297
30
0
11
362.3150675853214
21
-187.80720862282197
31
0
0
LINE
5
194
100
AcDbEntity
8
0
100
AcDbLine
10
337.31506439793543
20
-117.80720916579396
30
0
11
337.31506439793498
21
-162.80720143439297
31
0
0
LINE
5
195
100
AcDbEntity
8
0
100
AcDbLine
10
342.31506503541277
20
-112.80721289575149
30
0
11
337.31506439793543
21
-117.80720916579396
31
0
0
LINE
5
196
100
AcDbEntity
8
0
100
AcDbLine
10
357.38066538551521
20
-112.80720331377046
30
0
11
342.31506503541277
21
-112.80721289575149
31
0
0
ARC
5
197
100
AcDbEntity
8
0
100
AcDbCircle
10
357.32336082229199
20
-107.80720794513313
30
0
40
5.0003194944382976
100
AcDbArc
50
270.65663378294113
51
284.34440347957673
0
LINE
5
198
100
AcDbEntity
8
0
100
AcDbLine
10
358.61138637669654
20
-112.64516421682465
30
0
11
358.56219052923154
21
-112.65164143688786
31
0
0
LINE
5
199
100
AcDbEntity
8
0
100
AcDbLine
10
358.65603699149
20
-112.62666940022136
30
0
11
358.61138637669654
21
-112.64516421682465
31
0
0
ARC
5
200
100
AcDbEntity
8
0
100
AcDbCircle
10
357.32336082229199
20
-107.80720794513313
30
0
40
5.0003194944383846
100
AcDbArc
50
285.45717174280531
51
299.54259924032664
0
LINE
5
201
100
AcDbEntity
8
0
100
AcDbLine
10
359.819339181359
20
-112.14481577390245
30
0
11
359.78887259397538
21
-112.15743539736735
31
0
0
LINE
5
202
100
AcDbEntity
8
0
100
AcDbLine
10
359.84490254266399
20
-112.12519984651618
30
0
11
359.819339181359
21
-112.14481577390245
31
0
0
ARC
5
203
100
AcDbEntity
8
0
100
AcDbCircle
10
357.32336082229199
20
-107.80720794513313
30
0
40
5.0003194944385978
100
AcDbArc
50
300.2832902870652
51
314.71794426916568
0
LINE
5
204
100
AcDbEntity
8
0
100
AcDbLine
10
360.85665655147511
20
-111.34883507458021
30
0
11
360.84167353826342
21
-111.36033222065859
31
0
0
LINE
5
205
100
AcDbEntity
8
0
100
AcDbLine
10
360.86794700966141
20
-111.33412230897746
30
0
11
360.85665655147511
21
-111.34883507458021
31
0
0
ARC
5
206
100
AcDbEntity
8
0
100
AcDbCircle
10
357.32336082229199
20
-107.80720794513313
30
0
40
5.000319494438755
100
AcDbArc
50
315.14318301882264
51
344.95406119884944
0
LINE
5
207
100
AcDbEntity
8
0
100
AcDbLine
10
362.1529759803272
20
-109.10352854247614
30
0
11
362.15225963530986
21
-109.10525808334771
31
0
0
LINE
5
208
100
AcDbEntity
8
0
100
AcDbLine
10
362.1532187923379
20
-109.10168462748132
30
0
11
362.1529759803272
21
-109.10352854247614
31
0
0
ARC
5
209
100
AcDbEntity
8
0
100
AcDbCircle
10
357.32336082229199
20
-107.80720794513313
30
0
40
5.0003194944394362
100
AcDbArc
50
-15.003543302159486
51
15.003248933940318
0
LINE
5
210
100
AcDbEntity
8
0
100
AcDbLine
10
362.15297598032714
20
-106.51086164524847
30
0
11
362.15322544288949
21
-106.5127560771402
31
0
0
LINE
5
211
100
AcDbEntity
8
0
100
AcDbLine
10
362.15223997826513
20
-106.50908468248488
30
0
11
362.15297598032714
21
-106.51086164524847
31
0
0
ARC
5
212
100
AcDbEntity
8
0
100
AcDbCircle
10
357.32336082229199
20
-107.80720794513313
30
0
40
5.000319494440145
100
AcDbArc
50
15.046806437772318
51
29.951058654434529
0
LINE
5
213
100
AcDbEntity
8
0
100
AcDbLine
10
361.65264518769339
20
-105.30289058948344
30
0
11
361.65589947387718
21
-105.31074755846348
31
0
0
LINE
5
214
100
AcDbEntity
8
0
100
AcDbLine
10
361.64740194441782
20
-105.29605798370675
30
0
11
361.65264518769339
21
-105.30289058948344
31
0
0
ARC
5
215
100
AcDbEntity
8
0
100
AcDbCircle
10
357.32336082229199
20
-107.80720794513313
30
0
40
5.0003194944404639
100
AcDbArc
50
30.145511773838169
51
59.71791990971284
0
LINE
5
216
100
AcDbEntity
8
0
100
AcDbLine
10
359.81933918135894
20
-103.46961747751565
30
0
11
359.84481133786943
21
-103.48916278484566
31
0
0
LINE
5
217
100
AcDbEntity
8
0
100
AcDbLine
10
359.78898071741116
20
-103.45704177423863
30
0
11
359.81933918135894
21
-103.46961747751565
31
0
0
ARC
5
218
100
AcDbEntity
8
0
100
AcDbCircle
10
357.32336082229199
20
-107.80720794513313
30
0
40
5.0003194944410119
100
AcDbArc
50
60.455976681801609
51
74.541462810248447
0
LINE
5
219
100
AcDbEntity
8
0
100
AcDbLine
10
358.61138637669671
20
-102.96923458363865
30
0
11
358.65615184631082
21
-102.98777825119309
31
0
0
LINE
5
220
100
AcDbEntity
8
0
100
AcDbLine
10
358.56206110762025
20
-102.96274135916812
30
0
11
358.61138637669671
21
-102.96923458363865
31
0
0
ARC
5
221
100
AcDbEntity
8
0
100
AcDbCircle
10
357.32336082229199
20
-107.80720794513313
30
0
40
5.000319494441138
100
AcDbArc
50
75.657127202514204
51
89.344200182588963
0
LINE
5
222
100
AcDbEntity
8
0
100
AcDbLine
10
342.31506503541289
20
-102.80721174292768
30
0
11
357.38059260835485
21
-102.80721174292779
31
0
0
LINE
5
223
100
AcDbEntity
8
0
100
AcDbLine
10
337.31506439793549
20
-97.807224085623858
30
0
11
342.31506503541289
21
-102.80721174292768
31
0
0
LINE
5
224
100
AcDbEntity
8
0
100
AcDbLine
10
337.31506439793571
20
-67.809729239891226
30
0
11
337.31506439793549
21
-97.807224085623858
31
0
0
LINE
5
225
100
AcDbEntity
8
0
100
AcDbLine
10
337.31506439805452
20
-67.807194788936414
30
0
11
337.31506439793571
21
-67.809729239891226
31
0
0
LINE
5
226
100
AcDbEntity
8
0
100
AcDbLine
10
332.3160221987356
20
-62.808131122951878
30
0
11
337.31506439805452
21
-67.807194788936414
31
0
0
LINE
5
227
100
AcDbEntity
8
0
100
AcDbLine
10
332.31513266230962
20
-62.807207131632481
30
0
11
332.3160221987356
21
-62.808131122951878
31
0
0
LINE
5
228
100
AcDbEntity
8
0
100
AcDbLine
10
52.319230251674504
20
-62.807207131630456
30
0
11
332.31513266230962
21
-62.807207131632481
31
0
0
LINE
5
229
100
AcDbEntity
8
0
100
AcDbLine
10
52.319230251674504
20
-62.807207131630456
30
0
11
47.319229614197162
21
-67.80721201441159
31
0
0
LINE
5
230
100
AcDbEntity
8
0
100
AcDbLine
10
47.319229614197162
20
-67.80721201441159
30
0
11
47.31922961419626
21
-192.93470787680235
31
0
0
LINE
5
231
100
AcDbEntity
8
0
100
AcDbLine
10
47.31922961419626
20
-192.93470787680235
30
0
11
47.319279664884334
21
-193.01152466532426
31
0
0
LINE
5
232
100
AcDbEntity
8
0
100
AcDbLine
10
7.6469612701886502
20
-193.03737102751535
30
0
11
47.31537030780639
21
-193.01152466532432
31
0
0
LINE
5
233
100
AcDbEntity
8
0
100
AcDbLine
10
7.3153539145924187
20
-12.807227205727296
30
0
11
7.6469612701886502
21
-193.03737102751535
31
0
0
CIRCLE
5
234
100
AcDbEntity
8
0
100
AcDbCircle
10
327.58279666067472
20
-246.89743130284555
30
0
40
1.5865384688789774
0
LWPOLYLINE
5
235
100
AcDbEntity
8
0
100
AcDbPolyline
90
4
70
1
43
0.0
10
369.06121872851458
20
-237.02658410915748
10
369.06120150303707
20
-246.02658600797275
10
362.56120204561228
20
-246.02658600797272
10
362.56120204561233
20
-237.02658410915745
0
CIRCLE
5
236
100
AcDbEntity
8
0
100
AcDbCircle
10
328.07614932733856
20
-205.20409330310613
30
0
40
1.5865384688789774
0
CIRCLE
5
237
100
AcDbEntity
8
0
100
AcDbCircle
10
411.3666781423733
20
-245.59677336738756
30
0
40
1.5865384688789419
0
CIRCLE
5
238
100
AcDbEntity
8
0
100
AcDbCircle
10
83.622338573311026
20
-158.52365157006307
30
0
40
1.5865384688789774
0
CIRCLE
5
239
100
AcDbEntity
8
0
100
AcDbCircle
10
414.98905088235148
20
-100.6990078148709
30
0
40
1.6071429771010668
0
LWPOLYLINE
5
240
100
AcDbEntity
8
0
100
AcDbPolyline
90
4
70
1
43
0.0
10
225.11921986747851
20
-206.23483254606782
10
225.11921986747848
20
-212.73483200349247
10
216.11921796866315
20
-212.73483200349239
10
216.11921796866318
20
-206.23483254606776
0
CIRCLE
5
241
100
AcDbEntity
8
0
100
AcDbCircle
10
236.76948239457579
20
-209.48410901418993
30
0
40
1.5865384688789774
0
LWPOLYLINE
5
242
100
AcDbEntity
8
0
100
AcDbPolyline
90
4
70
1
43
0.0
10
102.32646521601063
20
-212.73483200349176
10
93.326463317195334
20
-212.7348320034917
10
93.326463317195376
20
-206.23483254606703
10
102.32646521601069
20
-206.23483254606711
0
LWPOLYLINE
5
243
100
AcDbEntity
8
0
100
AcDbPolyline
90
4
70
1
43
0.0
10
248.41922746281898
20
-206.23483254606796
10
257.41922936163428
20
-206.23483254606805
10
257.41921213615677
20
-212.73483200349264
10
248.41921023734147
20
-212.73483200349261
0
CIRCLE
5
244
100
AcDbEntity
8
0
100
AcDbCircle
10
388.28614377140724
20
-100.68419397042639
30
0
40
1.6071429771010668
0
CIRCLE
5
245
100
AcDbEntity
8
0
100
AcDbCircle
10
160.49837650616359
20
-205.12410023643895
30
0
40
1.5865384688789774
0
CIRCLE
5
246
100
AcDbEntity
8
0
100
AcDbCircle
10
411.36667814237342
20
-216.4601229231252
30
0
40
1.5865384688789419
0
LWPOLYLINE
5
247
100
AcDbEntity
8
0
100
AcDbPolyline
90
4
70
1
43
0.0
10
58.334047450456453
20
-237.02658410915564
10
58.334030224978967
20
-246.02658600797093
10
51.834030767554317
20
-246.02658600797088
10
51.834030767554367
20
-237.02658410915561
0
CIRCLE
5
248
100
AcDbEntity
8
0
100
AcDbCircle
10
394.18240663803613
20
-245.59922883618742
30
0
40
1.5865384688789419
0
CIRCLE
5
249
100
AcDbEntity
8
0
100
AcDbCircle
10
59.329765309018391
20
-158.51549534784075
30
0
40
1.586538468878973
0
CIRCLE
5
250
100
AcDbEntity
8
0
100
AcDbCircle
10
83.798448062199327
20
-74.82744834836393
30
0
40
1.5865384688789685
0
CIRCLE
5
251
100
AcDbEntity
8
0
100
AcDbCircle
10
83.798448062199157
20
-99.837081392652038
30
0
40
1.5865384688789685
0
CIRCLE
5
252
100
AcDbEntity
8
0
100
AcDbCircle
10
365.86301530488004
20
-231.04691690294484
30
0
40
1.5865384688789419
0
LWPOLYLINE
5
253
100
AcDbEntity
8
0
100
AcDbPolyline
90
4
70
1
43
0.0
10
369.11305019010285
20
-216.03275788316023
10
369.1130501901028
20
-225.03276839471422
10
362.613050732678
20
-225.0327683947142
10
362.61305073267812
20
-216.03275788316017
0
LWPOLYLINE
5
254
100
AcDbEntity
8
0
100
AcDbPolyline
90
4
70
1
43
0.0
10
61.026466742147662
20
-212.73483200349148
10
61.026462435778313
20
-206.23483254606683
10
70.026464334593626
20
-206.23483254606691
10
70.026464334593598
20
-212.73483200349153
0
CIRCLE
5
255
100
AcDbEntity
8
0
100
AcDbCircle
10
160.00503795061093
20
-246.8174551695117
30
0
40
1.5865384688789774
0
CIRCLE
5
256
100
AcDbEntity
8
0
100
AcDbCircle
10
415.76922599345778
20
-111.48485252591459
30
0
40
1.6071429771010668
0
CIRCLE
5
257
100
AcDbEntity
8
0
100
AcDbCircle
10
388.27564595140689
20
-179.55071701437791
30
0
40
1.5865384688789419
0
CIRCLE
5
258
100
AcDbEntity
8
0
100
AcDbCircle
10
412.56821921569951
20
-179.55887323660025
30
0
40
1.5865384688789419
0
CIRCLE
5
259
100
AcDbEntity
8
0
100
AcDbCircle
10
59.505874797906529
20
-99.82892517042977
30
0
40
1.586538468878973
0
CIRCLE
5
260
100
AcDbEntity
8
0
100
AcDbCircle
10
81.780818817766658
20
-209.49689085863341
30
0
40
1.5865384688789774
0
CIRCLE
5
261
100
AcDbEntity
8
0
100
AcDbCircle
10
59.505874797906685
20
-74.819292126141619
30
0
40
1.586538468878973
0
CIRCLE
5
262
100
AcDbEntity
8
0
100
AcDbCircle
10
394.18240663803647
20
-216.46257839192509
30
0
40
1.5865384688789419
0
LWPOLYLINE
5
263
100
AcDbEntity
8
0
100
AcDbPolyline
90
4
70
1
43
0.0
10
58.385878912044731
20
-225.03276839471238
10
51.885879454620081
20
-225.03276839471232
10
51.885879454620138
20
-216.03275788315835
10
58.385878912044788
20
-216.03275788315838
0
CIRCLE
5
264
100
AcDbEntity
8
0
100
AcDbCircle
10
351.78281599385696
20
-209.4848315030795
30
0
40
1.5865384688789774
0
CIRCLE
5
265
100
AcDbEntity
8
0
100
AcDbCircle
10
55.135869426821955
20
-231.04690843627634
30
0
40
1.586538468878973
0
CIRCLE
5
266
100
AcDbEntity
8
0
100
AcDbCircle
10
413.30054354902899
20
-72.478182592825036
30
0
40
1.6071429771010668
0
LWPOLYLINE
5
267
100
AcDbEntity
8
0
100
AcDbPolyline
90
49
70
1
43
0.0
10
51.76923678886331
20
-247.48482115257985
10
56.769237365275131
20
-252.48484326083855
10
416.76922719049907
20
-252.48484326084065
10
421.76919762232552
20
-247.48482115258201
10
421.76919762232558
20
-227.48483607241187
10
419.76928370760913
20
-225.48490493279817
10
419.84314656190247
20
-67.343163944554306
10
406.76925187589256
20
-67.384444770243931
10
406.76925187589262
20
-72.484839735489857
10
381.76922746198625
20
-97.484846923918553
10
381.76922746198602
20
-142.48483919251751
10
386.76923234476732
20
-147.48483546256008
10
401.83484548647857
20
-147.48484504454132
42
-0.059795323812330867
10
403.01637163338125
20
-147.64040692142393
10
403.06556752261667
20
-147.64688414148713
10
403.11021817532122
20
-147.66537895809034
42
-0.061536807539796803
10
404.24305473965273
20
-148.13461296094448
10
404.27352135290437
20
-148.14723258440935
10
404.29908473591422
20
-148.16684851179556
42
-0.063066487482742545
10
405.29585657783264
20
-148.93171613765327
10
405.31083960376571
20
-148.94321328373164
10
405.32213007153848
20
-148.95792604933428
42
-0.13081303248217732
10
406.60644378764601
20
-151.1867902749641
10
406.60716013327158
20
-151.18851981583566
10
406.60740294548884
20
-151.19036373083043
42
-0.13168254010579661
10
406.6074095960459
20
-153.77929228117165
10
406.60716013327158
20
-153.78118671306336
10
406.60642413058468
20
-153.78296367582695
42
-0.065123862238059452
10
406.11008320477356
20
-154.98130079984838
10
406.10682891582667
20
-154.98915776882839
10
406.10158566809957
20
-154.9959903746053
42
-0.12975490236733861
10
404.29899353104219
20
-156.80288557346614
10
404.27352135290425
20
-156.82243088079613
10
404.24316286318026
20
-156.83500658407323
42
-0.061537064332587703
10
403.11033303023942
20
-157.30427010711873
10
403.06556752261679
20
-157.32281377467314
10
403.01624221166009
20
-157.32930699914371
42
-0.059792272942038954
10
401.8347727092563
20
-157.48483661538398
10
386.76923234476715
20
-157.4848366153839
10
381.76922746198585
20
-162.48482427268766
10
381.76922746198562
20
-192.48231911842029
10
381.76922746210442
20
-192.4848535693751
10
376.77018101829532
20
-197.48391723535957
10
376.76929148111407
20
-197.48484122667895
10
96.769241976570584
20
-197.4848412266773
10
91.769237093789428
20
-192.48483634389601
10
91.769237093790181
20
-67.357340481505219
10
91.76928714452076
20
-67.280523692983323
10
52.100844426016685
20
-67.254677330791779
0
CIRCLE
5
268
100
AcDbEntity
8
0
100
AcDbCircle
10
103.48850692696499
20
-72.761705738299568
30
0
40
1.6071429771010668
0
CIRCLE
5
269
100
AcDbEntity
8
0
100
AcDbCircle
10
103.50331230474268
20
-99.464612849243707
30
0
40
1.6071429771010668
0
CIRCLE
5
270
100
AcDbEntity
8
0
100
AcDbCircle
10
131.70933497123303
20
-74.450213071622329
30
0
40
1.6071429771010668
0
CIRCLE
5
271
100
AcDbEntity
8
0
100
AcDbCircle
10
141.96466963783561
20
-74.460006182733338
30
0
40
1.6071429771010668
0
CIRCLE
5
272
100
AcDbEntity
8
0
100
AcDbCircle
10
170.18552025988154
20
-72.771470627188364
30
0
40
1.6071429771010668
0
CIRCLE
5
273
100
AcDbEntity
8
0
100
AcDbCircle
10
170.17070641543714
20
-99.474405960354801
30
0
40
1.6071429771010668
0
LWPOLYLINE
5
274
100
AcDbEntity
8
0
100
AcDbPolyline
90
8
70
1
43
0.0
10
142.37311070532439
20
-80.961278506477456
10
167.32974414158335
20
-106.020179602241
10
176.78486037958848
20
-106.06107288566086
10
176.78486037958851
20
-68.061015105950432
10
96.884793377049647
20
-68.061015105950446
10
96.884793377049647
20
-106.06107288566086
10
106.74180584172331
20
-106.0492217571887
10
131.70060107539979
20
-80.935853701790109
0
CIRCLE
5
275
100
AcDbEntity
8
0
100
AcDbCircle
10
139.02004258376161
20
-115.08217783989309
30
0
40
1.5865384688789774
0
CIRCLE
5
276
100
AcDbEntity
8
0
100
AcDbCircle
10
143.25554902817953
20
-134.42597399532769
30
0
40
3.9653466821974348
0
CIRCLE
5
277
100
AcDbEntity
8
0
100
AcDbCircle
10
143.2555659615129
20
-153.43286455076452
30
0
40
3.9653466821974348
0
CIRCLE
5
278
100
AcDbEntity
8
0
100
AcDbCircle
10
127.75537682827644
20
-149.92630988411975
30
0
40
1.4999999633239547
0
CIRCLE
5
279
100
AcDbEntity
8
0
100
AcDbCircle
10
158.75572405030488
20
-149.92630988411975
30
0
40
1.4999999633239547
0
LWPOLYLINE
5
280
100
AcDbEntity
8
0
100
AcDbPolyline
90
26
70
1
43
0.0
10
113.42614469447136
20
-136.57450776766672
10
117.42613740413603
20
-136.57450776766672
10
117.42613740413603
20
-132.17450071474289
10
113.4261446944714
20
-132.17450071474289
10
113.42614469447136
20
-130.37452445064818
10
108.32613730246764
20
-130.37450722517076
10
108.32613730246764
20
-132.17450071474289
10
101.97057777966668
20
-132.17450071474289
10
102.03038033093584
20
-132.15774032520301
10
102.02501890108559
20
-128.31168740096487
10
96.055426344699271
20
-128.30634750296144
10
96.055426344699271
20
-119.4666975735462
10
102.0554434005971
20
-119.45374401451851
10
102.08056266113148
20
-109.40105873897373
10
164.0307066652025
20
-109.40105873897373
10
164.0307066652025
20
-159.35098142746358
10
102.08027392631315
20
-159.35098142746358
10
102.06785435708581
20
-149.30981999631979
10
96.055335910942787
20
-149.31264497461837
10
96.055335910942787
20
-140.41320541304202
10
102.04194723903035
20
-140.4027839991966
10
102.03658580918015
20
-136.56536103915116
10
102.03671930663022
20
-136.55023706996724
10
108.32613299609831
20
-136.57450776766672
10
108.32613299609831
20
-138.37450125723879
10
113.42614469447136
20
-138.37450125723879
0
CIRCLE
5
281
100
AcDbEntity
8
0
100
AcDbCircle
10
119.83535990371713
20
-187.85562555978487
30
0
40
1.4999999633239547
0
LWPOLYLINE
5
282
100
AcDbEntity
8
0
100
AcDbPolyline
90
26
70
1
43
0.0
10
115.83377224575612
20
-174.24860127503922
10
117.63376573532817
20
-174.24860127503922
10
117.63376573532821
20
-167.89304175223819
10
117.61712592413036
20
-167.95284430350733
10
113.77109022536972
20
-167.94748287365712
10
113.76571587641143
20
-161.97789031727083
10
104.9260487215188
20
-161.97789031727081
10
104.91306071153619
20
-167.97790737316862
10
100.50481988040056
20
-168.00302642563153
10
100.50481988040046
20
-193.08651258405769
10
139.16588813102689
20
-193.08651258405786
10
139.16588813102697
20
-168.00274651162351
10
134.76918836976975
20
-167.99032694239611
10
134.77201334806836
20
-161.97780849625309
10
125.87257378649201
20
-161.97780849625306
10
125.86213514716916
20
-167.96441982434064
10
122.02474663859449
20
-167.95905839449117
10
122.00951931603002
20
-167.95919189194046
10
122.03380723920691
20
-174.24860558140861
10
123.83380072877901
20
-174.24860558140861
10
123.833800728779
20
-179.34861727978162
10
122.03380723920689
20
-179.34861727978162
10
122.03377278825204
20
-183.34860568307701
10
117.63376573532813
20
-183.34860568307698
10
117.63376573532815
20
-179.34861297341226
10
115.83380669671092
20
-179.34861297341226
0
CIRCLE
5
283
100
AcDbEntity
8
0
100
AcDbCircle
10
164.36563643945391
20
-187.49836940005036
30
0
40
1.4999999633212253
0
LWPOLYLINE
5
284
100
AcDbEntity
8
0
100
AcDbPolyline
90
26
70
1
43
0.0
10
166.56404932398539
20
-182.99134952334271
10
162.16404227106955
20
-182.99134952334211
10
162.16404227107012
20
-178.9913568136775
10
160.36408323245621
20
-178.99135681367724
10
160.36404878150199
20
-173.89134511530415
10
162.1640422710708
20
-173.8913451153044
10
162.16404227107174
20
-167.53578559250337
10
162.14740245987397
20
-167.59558814377255
10
158.30136676112031
20
-167.59022671392174
10
158.29599241216289
20
-161.62063415753548
10
149.4563252572863
20
-161.62063415753423
10
149.44333724730302
20
-167.62065121343204
10
145.03509641617538
20
-167.64577026589438
10
145.03509641617185
20
-192.72925642432051
10
183.69616466672753
20
-192.72925642432597
10
183.69616466673108
20
-167.64549035189157
10
179.2994649054819
20
-167.63307078266362
10
179.30228988378121
20
-161.62055233652063
10
170.40285032222118
20
-161.62055233651932
10
170.39241168289763
20
-167.6071636646069
10
166.55502317381402
20
-167.60180223475624
10
166.53979585176552
20
-167.60193573220624
10
166.56408377494154
20
-173.89134942167433
10
168.36407726451031
20
-173.89134942167459
10
168.3640772645096
20
-178.9913611200476
10
166.5640837749408
20
-178.99136112004743
0
CIRCLE
5
285
100
AcDbEntity
8
0
100
AcDbCircle
10
217.44053215637564
20
-135.16370335206631
30
0
40
11.197008057707796
0
CIRCLE
5
286
100
AcDbEntity
8
0
100
AcDbCircle
10
201.94035826313916
20
-119.66340979660768
30
0
40
1.4999999633239725
0
CIRCLE
5
287
100
AcDbEntity
8
0
100
AcDbCircle
10
232.94069024516759
20
-119.6634097966076
30
0
40
1.4999999633239725
0
CIRCLE
5
288
100
AcDbEntity
8
0
100
AcDbCircle
10
201.94035826313922
20
-150.66405335196953
30
0
40
1.4999999633239725
0
CIRCLE
5
289
100
AcDbEntity
8
0
100
AcDbCircle
10
232.94069024516767
20
-150.66405335196947
30
0
40
1.4999999633239725
0
CIRCLE
5
290
100
AcDbEntity
8
0
100
AcDbCircle
10
217.44054062304232
20
-154.17058826305865
30
0
40
3.9653466821974348
0
LWPOLYLINE
5
291
100
AcDbEntity
8
0
100
AcDbPolyline
90
25
70
1
43
0.0
10
191.61113329158775
20
-132.91221177113422
10
187.61113627555369
20
-132.91221177113425
10
187.61113627555369
20
-131.11224411977832
10
182.51112027081123
20
-131.11222689430093
10
182.51112027081123
20
-132.91221177113425
10
176.15557366711838
20
-132.91221177113428
10
176.21538052475688
20
-132.89545138159446
10
176.21000617579855
20
-129.04939845735638
10
170.24041361941221
20
-129.0440671720917
10
170.24041361941218
20
-120.20441724267641
10
176.24042636894069
20
-120.19146368364869
10
176.26554132315192
20
-110.13877840810392
10
238.21570685902341
20
-110.13877840810378
10
238.21570685902358
20
-160.08872693480978
10
176.26526550739555
20
-160.08872693480996
10
176.25286316364551
20
-150.04755689092741
10
170.24034471750264
20
-150.05038186922602
10
170.24034471750255
20
-141.15093369491092
10
176.22695604559013
20
-141.14052089380425
10
176.22159445862104
20
-137.31221891352649
10
182.51112027081123
20
-137.31222743679692
10
182.51112027081126
20
-139.1122037008916
10
187.61113627555372
20
-139.11220370089157
10
187.61113627555369
20
-137.31221882405819
10
191.61113329158775
20
-137.31221882405819
0
CIRCLE
5
292
100
AcDbEntity
8
0
100
AcDbCircle
10
187.48543000532948
20
-72.4758449325074
30
0
40
1.6071429771010668
0
CIRCLE
5
293
100
AcDbEntity
8
0
100
AcDbCircle
10
187.50023538310722
20
-99.178752043451539
30
0
40
1.6071429771010668
0
CIRCLE
5
294
100
AcDbEntity
8
0
100
AcDbCircle
10
215.70625804959752
20
-74.164352265830161
30
0
40
1.6071429771010668
0
CIRCLE
5
295
100
AcDbEntity
8
0
100
AcDbCircle
10
225.96159271620013
20
-74.174145376941169
30
0
40
1.6071429771010668
0
CIRCLE
5
296
100
AcDbEntity
8
0
100
AcDbCircle
10
254.18244333824603
20
-72.485609821396196
30
0
40
1.6071429771010668
0
CIRCLE
5
297
100
AcDbEntity
8
0
100
AcDbCircle
10
254.16762949380166
20
-99.188545154562632
30
0
40
1.6071429771010668
0
LWPOLYLINE
5
298
100
AcDbEntity
8
0
100
AcDbPolyline
90
8
70
1
43
0.0
10
226.37003378368894
20
-80.675417700685287
10
251.32666721994786
20
-105.73431879644883
10
260.781783457953
20
-105.77521207986869
10
260.781783457953
20
-67.775154300158263
10
180.88171645541416
20
-67.775154300158277
10
180.88171645541416
20
-105.77521207986869
10
190.73872892008779
20
-105.76336095139654
10
215.69752415376431
20
-80.64999289599794
0
CIRCLE
5
299
100
AcDbEntity
8
0
100
AcDbCircle
10
198.44467200576443
20
-188.47264291217272
30
0
40
1.5121950677683316
0
CIRCLE
5
300
100
AcDbEntity
8
0
100
AcDbCircle
10
198.44467200576443
20
-172.37097331227332
30
0
40
1.5121950677683316
0
LWPOLYLINE
5
301
100
AcDbEntity
8
0
100
AcDbPolyline
90
4
70
1
43
0.0
10
194.3403170502344
20
-173.2569183196639
42
-1.1182791419620197
10
202.54914747018324
20
-173.61706235960111
10
202.5491474701833
20
-187.58667419811556
42
-1.0808794690754522
10
194.34031705023446
20
-187.22653015817798
0
CIRCLE
5
302
100
AcDbEntity
8
0
100
AcDbCircle
10
208.44467200576443
20
-188.47264291217272
30
0
40
1.5121950677683316
0
CIRCLE
5
303
100
AcDbEntity
8
0
100
AcDbCircle
10
208.44467200576443
20
-172.37097331227332
30
0
40
1.5121950677683316
0
LWPOLYLINE
5
304
100
AcDbEntity
8
0
100
AcDbPolyline
90
4
70
1
43
0.0
10
212.5491474701833
20
-187.58667419811556
10
212.5491474701833
20
-173.61706235960111
42
1.1182791419620197
10
204.34031705023446
20
-173.2569183196639
10
204.34031705023446
20
-187.22653015817798
42
1.0808794690754522
0
CIRCLE
5
305
100
AcDbEntity
8
0
100
AcDbCircle
10
218.44467200576443
20
-172.37097331227332
30
0
40
1.5121950677683316
0
CIRCLE
5
306
100
AcDbEntity
8
0
100
AcDbCircle
10
218.44467200576443
20
-188.47264291217272
30
0
40
1.5121950677683316
0
LWPOLYLINE
5
307
100
AcDbEntity
8
0
100
AcDbPolyline
90
4
70
1
43
0.0
10
222.5491474701833
20
-187.58667419811556
10
222.5491474701833
20
-173.61706235960111
42
1.1182791419620197
10
214.34031705023446
20
-173.2569183196639
10
214.34031705023446
20
-187.22653015817798
42
1.0808794690754522
0
CIRCLE
5
308
100
AcDbEntity
8
0
100
AcDbCircle
10
228.44467200576443
20
-188.47264291217272
30
0
40
1.5121950677683316
0
CIRCLE
5
309
100
AcDbEntity
8
0
100
AcDbCircle
10
228.44467200576443
20
-172.37097331227332
30
0
40
1.5121950677683316
0
LWPOLYLINE
5
310
100
AcDbEntity
8
0
100
AcDbPolyline
90
4
70
1
43
0.0
10
232.5491474701833
20
-187.58667419811556
42
-1.0808794690754522
10
224.34031705023446
20
-187.22653015817798
10
224.3403170502344
20
-173.2569183196639
42
-1.1182791419620202
10
232.54914747018324
20
-173.61706235960111
0
CIRCLE
5
311
100
AcDbEntity
8
0
100
AcDbCircle
10
289.53256968468213
20
-139.83243882062712
30
0
40
11.197008057707796
0
CIRCLE
5
312
100
AcDbEntity
8
0
100
AcDbCircle
10
274.03239579144559
20
-124.33214526516852
30
0
40
1.4999999633239725
0
CIRCLE
5
313
100
AcDbEntity
8
0
100
AcDbCircle
10
305.03272777347399
20
-124.33214526516838
30
0
40
1.4999999633239725
0
CIRCLE
5
314
100
AcDbEntity
8
0
100
AcDbCircle
10
274.03239579144571
20
-155.3327888205304
30
0
40
1.4999999633239725
0
CIRCLE
5
315
100
AcDbEntity
8
0
100
AcDbCircle
10
305.03272777347416
20
-155.33278882053025
30
0
40
1.4999999633239725
0
CIRCLE
5
316
100
AcDbEntity
8
0
100
AcDbCircle
10
289.53257815134879
20
-158.83932373161946
30
0
40
3.9653466821974348
0
LWPOLYLINE
5
317
100
AcDbEntity
8
0
100
AcDbPolyline
90
25
70
1
43
0.0
10
263.70317081989418
20
-137.58094723969512
10
259.70317380386012
20
-137.58094723969515
10
259.70317380386012
20
-135.78097958833922
10
254.60315779911767
20
-135.78096236286183
10
254.60315779911767
20
-137.58094723969515
10
248.24761119542478
20
-137.58094723969518
10
248.30741805306332
20
-137.56418685015535
10
248.30204370410499
20
-133.71813392591724
10
242.33245114771864
20
-133.7128026406526
10
242.33245114771861
20
-124.87315271123734
10
248.3324638972471
20
-124.86019915220957
10
248.3575788514583
20
-114.8075138766648
10
310.30774438732982
20
-114.80751387666456
10
310.3077443873301
20
-164.75746240337057
10
248.35730303570205
20
-164.75746240337085
10
248.34490069195198
20
-154.71629235948828
10
242.33238224580907
20
-154.71911733778688
10
242.33238224580899
20
-145.81966916347184
10
248.31899357389656
20
-145.80925636236515
10
248.31363198692748
20
-141.98095438208739
10
254.6031577991177
20
-141.98096290535779
10
254.6031577991177
20
-143.78093916945249
10
259.70317380386012
20
-143.78093916945247
10
259.70317380386012
20
-141.98095429261909
10
263.70317081989418
20
-141.98095429261906
0
LINE
5
318
100
AcDbEntity
8
0
100
AcDbLine
10
269.64437690416588
20
-69.923621740999209
30
0
11
273.14437690416588
21
-69.92362174099911
31
0
0
LINE
5
319
100
AcDbEntity
8
0
100
AcDbLine
10
273.14437690416634
20
-69.923261087274099
30
0
11
273.14437690416588
21
-69.92362174099911
31
0
0
LINE
5
320
100
AcDbEntity
8
0
100
AcDbLine
10
273.14437690416628
20
-68.123621754006223
30
0
11
273.14437690416634
21
-69.923261087274099
31
0
0
LINE
5
321
100
AcDbEntity
8
0
100
AcDbLine
10
273.14437690416628
20
-68.123621754006223
30
0
11
278.24437690416585
21
-68.123621754006066
31
0
0
LINE
5
322
100
AcDbEntity
8
0
100
AcDbLine
10
278.24437690416636
20
-69.923261087273943
30
0
11
278.24437690416585
21
-68.123621754006066
31
0
0
LINE
5
323
100
AcDbEntity
8
0
100
AcDbLine
10
278.24437690416636
20
-69.923261087273943
30
0
11
278.2443769041659
21
-69.923621740998968
31
0
0
LINE
5
324
100
AcDbEntity
8
0
100
AcDbLine
10
278.2443769041659
20
-69.923621740998968
30
0
11
283.48071536809903
21
-69.923621740998797
31
0
0
LINE
5
325
100
AcDbEntity
8
0
100
AcDbLine
10
283.48071536809903
20
-69.923621740998797
30
0
11
283.48071536811108
21
-69.923261087273801
31
0
0
LINE
5
326
100
AcDbEntity
8
0
100
AcDbLine
10
273.14437690416645
20
-75.023261050420615
30
0
11
278.24437690416647
21
-75.023261050420459
31
0
0
LINE
5
327
100
AcDbEntity
8
0
100
AcDbLine
10
273.14437690416639
20
-73.223261063427728
30
0
11
273.14437690416645
21
-75.023261050420615
31
0
0
LINE
5
328
100
AcDbEntity
8
0
100
AcDbLine
10
269.64437690416639
20
-73.223261063427827
30
0
11
273.14437690416639
21
-73.223261063427728
31
0
0
LINE
5
329
100
AcDbEntity
8
0
100
AcDbLine
10
269.64437690416588
20
-69.923621740999209
30
0
11
269.64437690416639
21
-73.223261063427827
31
0
0
LINE
5
330
100
AcDbEntity
8
0
100
AcDbLine
10
278.24437690416642
20
-73.223261063427586
30
0
11
283.4807153680996
21
-73.223261063427415
31
0
0
LINE
5
331
100
AcDbEntity
8
0
100
AcDbLine
10
278.24437690416647
20
-75.023261050420459
30
0
11
278.24437690416642
21
-73.223261063427586
31
0
0
LINE
5
332
100
AcDbEntity
8
0
100
AcDbLine
10
269.64437690416673
20
-99.923621524214042
30
0
11
273.14437690416673
21
-99.923621524213942
31
0
0
LINE
5
333
100
AcDbEntity
8
0
100
AcDbLine
10
273.14437690416719
20
-99.923260870488917
30
0
11
273.14437690416673
21
-99.923621524213942
31
0
0
LINE
5
334
100
AcDbEntity
8
0
100
AcDbLine
10
273.14437690416719
20
-98.123621537221055
30
0
11
273.14437690416719
21
-99.923260870488917
31
0
0
LINE
5
335
100
AcDbEntity
8
0
100
AcDbLine
10
273.14437690416719
20
-98.123621537221055
30
0
11
278.24437690416676
21
-98.123621537220899
31
0
0
LINE
5
336
100
AcDbEntity
8
0
100
AcDbLine
10
278.24437690416715
20
-99.923260870488775
30
0
11
278.24437690416676
21
-98.123621537220899
31
0
0
LINE
5
337
100
AcDbEntity
8
0
100
AcDbLine
10
278.24437690416715
20
-99.923260870488775
30
0
11
278.24437690416681
21
-99.923621524213786
31
0
0
LINE
5
338
100
AcDbEntity
8
0
100
AcDbLine
10
278.24437690416681
20
-99.923621524213786
30
0
11
283.48071536809988
21
-99.92362152421363
31
0
0
LINE
5
339
100
AcDbEntity
8
0
100
AcDbLine
10
283.48071536809988
20
-99.92362152421363
30
0
11
283.48071536811193
21
-99.923260870488605
31
0
0
LINE
5
340
100
AcDbEntity
8
0
100
AcDbLine
10
273.14437690416736
20
-105.02326083363543
30
0
11
278.24437690416738
21
-105.02326083363528
31
0
0
LINE
5
341
100
AcDbEntity
8
0
100
AcDbLine
10
273.1443769041673
20
-103.22326084664255
30
0
11
273.14437690416736
21
-105.02326083363543
31
0
0
LINE
5
342
100
AcDbEntity
8
0
100
AcDbLine
10
269.64437690416725
20
-103.22326084664263
30
0
11
273.1443769041673
21
-103.22326084664255
31
0
0
LINE
5
343
100
AcDbEntity
8
0
100
AcDbLine
10
269.64437690416673
20
-99.923621524214042
30
0
11
269.64437690416725
21
-103.22326084664263
31
0
0
LINE
5
344
100
AcDbEntity
8
0
100
AcDbLine
10
278.24437690416732
20
-103.22326084664239
30
0
11
283.48071536810045
21
-103.22326084664225
31
0
0
LINE
5
345
100
AcDbEntity
8
0
100
AcDbLine
10
278.24437690416738
20
-105.02326083363528
30
0
11
278.24437690416732
21
-103.22326084664239
31
0
0
LINE
5
346
100
AcDbEntity
8
0
100
AcDbLine
10
283.48071536811085
20
-78.304343032844812
30
0
11
283.48071536811125
21
-78.303982379119802
31
0
0
LINE
5
347
100
AcDbEntity
8
0
100
AcDbLine
10
283.4807153680996
20
-73.223261063427415
30
0
11
283.48071536811125
21
-78.303982379119802
31
0
0
LINE
5
348
100
AcDbEntity
8
0
100
AcDbLine
10
283.48071536811091
20
-65.405916664126437
30
0
11
283.48071536811108
21
-69.923261087273801
31
0
0
ARC
5
349
100
AcDbEntity
8
0
100
AcDbCircle
10
274.19372746256505
20
-82.418190999480956
30
0
40
4.1148130026728369
100
AcDbArc
50
180.00502177052431
51
270.0000000000008
0
LINE
5
350
100
AcDbEntity
8
0
100
AcDbLine
10
274.19372746256511
20
-86.533004002153803
30
0
11
283.48071536811153
21
-86.533004002153547
31
0
0
LINE
5
351
100
AcDbEntity
8
0
100
AcDbLine
10
283.48071536811153
20
-86.533004002153547
30
0
11
283.48071536811159
21
-88.259136507258219
31
0
0
LINE
5
352
100
AcDbEntity
8
0
100
AcDbLine
10
283.48071536811159
20
-88.259136507258219
30
0
11
289.48071536811153
21
-88.25913650725802
31
0
0
LINE
5
353
100
AcDbEntity
8
0
100
AcDbLine
10
289.48071536811153
20
-88.25913650725802
30
0
11
289.48071536811176
21
-94.259136463900987
31
0
0
LINE
5
354
100
AcDbEntity
8
0
100
AcDbLine
10
283.48071536811176
20
-94.259497117626196
30
0
11
283.48071536811193
21
-99.923260870488605
31
0
0
LINE
5
355
100
AcDbEntity
8
0
100
AcDbLine
10
283.48071536810045
20
-103.22326084664225
30
0
11
283.48071536811221
21
-108.53300384317775
31
0
0
LINE
5
356
100
AcDbEntity
8
0
100
AcDbLine
10
265.39756399697603
20
-103.53300387930913
30
0
11
265.39756399697512
21
-70.405916627996106
31
0
0
LINE
5
357
100
AcDbEntity
8
0
100
AcDbLine
10
270.39756399697495
20
-65.405916664126835
30
0
11
265.39756399697512
21
-70.405916627996106
31
0
0
LINE
5
358
100
AcDbEntity
8
0
100
AcDbLine
10
270.39756399697495
20
-65.405916664126835
30
0
11
283.48071536811091
21
-65.405916664126437
31
0
0
LINE
5
359
100
AcDbEntity
8
0
100
AcDbLine
10
283.48071536811221
20
-108.53300384317775
30
0
11
283.4807153681117
21
-108.53336449690276
31
0
0
LINE
5
360
100
AcDbEntity
8
0
100
AcDbLine
10
270.39756399697575
20
-108.53336449690315
30
0
11
265.39756399697563
21
-103.53336453303415
31
0
0
LINE
5
361
100
AcDbEntity
8
0
100
AcDbLine
10
265.39756399697563
20
-103.53336453303415
30
0
11
265.39756399697603
21
-103.53300387930913
31
0
0
LINE
5
362
100
AcDbEntity
8
0
100
AcDbLine
10
270.39756399697575
20
-108.53336449690315
30
0
11
283.4807153681117
21
-108.53336449690276
31
0
0
LINE
5
363
100
AcDbEntity
8
0
100
AcDbLine
10
289.4807153681113
20
-94.259497117626012
30
0
11
283.48071536811176
21
-94.259497117626196
31
0
0
ARC
5
364
100
AcDbEntity
8
0
100
AcDbCircle
10
274.19372746256454
20
-82.418551653205938
30
0
40
4.1148130026728085
100
AcDbArc
50
89.017972227086673
51
179.99497808889615
0
LINE
5
365
100
AcDbEntity
8
0
100
AcDbLine
10
283.48071536811085
20
-78.304343032844812
30
0
11
274.26425033250882
21
-78.30434303285378
31
0
0
LINE
5
366
100
AcDbEntity
8
0
100
AcDbLine
10
289.4807153681113
20
-94.259497117626012
30
0
11
289.48071536811176
21
-94.259136463900987
31
0
0
LINE
5
367
100
AcDbEntity
8
0
100
AcDbLine
10
308.26754602497272
20
-104.00108881893385
30
0
11
304.76754602497272
21
-104.00108881893404
31
0
0
LINE
5
368
100
AcDbEntity
8
0
100
AcDbLine
10
304.76754602497232
20
-104.00144947265903
30
0
11
304.76754602497272
21
-104.00108881893404
31
0
0
LINE
5
369
100
AcDbEntity
8
0
100
AcDbLine
10
304.76754602497243
20
-105.80108880592692
30
0
11
304.76754602497232
21
-104.00144947265903
31
0
0
LINE
5
370
100
AcDbEntity
8
0
100
AcDbLine
10
304.76754602497243
20
-105.80108880592692
30
0
11
299.66754602497281
21
-105.80108880592719
31
0
0
LINE
5
371
100
AcDbEntity
8
0
100
AcDbLine
10
299.6675460249723
20
-104.00144947265932
30
0
11
299.66754602497281
21
-105.80108880592719
31
0
0
LINE
5
372
100
AcDbEntity
8
0
100
AcDbLine
10
299.6675460249723
20
-104.00144947265932
30
0
11
299.66754602497269
21
-104.00108881893431
31
0
0
LINE
5
373
100
AcDbEntity
8
0
100
AcDbLine
10
299.66754602497269
20
-104.00108881893431
30
0
11
294.43120756103957
21
-104.0010888189346
31
0
0
LINE
5
374
100
AcDbEntity
8
0
100
AcDbLine
10
294.43120756103957
20
-104.0010888189346
30
0
11
294.43120756102758
21
-104.0014494726596
31
0
0
LINE
5
375
100
AcDbEntity
8
0
100
AcDbLine
10
304.76754602497203
20
-98.901449509512517
30
0
11
299.66754602497201
21
-98.901449509512801
31
0
0
LINE
5
376
100
AcDbEntity
8
0
100
AcDbLine
10
304.76754602497215
20
-100.70144949650542
30
0
11
304.76754602497203
21
-98.901449509512517
31
0
0
LINE
5
377
100
AcDbEntity
8
0
100
AcDbLine
10
308.26754602497215
20
-100.70144949650523
30
0
11
304.76754602497215
21
-100.70144949650542
31
0
0
LINE
5
378
100
AcDbEntity
8
0
100
AcDbLine
10
308.26754602497272
20
-104.00108881893385
30
0
11
308.26754602497215
21
-100.70144949650523
31
0
0
LINE
5
379
100
AcDbEntity
8
0
100
AcDbLine
10
299.66754602497213
20
-100.70144949650569
30
0
11
294.431207561039
21
-100.70144949650599
31
0
0
LINE
5
380
100
AcDbEntity
8
0
100
AcDbLine
10
299.66754602497201
20
-98.901449509512801
30
0
11
299.66754602497213
21
-100.70144949650569
31
0
0
LINE
5
381
100
AcDbEntity
8
0
100
AcDbLine
10
308.26754602497113
20
-74.001089035719019
30
0
11
304.76754602497113
21
-74.001089035719218
31
0
0
LINE
5
382
100
AcDbEntity
8
0
100
AcDbLine
10
304.76754602497067
20
-74.001449689444229
30
0
11
304.76754602497113
21
-74.001089035719218
31
0
0
LINE
5
383
100
AcDbEntity
8
0
100
AcDbLine
10
304.76754602497073
20
-75.801089022712091
30
0
11
304.76754602497067
21
-74.001449689444229
31
0
0
LINE
5
384
100
AcDbEntity
8
0
100
AcDbLine
10
304.76754602497073
20
-75.801089022712091
30
0
11
299.66754602497122
21
-75.801089022712375
31
0
0
LINE
5
385
100
AcDbEntity
8
0
100
AcDbLine
10
299.6675460249707
20
-74.001449689444499
30
0
11
299.66754602497122
21
-75.801089022712375
31
0
0
LINE
5
386
100
AcDbEntity
8
0
100
AcDbLine
10
299.6675460249707
20
-74.001449689444499
30
0
11
299.6675460249711
21
-74.001089035719502
31
0
0
LINE
5
387
100
AcDbEntity
8
0
100
AcDbLine
10
299.6675460249711
20
-74.001089035719502
30
0
11
294.43120756103792
21
-74.001089035719787
31
0
0
LINE
5
388
100
AcDbEntity
8
0
100
AcDbLine
10
294.43120756103792
20
-74.001089035719787
30
0
11
294.43120756102593
21
-74.001449689444797
31
0
0
LINE
5
389
100
AcDbEntity
8
0
100
AcDbLine
10
304.76754602497039
20
-68.901449726297713
30
0
11
299.66754602497036
21
-68.901449726297983
31
0
0
LINE
5
390
100
AcDbEntity
8
0
100
AcDbLine
10
304.76754602497044
20
-70.7014497132906
30
0
11
304.76754602497039
21
-68.901449726297713
31
0
0
LINE
5
391
100
AcDbEntity
8
0
100
AcDbLine
10
308.2675460249705
20
-70.701449713290401
30
0
11
304.76754602497044
21
-70.7014497132906
31
0
0
LINE
5
392
100
AcDbEntity
8
0
100
AcDbLine
10
308.26754602497113
20
-74.001089035719019
30
0
11
308.2675460249705
21
-70.701449713290401
31
0
0
LINE
5
393
100
AcDbEntity
8
0
100
AcDbLine
10
299.66754602497048
20
-70.70144971329087
30
0
11
294.43120756103735
21
-70.701449713291154
31
0
0
LINE
5
394
100
AcDbEntity
8
0
100
AcDbLine
10
299.66754602497036
20
-68.901449726297983
30
0
11
299.66754602497048
21
-70.70144971329087
31
0
0
LINE
5
395
100
AcDbEntity
8
0
100
AcDbLine
10
294.43120756102752
20
-95.620367527088604
30
0
11
294.43120756102712
21
-95.620728180813614
31
0
0
LINE
5
396
100
AcDbEntity
8
0
100
AcDbLine
10
294.431207561039
20
-100.70144949650599
30
0
11
294.43120756102712
21
-95.620728180813614
31
0
0
LINE
5
397
100
AcDbEntity
8
0
100
AcDbLine
10
294.43120756102786
20
-108.51879389580697
30
0
11
294.43120756102758
21
-104.0014494726596
31
0
0
ARC
5
398
100
AcDbEntity
8
0
100
AcDbCircle
10
303.71819546657326
20
-91.506519560452205
30
0
40
4.1148130026728591
100
AcDbArc
50
0.0050217740805717859
51
90.000000000002373
0
LINE
5
399
100
AcDbEntity
8
0
100
AcDbLine
10
303.71819546657309
20
-87.391706557779344
30
0
11
294.43120756102667
21
-87.391706557779855
31
0
0
LINE
5
400
100
AcDbEntity
8
0
100
AcDbLine
10
294.43120756102667
20
-87.391706557779855
30
0
11
294.43120756102655
21
-85.665574052675197
31
0
0
LINE
5
401
100
AcDbEntity
8
0
100
AcDbLine
10
294.43120756102655
20
-85.665574052675197
30
0
11
288.43120756102655
21
-85.665574052675538
31
0
0
LINE
5
402
100
AcDbEntity
8
0
100
AcDbLine
10
288.43120756102655
20
-85.665574052675538
30
0
11
288.43120756102627
21
-79.665574096032557
31
0
0
LINE
5
403
100
AcDbEntity
8
0
100
AcDbLine
10
294.43120756102621
20
-79.66521344230722
30
0
11
294.43120756102593
21
-74.001449689444797
31
0
0
LINE
5
404
100
AcDbEntity
8
0
100
AcDbLine
10
294.43120756103735
20
-70.701449713291154
30
0
11
294.43120756102542
21
-65.391706716755664
31
0
0
LINE
5
405
100
AcDbEntity
8
0
100
AcDbLine
10
312.51435893216171
20
-70.391706680623798
30
0
11
312.51435893216353
21
-103.51879393193684
31
0
0
LINE
5
406
100
AcDbEntity
8
0
100
AcDbLine
10
307.51435893216382
20
-108.51879389580623
30
0
11
312.51435893216353
21
-103.51879393193684
31
0
0
LINE
5
407
100
AcDbEntity
8
0
100
AcDbLine
10
307.51435893216382
20
-108.51879389580623
30
0
11
294.43120756102786
21
-108.51879389580697
31
0
0
LINE
5
408
100
AcDbEntity
8
0
100
AcDbLine
10
294.43120756102542
20
-65.391706716755664
30
0
11
294.43120756102587
21
-65.391346063030639
31
0
0
LINE
5
409
100
AcDbEntity
8
0
100
AcDbLine
10
307.51435893216188
20
-65.391346063029943
30
0
11
312.51435893216217
21
-70.391346026898816
31
0
0
LINE
5
410
100
AcDbEntity
8
0
100
AcDbLine
10
312.51435893216217
20
-70.391346026898816
30
0
11
312.51435893216171
21
-70.391706680623798
31
0
0
LINE
5
411
100
AcDbEntity
8
0
100
AcDbLine
10
307.51435893216188
20
-65.391346063029943
30
0
11
294.43120756102587
21
-65.391346063030639
31
0
0
LINE
5
412
100
AcDbEntity
8
0
100
AcDbLine
10
288.43120756102667
20
-79.665213442307547
30
0
11
294.43120756102621
21
-79.66521344230722
31
0
0
ARC
5
413
100
AcDbEntity
8
0
100
AcDbCircle
10
303.71819546657372
20
-91.506158906727222
30
0
40
4.1148130026728245
100
AcDbArc
50
269.01797222708905
51
359.99497809252483
0
LINE
5
414
100
AcDbEntity
8
0
100
AcDbLine
10
294.43120756102752
20
-95.620367527088604
30
0
11
303.6476725966296
21
-95.620367527079395
31
0
0
LINE
5
415
100
AcDbEntity
8
0
100
AcDbLine
10
288.43120756102667
20
-79.665213442307547
30
0
11
288.43120756102627
21
-79.665574096032557
31
0
0
CIRCLE
5
416
100
AcDbEntity
8
0
100
AcDbCircle
10
255.63148937778695
20
-174.43135231620417
30
0
40
3.9653466821974348
0
CIRCLE
5
417
100
AcDbEntity
8
0
100
AcDbCircle
10
271.13163899991247
20
-170.92481740511562
30
0
40
1.4999999633239725
0
LWPOLYLINE
5
418
100
AcDbEntity
8
0
100
AcDbPolyline
90
4
70
1
43
0.0
10
247.5313623327452
20
-180.22444631442278
10
276.40665561376824
20
-180.22444631442329
10
276.40665561376846
20
-168.67973720827905
10
247.5313623327454
20
-168.67973720827851
0
CIRCLE
5
419
100
AcDbEntity
8
0
100
AcDbCircle
10
290.63148937778698
20
-174.43135231620494
30
0
40
3.9653466821974348
0
CIRCLE
5
420
100
AcDbEntity
8
0
100
AcDbCircle
10
306.13163899991247
20
-170.92481740511641
30
0
40
1.4999999633239725
0
LWPOLYLINE
5
421
100
AcDbEntity
8
0
100
AcDbPolyline
90
4
70
1
43
0.0
10
282.53136233274518
20
-180.22444631442355
10
311.40665561376818
20
-180.22444631442409
10
311.40665561376841
20
-168.67973720827985
10
282.5313623327454
20
-168.67973720827931
0
CIRCLE
5
422
100
AcDbEntity
8
0
100
AcDbCircle
10
255.63148937778658
20
-189.43135231620408
30
0
40
3.9653466821974348
0
CIRCLE
5
423
100
AcDbEntity
8
0
100
AcDbCircle
10
271.13163899991207
20
-185.92481740511559
30
0
40
1.4999999633239725
0
LWPOLYLINE
5
424
100
AcDbEntity
8
0
100
AcDbPolyline
90
4
70
1
43
0.0
10
247.53136233274483
20
-195.22444631442269
10
276.40665561376784
20
-195.22444631442323
10
276.40665561376801
20
-183.67973720827902
10
247.531362332745
20
-183.67973720827848
0
CIRCLE
5
425
100
AcDbEntity
8
0
100
AcDbCircle
10
428.89834392466611
20
-15.789447997472159
30
0
40
1.5865384688789774
0
CIRCLE
5
426
100
AcDbEntity
8
0
100
AcDbCircle
10
433.13385036908409
20
-35.133244152906741
30
0
40
3.9653466821974348
0
CIRCLE
5
427
100
AcDbEntity
8
0
100
AcDbCircle
10
433.13386730241746
20
-54.140134708343588
30
0
40
3.9653466821974348
0
CIRCLE
5
428
100
AcDbEntity
8
0
100
AcDbCircle
10
417.63367816918105
20
-50.633580041698835
30
0
40
1.4999999633239547
0
CIRCLE
5
429
100
AcDbEntity
8
0
100
AcDbCircle
10
448.63402539120949
20
-50.633580041698764
30
0
40
1.4999999633239547
0
LWPOLYLINE
5
430
100
AcDbEntity
8
0
100
AcDbPolyline
90
26
70
1
43
0.0
10
403.30444603537592
20
-37.281777925245841
10
407.30443874504061
20
-37.281777925245834
10
407.30443874504061
20
-32.881770872321994
10
403.30444603537592
20
-32.881770872322008
10
403.30444603537592
20
-31.081794608227327
10
398.20443864337221
20
-31.081777382749873
10
398.20443864337221
20
-32.881770872322008
10
391.84887912057121
20
-32.881770872322029
10
391.90868167184033
20
-32.865010482782168
10
391.90332024199006
20
-29.018957558544027
10
385.9337276856038
20
-29.013617660540625
10
385.9337276856038
20
-20.173967731125373
10
391.93374474150164
20
-20.161014172097662
10
391.95886400203597
20
-10.108328896552869
10
453.909008006107
20
-10.108328896552727
10
453.90900800610711
20
-60.058251585042598
10
391.95857526721773
20
-60.05825158504274
10
391.94615569799043
20
-50.01709015389892
10
385.93363725184736
20
-50.019915132197511
10
385.93363725184736
20
-41.120475570621196
10
391.92024857993488
20
-41.11005415677576
10
391.91488715008467
20
-37.272631196730295
10
391.91502064753479
20
-37.257507227546363
10
398.20443433700285
20
-37.281777925245848
10
398.20443433700291
20
-39.081771414817936
10
403.30444603537592
20
-39.081771414817936
0
CIRCLE
5
431
100
AcDbEntity
8
0
100
AcDbCircle
10
434.01790620498718
20
-136.22211065542308
30
0
40
1.5865384688789419
0
CIRCLE
5
432
100
AcDbEntity
8
0
100
AcDbCircle
10
458.31047946927976
20
-96.245067589006283
30
0
40
1.5865384688789419
0
CIRCLE
5
433
100
AcDbEntity
8
0
100
AcDbCircle
10
458.31047946927976
20
-111.20432167113499
30
0
40
1.5865384688789419
0
CIRCLE
5
434
100
AcDbEntity
8
0
100
AcDbCircle
10
458.31047946927976
20
-71.235434826940349
30
0
40
1.5865384688789419
0
CIRCLE
5
435
100
AcDbEntity
8
0
100
AcDbCircle
10
434.01790620498718
20
-71.243591049162575
30
0
40
1.5865384688789419
0
CIRCLE
5
436
100
AcDbEntity
8
0
100
AcDbCircle
10
434.01790620498718
20
-111.21247789335719
30
0
40
1.5865384688789419
0
CIRCLE
5
437
100
AcDbEntity
8
0
100
AcDbCircle
10
434.01790620498718
20
-96.25322381122848
30
0
40
1.5865384688789419
0
CIRCLE
5
438
100
AcDbEntity
8
0
100
AcDbCircle
10
458.31047946927976
20
-136.21395443320094
30
0
40
1.5865384688789419
0
LWPOLYLINE
5
439
100
AcDbEntity
8
0
100
AcDbPolyline
90
4
70
1
43
0.0
10
426.21573322814686
20
-143.67723643315429
10
466.11265058345327
20
-143.67723643315429
10
466.11265058345327
20
-63.780314411431398
10
426.21573322814697
20
-63.780314411431398
0
CIRCLE
5
440
100
AcDbEntity
8
0
100
AcDbCircle
10
458.26681950177266
20
-194.95242311673709
30
0
40
1.5865384688789419
0
CIRCLE
5
441
100
AcDbEntity
8
0
100
AcDbCircle
10
433.9742462374802
20
-219.97021210102531
30
0
40
1.5865384688789419
0
CIRCLE
5
442
100
AcDbEntity
8
0
100
AcDbCircle
10
433.97424623748014
20
-194.96057933895935
30
0
40
1.5865384688789419
0
CIRCLE
5
443
100
AcDbEntity
8
0
100
AcDbCircle
10
433.97424623748014
20
-154.99169249476469
30
0
40
1.5865384688789419
0
CIRCLE
5
444
100
AcDbEntity
8
0
100
AcDbCircle
10
458.26681950177266
20
-154.98353627254247
30
0
40
1.5865384688789419
0
CIRCLE
5
445
100
AcDbEntity
8
0
100
AcDbCircle
10
433.97424623748014
20
-180.00132525683068
30
0
40
1.5865384688789419
0
CIRCLE
5
446
100
AcDbEntity
8
0
100
AcDbCircle
10
458.26681950177266
20
-179.9931690346084
30
0
40
1.5865384688789419
0
CIRCLE
5
447
100
AcDbEntity
8
0
100
AcDbCircle
10
458.26681950177272
20
-219.96205587880308
30
0
40
1.5865384688789419
0
LWPOLYLINE
5
448
100
AcDbEntity
8
0
100
AcDbPolyline
90
4
70
1
43
0.0
10
466.06899061594612
20
-147.52841585703354
10
426.17207326063982
20
-147.52841585703356
10
426.17207326063999
20
-227.42533787875652
10
466.06899061594623
20
-227.42533787875644
0
CIRCLE
5
449
100
AcDbEntity
8
0
100
AcDbCircle
10
436.18917974820414
20
-246.20973558077011
30
0
40
1.586538468878973
0
CIRCLE
5
450
100
AcDbEntity
8
0
100
AcDbCircle
10
436.19163521700466
20
-263.39400708510715
30
0
40
1.586538468878973
0
CIRCLE
5
451
100
AcDbEntity
8
0
100
AcDbCircle
10
465.32828566126705
20
-263.39400708510618
30
0
40
1.586538468878973
0
CIRCLE
5
452
100
AcDbEntity
8
0
100
AcDbCircle
10
465.32583019246653
20
-246.20973558076915
30
0
40
1.586538468878973
0
LWPOLYLINE
5
453
100
AcDbEntity
8
0
100
AcDbPolyline
90
4
70
1
43
0.0
10
473.2587188167733
20
-272.30186328505027
10
473.25871881677216
20
-237.30186272971343
10
428.25871850594228
20
-237.30186272971494
10
428.25871850594342
20
-272.30186328505175
0
CIRCLE
5
454
100
AcDbEntity
8
0
100
AcDbCircle
10
517.87109299625445
20
-246.37044546875532
30
0
40
1.586538468878973
0
CIRCLE
5
455
100
AcDbEntity
8
0
100
AcDbCircle
10
517.87354846505559
20
-263.55471697309235
30
0
40
1.586538468878973
0
CIRCLE
5
456
100
AcDbEntity
8
0
100
AcDbCircle
10
488.73444255199217
20
-246.37044546875717
30
0
40
1.586538468878973
0
CIRCLE
5
457
100
AcDbEntity
8
0
100
AcDbCircle
10
488.73689802079321
20
-263.55471697309417
30
0
40
1.586538468878973
0
LWPOLYLINE
5
458
100
AcDbEntity
8
0
100
AcDbPolyline
90
4
70
1
43
0.0
10
525.80400970731785
20
-272.4625898241473
10
525.80400970731557
20
-237.46258926881046
10
480.8040093964857
20
-237.4625892688133
10
480.80400939648797
20
-272.46258982415009
0
CIRCLE
5
459
100
AcDbEntity
8
0
100
AcDbCircle
10
547.60535228461254
20
-263.15809935004279
30
0
40
1.5865384688789419
0
CIRCLE
5
460
100
AcDbEntity
8
0
100
AcDbCircle
10
576.73954726007491
20
-245.9738278457057
30
0
40
1.5865384688789419
0
CIRCLE
5
461
100
AcDbEntity
8
0
100
AcDbCircle
10
576.7420027288747
20
-263.15809935004273
30
0
40
1.5865384688789419
0
CIRCLE
5
462
100
AcDbEntity
8
0
100
AcDbCircle
10
547.60289681581253
20
-245.97382784570578
30
0
40
1.5865384688789419
0
LWPOLYLINE
5
463
100
AcDbEntity
8
0
100
AcDbPolyline
90
4
70
1
43
0.0
10
539.67243557355096
20
-272.06595554998722
10
584.67243588438077
20
-272.06595554998705
10
584.67243588438055
20
-237.06595499465024
10
539.67243557355096
20
-237.06595499465035
0
LINE
5
464
100
AcDbEntity
8
0
100
AcDbLine
10
561.73149705825449
20
-151.65962717896221
30
0
11
561.73113640453209
21
-151.65962722231924
31
0
0
LINE
5
465
100
AcDbEntity
8
0
100
AcDbLine
10
561.73113640453209
20
-151.65962722231924
30
0
11
561.7314970582571
21
-154.65962720064076
31
0
0
LINE
5
466
100
AcDbEntity
8
0
100
AcDbLine
10
561.7314970582571
20
-154.65962720064076
30
0
11
567.73149701490001
21
-154.65890589319091
31
0
0
LINE
5
467
100
AcDbEntity
8
0
100
AcDbLine
10
567.73149701490001
20
-154.65890589319091
30
0
11
567.73113636117512
21
-151.65890591486942
31
0
0
LINE
5
468
100
AcDbEntity
8
0
100
AcDbLine
10
561.73144897109285
20
-89.259627181852807
30
0
11
561.73108831737045
21
-89.25962722520984
31
0
0
LINE
5
469
100
AcDbEntity
8
0
100
AcDbLine
10
561.73108831737045
20
-89.25962722520984
30
0
11
561.73144897109546
21
-92.259627203531323
31
0
0
LINE
5
470
100
AcDbEntity
8
0
100
AcDbLine
10
561.73144897109546
20
-92.259627203531323
30
0
11
567.73144892773837
21
-92.258905896081444
31
0
0
LINE
5
471
100
AcDbEntity
8
0
100
AcDbLine
10
567.73144892773837
20
-92.258905896081444
30
0
11
567.73108827401336
21
-89.258905917759989
31
0
0
LINE
5
472
100
AcDbEntity
8
0
100
AcDbLine
10
567.73108827401609
20
-89.258905939438492
30
0
11
567.73144892773848
21
-89.258905896081458
31
0
0
LINE
5
473
100
AcDbEntity
8
0
100
AcDbLine
10
567.73144892773848
20
-89.258905896081458
30
0
11
567.73108827401347
21
-86.258905917759989
31
0
0
LINE
5
474
100
AcDbEntity
8
0
100
AcDbLine
10
567.73108827401347
20
-86.258905917759989
30
0
11
561.73108831737056
21
-86.259627225209812
31
0
0
LINE
5
475
100
AcDbEntity
8
0
100
AcDbLine
10
561.73108831737056
20
-86.259627225209812
30
0
11
561.73144897109546
21
-89.259627203531323
31
0
0
CIRCLE
5
476
100
AcDbEntity
8
0
100
AcDbCircle
10
537.92972875219357
20
-43.559516921949999
30
0
40
1.5121950677683316
0
CIRCLE
5
477
100
AcDbEntity
8
0
100
AcDbCircle
10
566.4318815520154
20
-35.190227082002288
30
0
40
3.9924021977527957
0
LWPOLYLINE
5
478
100
AcDbEntity
8
0
100
AcDbPolyline
90
4
70
1
43
0.0
10
563.78222331383768
20
-131.58624751402135
10
572.78222521265297
20
-131.58624751402135
10
572.78222521265297
20
-125.08624805659672
10
563.78222331383768
20
-125.08623083111929
0
CIRCLE
5
479
100
AcDbEntity
8
0
100
AcDbCircle
10
544.9819315077051
20
-89.260289121664357
30
0
40
1.5865384688789419
0
CIRCLE
5
480
100
AcDbEntity
8
0
100
AcDbCircle
10
537.92972875219357
20
-197.29093694321136
30
0
40
1.5121950677683316
0
CIRCLE
5
481
100
AcDbEntity
8
0
100
AcDbCircle
10
544.98194844103841
20
-151.59369534349702
30
0
40
1.5865384688789419
0
CIRCLE
5
482
100
AcDbEntity
8
0
100
AcDbCircle
10
537.92972875219357
20
-27.457847322050601
30
0
40
1.5121950677683316
0
CIRCLE
5
483
100
AcDbEntity
8
0
100
AcDbCircle
10
541.31359577439457
20
-220.31081583195643
30
0
40
1.5865384688789419
0
CIRCLE
5
484
100
AcDbEntity
8
0
100
AcDbCircle
10
537.92977955219362
20
-205.34175763205002
30
0
40
3.975211477752933
0
CIRCLE
5
485
100
AcDbEntity
8
0
100
AcDbCircle
10
582.53951732969256
20
-20.084867966541143
30
0
40
1.5865384688789419
0
CIRCLE
5
486
100
AcDbEntity
8
0
100
AcDbCircle
10
557.80254764095821
20
-128.28440885475379
30
0
40
1.5865384688789419
0
CIRCLE
5
487
100
AcDbEntity
8
0
100
AcDbCircle
10
582.53948910747044
20
-220.30265114306758
30
0
40
1.5865384688789419
0
CIRCLE
5
488
100
AcDbEntity
8
0
100
AcDbCircle
10
541.31359577439457
20
-20.093024188763309
30
0
40
1.5865384688789419
0
CIRCLE
5
489
100
AcDbEntity
8
0
100
AcDbCircle
10
537.92972875219357
20
-213.39260654311084
30
0
40
1.5121950677683316
0
CIRCLE
5
490
100
AcDbEntity
8
0
100
AcDbCircle
10
537.92977955219362
20
-35.508680710889195
30
0
40
3.975211477752933
0
CIRCLE
5
491
100
AcDbEntity
8
0
100
AcDbCircle
10
557.80254764095821
20
-112.51774267707455
30
0
40
1.5865384688789419
0
CIRCLE
5
492
100
AcDbEntity
8
0
100
AcDbCircle
10
574.98186021862875
20
-151.59369534349702
30
0
40
1.5865384688789419
0
CIRCLE
5
493
100
AcDbEntity
8
0
100
AcDbCircle
10
566.63508155201419
20
-205.46445374316036
30
0
40
3.975211477752933
0
LWPOLYLINE
5
494
100
AcDbEntity
8
0
100
AcDbPolyline
90
4
70
1
43
0.0
10
551.7884075993943
20
-115.76773264927644
10
551.7884075993943
20
-109.2677331918518
10
542.78839708784039
20
-109.2677331918518
10
542.78839708784039
20
-115.76773264927644
0
LWPOLYLINE
5
495
100
AcDbEntity
8
0
100
AcDbPolyline
90
4
70
1
43
0.0
10
542.78839708784039
20
-131.53439882695574
10
551.7884075993943
20
-131.53439882695574
10
551.7884075993943
20
-125.03439936953107
10
542.78839708784039
20
-125.03439936953107
0
LWPOLYLINE
5
496
100
AcDbEntity
8
0
100
AcDbPolyline
90
4
70
1
43
0.0
10
563.78222331383768
20
-109.31956465344001
10
563.78222331383768
20
-115.8195813363421
10
572.78222521265297
20
-115.8195813363421
10
572.78222521265297
20
-109.31958187891745
0
CIRCLE
5
497
100
AcDbEntity
8
0
100
AcDbCircle
10
574.98187150751767
20
-89.260289121664357
30
0
40
1.5865384688789419
0
LWPOLYLINE
5
498
100
AcDbEntity
8
0
100
AcDbPolyline
90
12
70
1
43
0.0
10
533.36341308260398
20
-225.48778025475397
10
541.6921725769098
20
-232.32560577554449
10
581.66523654150365
20
-232.34648305419029
10
586.60164496161178
20
-227.36356584502002
10
586.60157605970187
20
-207.36359799032726
10
584.60707247898517
20
-205.38924821820416
10
584.59267197985332
20
-35.450938893094417
10
586.60956868122958
20
-33.486812441826324
10
586.60956868122958
20
-13.486825208471489
10
581.68590711442005
20
-8.5074655986867853
10
541.77699082777724
20
-8.512263365160317
10
533.35438693243054
20
-15.460800326460493
0
LINE
5
499
100
AcDbEntity
8
0
100
AcDbLine
10
567.73113636117773
20
-151.65890593654797
30
0
11
567.73149701490001
21
-151.65890589319093
31
0
0
LINE
5
500
100
AcDbEntity
8
0
100
AcDbLine
10
567.73149701490001
20
-151.65890589319093
30
0
11
567.73113636117512
21
-148.65890591486945
31
0
0
LINE
5
501
100
AcDbEntity
8
0
100
AcDbLine
10
567.73113636117512
20
-148.65890591486945
30
0
11
561.73113640453221
21
-148.65962722231927
31
0
0
LINE
5
502
100
AcDbEntity
8
0
100
AcDbLine
10
561.73113640453221
20
-148.65962722231927
30
0
11
561.7314970582571
21
-151.65962720064078
31
0
0
CIRCLE
5
503
100
AcDbEntity
8
0
100
AcDbCircle
10
481.00262221921611
20
-220.3675424986227
30
0
40
1.5865384688789419
0
CIRCLE
5
504
100
AcDbEntity
8
0
100
AcDbCircle
10
506.32410799683561
20
-205.52117758760443
30
0
40
3.975211477752933
0
CIRCLE
5
505
100
AcDbEntity
8
0
100
AcDbCircle
10
482.90478870809295
20
-134.22244061027223
30
0
40
1.5865384688789419
0
CIRCLE
5
506
100
AcDbEntity
8
0
100
AcDbCircle
10
477.61883421923727
20
-205.39848147649411
30
0
40
3.975211477752933
0
CIRCLE
5
507
100
AcDbEntity
8
0
100
AcDbCircle
10
522.22854377451404
20
-20.141584755429676
30
0
40
1.5865384688789419
0
CIRCLE
5
508
100
AcDbEntity
8
0
100
AcDbCircle
10
482.90724404142645
20
-151.40671183238709
30
0
40
1.5865384688789419
0
CIRCLE
5
509
100
AcDbEntity
8
0
100
AcDbCircle
10
477.61879033368166
20
-27.514568344272451
30
0
40
1.5121950677683316
0
CIRCLE
5
510
100
AcDbEntity
8
0
100
AcDbCircle
10
477.61879033368166
20
-43.61623794417185
30
0
40
1.5121950677683316
0
CIRCLE
5
511
100
AcDbEntity
8
0
100
AcDbCircle
10
481.00265044143833
20
-20.149740977651845
30
0
40
1.5865384688789419
0
CIRCLE
5
512
100
AcDbEntity
8
0
100
AcDbCircle
10
506.12090799683676
20
-35.246974068668607
30
0
40
3.9924021977527957
0
CIRCLE
5
513
100
AcDbEntity
8
0
100
AcDbCircle
10
512.04143915235545
20
-134.22244061027223
30
0
40
1.5865384688789419
0
CIRCLE
5
514
100
AcDbEntity
8
0
100
AcDbCircle
10
477.61878934590391
20
-197.34765796543329
30
0
40
1.5121950677683316
0
CIRCLE
5
515
100
AcDbEntity
8
0
100
AcDbCircle
10
522.2285155522917
20
-220.35937780973393
30
0
40
1.5865384688789419
0
CIRCLE
5
516
100
AcDbEntity
8
0
100
AcDbCircle
10
477.61878934590391
20
-213.44932756533268
30
0
40
1.5121950677683316
0
CIRCLE
5
517
100
AcDbEntity
8
0
100
AcDbCircle
10
477.61883421923727
20
-35.5653958064444
30
0
40
3.975211477752933
0
CIRCLE
5
518
100
AcDbEntity
8
0
100
AcDbCircle
10
512.04389448568895
20
-151.40671183238709
30
0
40
1.5865384688789419
0
LWPOLYLINE
5
519
100
AcDbEntity
8
0
100
AcDbPolyline
90
12
70
1
43
0.0
10
526.29848686737068
20
-13.543548705649933
10
521.37482530056093
20
-8.5641890958652649
10
481.46594346487291
20
-8.5689868623387966
10
473.04333956952627
20
-15.517523823638903
10
473.05236571969971
20
-225.54452097740983
10
481.38112521400535
20
-232.38234649820043
10
521.3541547276443
20
-232.40322377684609
10
526.29059759870734
20
-227.42030656767585
10
526.29056314775255
20
-207.42032148750567
10
524.29602511608073
20
-205.44597171538265
10
524.28162461694887
20
-35.507662390272863
10
526.29848686737068
20
-33.543535939004769
0
CIRCLE
5
520
100
AcDbEntity
8
0
100
AcDbCircle
10
35.742600301271153
20
-206.15962630859343
30
0
40
1.586538468878973
0
CIRCLE
5
521
100
AcDbEntity
8
0
100
AcDbCircle
10
18.558328796934113
20
-206.16208177739338
30
0
40
1.586538468878973
0
CIRCLE
5
522
100
AcDbEntity
8
0
100
AcDbCircle
10
18.558328796934113
20
-235.29873222165577
30
0
40
1.586538468878973
0
CIRCLE
5
523
100
AcDbEntity
8
0
100
AcDbCircle
10
35.742600301271153
20
-235.29627675285582
30
0
40
1.586538468878973
0
LWPOLYLINE
5
524
100
AcDbEntity
8
0
100
AcDbPolyline
90
4
70
1
43
0.0
10
9.6504725969897684
20
-243.22916537716173
10
44.65047315232659
20
-243.22916537716173
10
44.650473152326605
20
-198.22916506633189
10
9.6504725969897702
20
-198.22916506633189
0
ENDSEC
0
SECTION
2
OBJECTS
0
DICTIONARY
5
C
100
AcDbDictionary
3
ACAD_GROUP
350
D
3
ACAD_MLINESTYLE
350
17
0
DICTIONARY
5
D
100
AcDbDictionary
0
DICTIONARY
5
1A
330
C
100
AcDbDictionary
0
DICTIONARY
5
17
100
AcDbDictionary
0
ENDSEC
0
EOF
