  0
SECTION
  2
HEADER
  9
$ACADVER
  1
AC1015
  9
$ACADMAINTVER
 70
     6
  9
$DWGCODEPAGE
  3
ANSI_1252
  9
$INSBASE
 10
0.0
 20
0.0
 30
0.0
  9
$EXTMIN
 10
-326.6285232377
 20
-57.6693752886
 30
0.0
  9
$EXTMAX
 10
0.0
 20
77.9382742299
 30
0.0
  9
$LIMMIN
 10
0.0
 20
0.0
  9
$LIMMAX
 10
420.0
 20
297.0
  9
$ORTHOMODE
 70
     0
  9
$REGENMODE
 70
     1
  9
$FILLMODE
 70
     1
  9
$QTEXTMODE
 70
     0
  9
$MIRRTEXT
 70
     1
  9
$LTSCALE
 40
1.0
  9
$ATTMODE
 70
     1
  9
$TEXTSIZE
 40
3.5
  9
$TRACEWID
 40
1.0
  9
$TEXTSTYLE
  7
Standard
  9
$CLAYER
  8
0
  9
$CELTYPE
  6
ByLayer
  9
$CECOLOR
 62
   256
  9
$CELTSCALE
 40
1.0
  9
$DISPSILH
 70
     0
  9
$DIMSCALE
 40
1.0
  9
$DIMASZ
 40
3.302
  9
$DIMEXO
 40
1.0
  9
$DIMDLI
 40
3.75
  9
$DIMRND
 40
0.0
  9
$DIMDLE
 40
0.0
  9
$DIMEXE
 40
1.0
  9
$DIMTP
 40
0.0
  9
$DIMTM
 40
0.0
  9
$DIMTXT
 40
3.5
  9
$DIMCEN
 40
2.5
  9
$DIMTSZ
 40
0.0
  9
$DIMTOL
 70
     0
  9
$DIMLIM
 70
     0
  9
$DIMTIH
 70
     1
  9
$DIMTOH
 70
     1
  9
$DIMSE1
 70
     0
  9
$DIMSE2
 70
     0
  9
$DIMTAD
 70
     1
  9
$DIMZIN
 70
     0
  9
$DIMBLK
  1

  9
$DIMASO
 70
     1
  9
$DIMSHO
 70
     1
  9
$DIMPOST
  1

  9
$DIMAPOST
  1

  9
$DIMALT
 70
     0
  9
$DIMALTD
 70
     3
  9
$DIMALTF
 40
0.0393700787
  9
$DIMLFAC
 40
1.0
  9
$DIMTOFL
 70
     1
  9
$DIMTVP
 40
0.0
  9
$DIMTIX
 70
     0
  9
$DIMSOXD
 70
     0
  9
$DIMSAH
 70
     0
  9
$DIMBLK1
  1

  9
$DIMBLK2
  1

  9
$DIMSTYLE
  2
ISO-25
  9
$DIMCLRD
 70
     0
  9
$DIMCLRE
 70
     0
  9
$DIMCLRT
 70
     0
  9
$DIMTFAC
 40
1.0
  9
$DIMGAP
 40
1.524
  9
$DIMJUST
 70
     0
  9
$DIMSD1
 70
     0
  9
$DIMSD2
 70
     0
  9
$DIMTOLJ
 70
     0
  9
$DIMTZIN
 70
     0
  9
$DIMALTZ
 70
     0
  9
$DIMALTTZ
 70
     0
  9
$DIMUPT
 70
     0
  9
$DIMDEC
 70
     2
  9
$DIMTDEC
 70
     2
  9
$DIMALTU
 70
     2
  9
$DIMALTTD
 70
     3
  9
$DIMTXSTY
  7
Standard
  9
$DIMAUNIT
 70
     0
  9
$DIMADEC
 70
     2
  9
$DIMALTRND
 40
0.0
  9
$DIMAZIN
 70
     0
  9
$DIMDSEP
 70
    44
  9
$DIMATFIT
 70
     3
  9
$DIMFRAC
 70
     0
  9
$DIMLDRBLK
  1

  9
$DIMLUNIT
 70
     2
  9
$DIMLWD
 70
    -2
  9
$DIMLWE
 70
    -2
  9
$DIMTMOVE
 70
     0
  9
$LUNITS
 70
     2
  9
$LUPREC
 70
     2
  9
$SKETCHINC
 40
1.0
  9
$FILLETRAD
 40
10.0
  9
$AUNITS
 70
     0
  9
$AUPREC
 70
     2
  9
$MENU
  1
.
  9
$ELEVATION
 40
0.0
  9
$PELEVATION
 40
0.0
  9
$THICKNESS
 40
0.0
  9
$LIMCHECK
 70
     0
  9
$CHAMFERA
 40
0.0
  9
$CHAMFERB
 40
0.0
  9
$CHAMFERC
 40
0.0
  9
$CHAMFERD
 40
0.0
  9
$SKPOLY
 70
     0
  9
$TDCREATE
 40
2457107.376650937
  9
$TDUCREATE
 40
2457107.334984271
  9
$TDUPDATE
 40
2457107.376897407
  9
$TDUUPDATE
 40
2457107.335230741
  9
$TDINDWG
 40
0.0000000116
  9
$TDUSRTIMER
 40
0.0000000116
  9
$USRTIMER
 70
     1
  9
$ANGBASE
 50
0.0
  9
$ANGDIR
 70
     0
  9
$PDMODE
 70
     0
  9
$PDSIZE
 40
-1.0
  9
$PLINEWID
 40
0.0
  9
$SPLFRAME
 70
     0
  9
$SPLINETYPE
 70
     6
  9
$SPLINESEGS
 70
     8
  9
$HANDSEED
  5
105
  9
$SURFTAB1
 70
     6
  9
$SURFTAB2
 70
     6
  9
$SURFTYPE
 70
     6
  9
$SURFU
 70
     6
  9
$SURFV
 70
     6
  9
$UCSBASE
  2

  9
$UCSNAME
  2

  9
$UCSORG
 10
0.0
 20
0.0
 30
0.0
  9
$UCSXDIR
 10
1.0
 20
0.0
 30
0.0
  9
$UCSYDIR
 10
0.0
 20
1.0
 30
0.0
  9
$UCSORTHOREF
  2

  9
$UCSORTHOVIEW
 70
     0
  9
$UCSORGTOP
 10
0.0
 20
0.0
 30
0.0
  9
$UCSORGBOTTOM
 10
0.0
 20
0.0
 30
0.0
  9
$UCSORGLEFT
 10
0.0
 20
0.0
 30
0.0
  9
$UCSORGRIGHT
 10
0.0
 20
0.0
 30
0.0
  9
$UCSORGFRONT
 10
0.0
 20
0.0
 30
0.0
  9
$UCSORGBACK
 10
0.0
 20
0.0
 30
0.0
  9
$PUCSBASE
  2

  9
$PUCSNAME
  2

  9
$PUCSORG
 10
0.0
 20
0.0
 30
0.0
  9
$PUCSXDIR
 10
1.0
 20
0.0
 30
0.0
  9
$PUCSYDIR
 10
0.0
 20
1.0
 30
0.0
  9
$PUCSORTHOREF
  2

  9
$PUCSORTHOVIEW
 70
     0
  9
$PUCSORGTOP
 10
0.0
 20
0.0
 30
0.0
  9
$PUCSORGBOTTOM
 10
0.0
 20
0.0
 30
0.0
  9
$PUCSORGLEFT
 10
0.0
 20
0.0
 30
0.0
  9
$PUCSORGRIGHT
 10
0.0
 20
0.0
 30
0.0
  9
$PUCSORGFRONT
 10
0.0
 20
0.0
 30
0.0
  9
$PUCSORGBACK
 10
0.0
 20
0.0
 30
0.0
  9
$USERI1
 70
     0
  9
$USERI2
 70
     0
  9
$USERI3
 70
     0
  9
$USERI4
 70
     0
  9
$USERI5
 70
     0
  9
$USERR1
 40
0.0
  9
$USERR2
 40
0.0
  9
$USERR3
 40
0.0
  9
$USERR4
 40
0.0
  9
$USERR5
 40
0.0
  9
$WORLDVIEW
 70
     1
  9
$SHADEDGE
 70
     3
  9
$SHADEDIF
 70
    70
  9
$TILEMODE
 70
     1
  9
$MAXACTVP
 70
    64
  9
$PINSBASE
 10
0.0
 20
0.0
 30
0.0
  9
$PLIMCHECK
 70
     0
  9
$PEXTMIN
 10
1.0000000000E+20
 20
1.0000000000E+20
 30
1.0000000000E+20
  9
$PEXTMAX
 10
-1.0000000000E+20
 20
-1.0000000000E+20
 30
-1.0000000000E+20
  9
$PLIMMIN
 10
0.0
 20
0.0
  9
$PLIMMAX
 10
420.0
 20
297.0
  9
$UNITMODE
 70
     0
  9
$VISRETAIN
 70
     1
  9
$PLINEGEN
 70
     0
  9
$PSLTSCALE
 70
     1
  9
$TREEDEPTH
 70
  3020
  9
$CMLSTYLE
  2
Standard
  9
$CMLJUST
 70
     0
  9
$CMLSCALE
 40
20.0
  9
$PROXYGRAPHICS
 70
     1
  9
$MEASUREMENT
 70
     1
  9
$CELWEIGHT
370
    -1
  9
$ENDCAPS
280
     0
  9
$JOINSTYLE
280
     0
  9
$LWDISPLAY
290
     1
  9
$INSUNITS
 70
     4
  9
$HYPERLINKBASE
  1

  9
$STYLESHEET
  1

  9
$XEDIT
290
     1
  9
$CEPSNTYPE
380
     0
  9
$PSTYLEMODE
290
     1
  9
$FINGERPRINTGUID
  2
{6AA5614F-DAD5-4DB9-B9BD-3BC8FA733038}
  9
$VERSIONGUID
  2
{FAEB1C32-E019-11D5-929B-00C0DF256EC4}
  9
$EXTNAMES
290
     1
  9
$PSVPSCALE
 40
0.0
  9
$OLESTARTUP
290
     0
  0
ENDSEC
  0
SECTION
  2
CLASSES
  0
CLASS
  1
ACDBDICTIONARYWDFLT
  2
AcDbDictionaryWithDefault
  3
ObjectDBX Classes
 90
        0
280
     0
281
     0
  0
CLASS
  1
VISUALSTYLE
  2
AcDbVisualStyle
  3
ObjectDBX Classes
 90
     4095
280
     0
281
     0
  0
CLASS
  1
MATERIAL
  2
AcDbMaterial
  3
ObjectDBX Classes
 90
     1153
280
     0
281
     0
  0
CLASS
  1
SCALE
  2
AcDbScale
  3
ObjectDBX Classes
 90
     1153
280
     0
281
     0
  0
CLASS
  1
SUN
  2
AcDbSun
  3
SCENEOE
 90
     1153
280
     0
281
     0
  0
CLASS
  1
ACDBPLACEHOLDER
  2
AcDbPlaceHolder
  3
ObjectDBX Classes
 90
        0
280
     0
281
     0
  0
CLASS
  1
LAYOUT
  2
AcDbLayout
  3
ObjectDBX Classes
 90
        0
280
     0
281
     0
  0
ENDSEC
  0
SECTION
  2
TABLES
  0
TABLE
  2
VPORT
  5
8
330
0
100
AcDbSymbolTable
 70
     1
  0
VPORT
  5
29
330
8
100
AcDbSymbolTableRecord
100
AcDbViewportTableRecord
  2
*Active
 70
     0
 10
0.0
 20
0.0
 11
1.0
 21
1.0
 12
-163.3142616189
 22
10.1344494706
 13
0.0
 23
0.0
 14
10.0
 24
10.0
 15
10.0
 25
10.0
 16
0.0
 26
0.0
 36
1.0
 17
0.0
 27
0.0
 37
0.0
 40
138.3198025089
 41
2.4086290441
 42
50.0
 43
0.0
 44
0.0
 50
0.0
 51
0.0
 71
     0
 72
   100
 73
     1
 74
     3
 75
     0
 76
     0
 77
     0
 78
     0
281
     0
 65
     1
110
0.0
120
0.0
130
0.0
111
1.0
121
0.0
131
0.0
112
0.0
122
1.0
132
0.0
 79
     0
146
0.0
  0
ENDTAB
  0
TABLE
  2
LTYPE
  5
5
330
0
100
AcDbSymbolTable
 70
     6
  0
LTYPE
  5
14
330
5
100
AcDbSymbolTableRecord
100
AcDbLinetypeTableRecord
  2
ByBlock
 70
     0
  3

 72
    65
 73
     0
 40
0.0
  0
LTYPE
  5
15
330
5
100
AcDbSymbolTableRecord
100
AcDbLinetypeTableRecord
  2
ByLayer
 70
     0
  3

 72
    65
 73
     0
 40
0.0
  0
LTYPE
  5
16
330
5
100
AcDbSymbolTableRecord
100
AcDbLinetypeTableRecord
  2
Continuous
 70
     0
  3
Solid line
 72
    65
 73
     0
 40
0.0
  0
LTYPE
  5
6A
330
5
100
AcDbSymbolTableRecord
100
AcDbLinetypeTableRecord
  2
HIDDEN
 70
     0
  3
Hidden __ __ __ __ __ __ __ __ __ __ __ __ __ __
 72
    65
 73
     2
 40
1.905
 49
1.27
 74
     0
 49
-0.635
 74
     0
  0
LTYPE
  5
6B
330
5
100
AcDbSymbolTableRecord
100
AcDbLinetypeTableRecord
  2
PHANTOM
 70
     0
  3
Phantom ______  __  __  ______  __  __  ______
 72
    65
 73
     6
 40
12.7
 49
6.35
 74
     0
 49
-1.27
 74
     0
 49
1.27
 74
     0
 49
-1.27
 74
     0
 49
1.27
 74
     0
 49
-1.27
 74
     0
  0
LTYPE
  5
6C
330
5
100
AcDbSymbolTableRecord
100
AcDbLinetypeTableRecord
  2
CENTER
 70
     0
  3
Center ____ _ ____ _ ____ _ ____ _ ____ _ ____
 72
    65
 73
     4
 40
10.16
 49
6.35
 74
     0
 49
-1.27
 74
     0
 49
1.27
 74
     0
 49
-1.27
 74
     0
  0
LTYPE
  5
6D
330
5
100
AcDbSymbolTableRecord
100
AcDbLinetypeTableRecord
  2
CENTERX2
 70
     0
  3
Center (2x) ________  __  ________  __  _____
 72
    65
 73
     4
 40
20.32
 49
12.7
 74
     0
 49
-2.54
 74
     0
 49
2.54
 74
     0
 49
-2.54
 74
     0
  0
LTYPE
  5
6E
330
5
100
AcDbSymbolTableRecord
100
AcDbLinetypeTableRecord
  2
DOT2
 70
     0
  3
Dot (.5x) ........................................
 72
    65
 73
     2
 40
0.635
 49
0.0
 74
     0
 49
-0.635
 74
     0
  0
ENDTAB
  0
TABLE
  2
LAYER
  5
2
330
0
100
AcDbSymbolTable
 70
     1
  0
LAYER
  5
10
330
2
100
AcDbSymbolTableRecord
100
AcDbLayerTableRecord
  2
0
 70
     0
 62
     7
  6
Continuous
370
    -3
390
F
  0
ENDTAB
  0
TABLE
  2
STYLE
  5
3
330
0
100
AcDbSymbolTable
 70
     1
  0
STYLE
  5
11
330
3
100
AcDbSymbolTableRecord
100
AcDbTextStyleTableRecord
  2
Standard
 70
     0
 40
0.0
 41
1.0
 50
0.0
 71
     0
 42
3.5
  3
txt
  4

  0
ENDTAB
  0
TABLE
  2
VIEW
  5
6
330
0
100
AcDbSymbolTable
 70
     0
  0
ENDTAB
  0
TABLE
  2
UCS
  5
7
330
0
100
AcDbSymbolTable
 70
     0
  0
ENDTAB
  0
TABLE
  2
APPID
  5
9
330
0
100
AcDbSymbolTable
 70
     1
  0
APPID
  5
12
330
9
100
AcDbSymbolTableRecord
100
AcDbRegAppTableRecord
  2
ACAD
 70
     0
  0
ENDTAB
  0
TABLE
  2
DIMSTYLE
  5
A
330
0
100
AcDbSymbolTable
 70
     1
100
AcDbDimStyleTable
  0
DIMSTYLE
105
27
330
A
100
AcDbSymbolTableRecord
100
AcDbDimStyleTableRecord
  2
ISO-25
 70
     0
 41
2.5
 42
0.625
 43
3.75
 44
1.25
 73
     0
 74
     0
 77
     1
 78
     8
140
2.5
141
2.5
143
0.0393700787
147
0.625
171
     3
172
     1
178
     0
271
     2
272
     2
274
     3
278
    44
283
     0
284
     8
340
11
  0
ENDTAB
  0
TABLE
  2
BLOCK_RECORD
  5
1
330
0
100
AcDbSymbolTable
 70
     1
  0
BLOCK_RECORD
  5
1F
330
1
100
AcDbSymbolTableRecord
100
AcDbBlockTableRecord
  2
*Model_Space
340
22
  0
BLOCK_RECORD
  5
1B
330
1
100
AcDbSymbolTableRecord
100
AcDbBlockTableRecord
  2
*Paper_Space
340
1E
  0
BLOCK_RECORD
  5
23
330
1
100
AcDbSymbolTableRecord
100
AcDbBlockTableRecord
  2
*Paper_Space0
340
26
  0
ENDTAB
  0
ENDSEC
  0
SECTION
  2
BLOCKS
  0
BLOCK
  5
20
330
1F
100
AcDbEntity
  8
0
100
AcDbBlockBegin
  2
*Model_Space
 70
     0
 10
0.0
 20
0.0
 30
0.0
  3
*Model_Space
  1
*Model_Space
  0
ENDBLK
  5
21
330
1F
100
AcDbEntity
  8
0
100
AcDbBlockEnd
  0
BLOCK
  5
1C
330
1B
100
AcDbEntity
 67
     1
  8
0
100
AcDbBlockBegin
  2
*Paper_Space
 70
     0
 10
0.0
 20
0.0
 30
0.0
  3
*Paper_Space
  1
*Paper_Space
  0
ENDBLK
  5
1D
330
1B
100
AcDbEntity
 67
     1
  8
0
100
AcDbBlockEnd
  0
BLOCK
  5
24
330
23
100
AcDbEntity
  8
0
100
AcDbBlockBegin
  2
*Paper_Space0
 70
     0
 10
0.0
 20
0.0
 30
0.0
  3
*Paper_Space0
  1
*Paper_Space0
  0
ENDBLK
  5
25
330
23
100
AcDbEntity
  8
0
100
AcDbBlockEnd
  0
ENDSEC
  0
SECTION
  2
ENTITIES
  0
LWPOLYLINE
  5
7C
330
1F
100
AcDbEntity
  8
0
  6
Continuous
 62
     7
370
    15
100
AcDbPolyline
 90
       17
 70
   128
 43
0.0
 10
-177.9421173828
 20
-18.0456694284
 10
-178.0493632664
 20
-17.5748418948
 10
-178.2870687892
 20
-17.1533453902
 10
-178.6190454403
 20
-16.8453489365
 10
-178.994752784
 20
-16.6977422019
 10
-179.3569927829
 20
-16.7329969735
 10
-179.6506176809
 20
-16.9457460319
 10
-179.8309257491
 20
-17.3036002618
 10
-179.8704667185
 20
-17.7520796004
 10
-179.763220835
 20
-18.2229071339
 10
-179.5255153121
 20
-18.6444036385
 10
-179.193538661
 20
-18.9524000922
 10
-178.8178313173
 20
-19.1000068269
 10
-178.4555913184
 20
-19.0647520553
 10
-178.1619664204
 20
-18.8520029968
 10
-177.9816583522
 20
-18.494148767
 10
-177.9421173828
 20
-18.0456694284
  0
LWPOLYLINE
  5
7D
330
1F
100
AcDbEntity
  8
0
  6
Continuous
 62
     7
370
    15
100
AcDbPolyline
 90
       17
 70
   128
 43
0.0
 10
-162.5153226979
 20
-20.3943880526
 10
-162.6225685814
 20
-19.9235605191
 10
-162.8602741043
 20
-19.5020640145
 10
-163.1922507554
 20
-19.1940675608
 10
-163.567958099
 20
-19.0464608261
 10
-163.9301980979
 20
-19.0817155977
 10
-164.223822996
 20
-19.2944646562
 10
-164.4041310641
 20
-19.652318886
 10
-164.4436720335
 20
-20.1007982246
 10
-164.33642615
 20
-20.5716257582
 10
-164.0987206272
 20
-20.9931222628
 10
-163.766743976
 20
-21.3011187165
 10
-163.3910366324
 20
-21.4487254511
 10
-163.0287966335
 20
-21.4134706795
 10
-162.7351717354
 20
-21.2007216211
 10
-162.5548636673
 20
-20.8428673912
 10
-162.5153226979
 20
-20.3943880526
  0
LWPOLYLINE
  5
7E
330
1F
100
AcDbEntity
  8
0
  6
Continuous
 62
     7
370
    15
100
AcDbPolyline
 90
       17
 70
   128
 43
0.0
 10
-161.0999509646
 20
-39.6125050531
 10
-161.2071968481
 20
-39.1416775195
 10
-161.4449023709
 20
-38.7201810149
 10
-161.7768790221
 20
-38.4121845612
 10
-162.1525863657
 20
-38.2645778265
 10
-162.5148263646
 20
-38.2998325981
 10
-162.8084512626
 20
-38.5125816566
 10
-162.9887593308
 20
-38.8704358864
 10
-163.0283003002
 20
-39.318915225
 10
-162.9210544167
 20
-39.7897427586
 10
-162.6833488938
 20
-40.2112392632
 10
-162.3513722427
 20
-40.5192357169
 10
-161.975664899
 20
-40.6668424516
 10
-161.6134249001
 20
-40.63158768
 10
-161.3198000021
 20
-40.4188386215
 10
-161.139491934
 20
-40.0609843917
 10
-161.0999509646
 20
-39.6125050531
  0
LWPOLYLINE
  5
7F
330
1F
100
AcDbEntity
  8
0
  6
Continuous
 62
     7
370
    15
100
AcDbPolyline
 90
       17
 70
   128
 43
0.0
 10
-176.5267456495
 20
-37.2637864288
 10
-176.633991533
 20
-36.7929588953
 10
-176.8716970559
 20
-36.3714623907
 10
-177.203673707
 20
-36.063465937
 10
-177.5793810507
 20
-35.9158592023
 10
-177.9416210496
 20
-35.9511139739
 10
-178.2352459476
 20
-36.1638630324
 10
-178.4155540157
 20
-36.5217172622
 10
-178.4550949851
 20
-36.9701966008
 10
-178.3478491016
 20
-37.4410241344
 10
-178.1101435788
 20
-37.862520639
 10
-177.7781669276
 20
-38.1705170926
 10
-177.402459584
 20
-38.3181238273
 10
-177.0402195851
 20
-38.2828690557
 10
-176.7465946871
 20
-38.0701199972
 10
-176.5662866189
 20
-37.7122657674
 10
-176.5267456495
 20
-37.2637864288
  0
LWPOLYLINE
  5
81
330
1F
100
AcDbEntity
  8
0
  6
Continuous
 62
     7
370
    15
100
AcDbPolyline
 90
       11
 70
   128
 43
0.0
 10
-176.3157044581
 20
-36.5833187647
 10
-175.115981879
 20
-37.84485093
 10
-173.8156320466
 20
-38.907279598
 10
-172.4429117184
 20
-39.7475180663
 10
-171.027650272
 20
-40.3473078523
 10
-169.6006015082
 20
-40.693615452
 10
-168.1927753678
 20
-40.7789155596
 10
-166.8347640818
 20
-40.6013545937
 10
-165.5560773982
 20
-40.1647909752
 10
-164.384501332
 20
-39.4787112841
 10
-163.3454943716
 20
-38.5580241142
  0
LWPOLYLINE
  5
82
330
1F
100
AcDbEntity
  8
0
  6
Continuous
 62
     7
370
    15
100
AcDbPolyline
 90
       11
 70
   128
 43
0.0
 10
-164.654713225
 20
-20.7812658888
 10
-165.854435804
 20
-19.5197337235
 10
-167.1547856365
 20
-18.4573050554
 10
-168.5275059646
 20
-17.6170665871
 10
-169.9427674111
 20
-17.0172768011
 10
-171.3698161749
 20
-16.6709692014
 10
-172.7776423152
 20
-16.5856690938
 10
-174.1356536012
 20
-16.7632300598
 10
-175.4143402848
 20
-17.1997936782
 10
-176.585916351
 20
-17.8858733694
 10
-177.6249233114
 20
-18.8065605393
  0
LWPOLYLINE
  5
94
330
1F
100
AcDbEntity
  8
0
  6
Continuous
 62
     7
370
    15
100
AcDbPolyline
 90
       23
 70
   128
 43
0.0
 10
-309.5598216212
 20
-25.0857110715
 10
-309.7133691027
 20
-24.2592847444
 10
-310.0419451543
 20
-23.4712686812
 10
-310.5189304983
 20
-22.7855032568
 10
-311.1056826189
 20
-22.2575451075
 10
-311.7546663489
 20
-21.9301662626
 10
-312.4133048861
 20
-21.8298890093
 10
-313.0282392533
 20
-21.9648372141
 10
-313.5496511252
 20
-22.3240781761
 10
-313.935298813
 20
-22.8785083291
 10
-314.1539394344
 20
-23.5832110393
 10
-314.1878600267
 20
-24.3810954843
 10
-314.0343125452
 20
-25.2075218114
 10
-313.7057364937
 20
-25.9955378746
 10
-313.2287511497
 20
-26.681303299
 10
-312.6419990291
 20
-27.2092614483
 10
-311.9930152991
 20
-27.5366402932
 10
-311.3343767619
 20
-27.6369175465
 10
-310.7194423947
 20
-27.5019693417
 10
-310.1980305228
 20
-27.1427283797
 10
-309.812382835
 20
-26.5882982267
 10
-309.5937422135
 20
-25.8835955165
 10
-309.5598216212
 20
-25.0857110715
  0
LWPOLYLINE
  5
99
330
1F
100
AcDbEntity
  8
0
  6
Continuous
 62
     7
370
    15
100
AcDbPolyline
 90
       17
 70
   128
 43
0.0
 10
-262.8601520118
 20
-30.903653834
 10
-262.988847072
 20
-30.3386607938
 10
-263.2740936995
 20
-29.8328649882
 10
-263.6724656808
 20
-29.4632692438
 10
-264.1233144932
 20
-29.2861411622
 10
-264.5580024919
 20
-29.3284468881
 10
-264.9103523695
 20
-29.5837457583
 10
-265.1267220513
 20
-30.0131708341
 10
-265.1741712146
 20
-30.5513460404
 10
-265.0454761544
 20
-31.1163390807
 10
-264.7602295269
 20
-31.6221348862
 10
-264.3618575456
 20
-31.9917306306
 10
-263.9110087332
 20
-32.1688587122
 10
-263.4763207345
 20
-32.1265529863
 10
-263.1239708569
 20
-31.8712541161
 10
-262.9076011751
 20
-31.4418290404
 10
-262.8601520118
 20
-30.903653834
  0
LWPOLYLINE
  5
9A
330
1F
100
AcDbEntity
  8
0
  6
Continuous
 62
     7
370
    15
100
AcDbPolyline
 90
       19
 70
   128
 43
0.0
 10
-254.7610848022
 20
-32.1367311118
 10
-254.9025283223
 20
-31.4652682922
 10
-255.2129815777
 20
-30.8464647854
 10
-255.6549993242
 20
-30.354957427
 10
-256.1752676979
 20
-30.0500292582
 10
-256.7110346548
 20
-29.9684591164
 10
-257.1976787927
 20
-30.1200855646
 10
-257.5765036464
 20
-30.4866202153
 10
-257.8018173478
 20
-31.0238535803
 10
-257.8464437392
 20
-31.6669873869
 10
-257.7050002192
 20
-32.3384502065
 10
-257.3945469637
 20
-32.9572537132
 10
-256.9525292173
 20
-33.4487610716
 10
-256.4322608435
 20
-33.7536892405
 10
-255.8964938867
 20
-33.8352593823
 10
-255.4098497488
 20
-33.6836329341
 10
-255.031024895
 20
-33.3170982833
 10
-254.8057111936
 20
-32.7798649184
 10
-254.7610848022
 20
-32.1367311118
  0
LWPOLYLINE
  5
9B
330
1F
100
AcDbEntity
  8
0
  6
Continuous
 62
     7
370
    15
100
AcDbPolyline
 90
       21
 70
   128
 43
0.0
 10
-246.6620175926
 20
-33.3698083895
 10
-246.8110694668
 20
-32.6130984864
 10
-247.1342913736
 20
-31.901722003
 10
-247.6000441007
 20
-31.3053134259
 10
-248.1627365262
 20
-30.8822533822
 10
-248.7672883949
 20
-30.6739539364
 10
-249.3545219578
 20
-30.7008048897
 10
-249.8669547022
 20
-30.9601778837
 10
-250.2544261408
 20
-31.4266836825
 10
-250.4790078695
 20
-32.0546574483
 10
-250.5187162639
 20
-32.7826287334
 10
-250.3696643897
 20
-33.5393386365
 10
-250.0464424829
 20
-34.2507151199
 10
-249.5806897558
 20
-34.847123697
 10
-249.0179973303
 20
-35.2701837407
 10
-248.4134454616
 20
-35.4784831865
 10
-247.8262118987
 20
-35.4516322332
 10
-247.3137791543
 20
-35.1922592392
 10
-246.9263077157
 20
-34.7257534404
 10
-246.701725987
 20
-34.0977796746
 10
-246.6620175926
 20
-33.3698083895
  0
LWPOLYLINE
  5
9C
330
1F
100
AcDbEntity
  8
0
  6
Continuous
 62
     7
370
    15
100
AcDbPolyline
 90
       23
 70
   128
 43
0.0
 10
-238.562950383
 20
-34.6028856672
 10
-238.7164978645
 20
-33.7764593401
 10
-239.0450739161
 20
-32.9884432768
 10
-239.5220592601
 20
-32.3026778524
 10
-240.1088113807
 20
-31.7747197031
 10
-240.7577951107
 20
-31.4473408583
 10
-241.4164336479
 20
-31.347063605
 10
-242.0313680151
 20
-31.4820118098
 10
-242.552779887
 20
-31.8412527718
 10
-242.9384275748
 20
-32.3956829248
 10
-243.1570681962
 20
-33.100385635
 10
-243.1909887885
 20
-33.8982700799
 10
-243.037441307
 20
-34.7246964071
 10
-242.7088652555
 20
-35.5127124703
 10
-242.2318799115
 20
-36.1984778947
 10
-241.6451277909
 20
-36.726436044
 10
-240.9961440609
 20
-37.0538148888
 10
-240.3375055237
 20
-37.1540921422
 10
-239.7225711565
 20
-37.0191439374
 10
-239.2011592845
 20
-36.6599029753
 10
-238.8155115968
 20
-36.1054728224
 10
-238.5968709753
 20
-35.4007701121
 10
-238.562950383
 20
-34.6028856672
  0
LWPOLYLINE
  5
9D
330
1F
100
AcDbEntity
  8
0
  6
Continuous
 62
     7
370
    15
100
AcDbPolyline
 90
       21
 70
   128
 43
0.0
 10
-231.2352229077
 20
-35.7185270137
 10
-231.3842747818
 20
-34.9618171106
 10
-231.7074966886
 20
-34.2504406272
 10
-232.1732494158
 20
-33.6540320502
 10
-232.7359418412
 20
-33.2309720064
 10
-233.34049371
 20
-33.0226725606
 10
-233.9277272728
 20
-33.0495235139
 10
-234.4401600172
 20
-33.3088965079
 10
-234.8276314558
 20
-33.7754023067
 10
-235.0522131845
 20
-34.4033760725
 10
-235.0919215789
 20
-35.1313473577
 10
-234.9428697048
 20
-35.8880572607
 10
-234.619647798
 20
-36.5994337441
 10
-234.1538950708
 20
-37.1958423212
 10
-233.5912026453
 20
-37.618902365
 10
-232.9866507766
 20
-37.8272018107
 10
-232.3994172138
 20
-37.8003508574
 10
-231.8869844693
 20
-37.5409778635
 10
-231.4995130308
 20
-37.0744720646
 10
-231.2749313021
 20
-36.4464982989
 10
-231.2352229077
 20
-35.7185270137
  0
LWPOLYLINE
  5
9E
330
1F
100
AcDbEntity
  8
0
  6
Continuous
 62
     7
370
    15
100
AcDbPolyline
 90
       19
 70
   128
 43
0.0
 10
-223.9074954323
 20
-36.8341683602
 10
-224.0489389523
 20
-36.1627055407
 10
-224.3593922078
 20
-35.5439020339
 10
-224.8014099543
 20
-35.0523946755
 10
-225.321678328
 20
-34.7474665067
 10
-225.8574452849
 20
-34.6658963649
 10
-226.3440894228
 20
-34.8175228131
 10
-226.7229142765
 20
-35.1840574638
 10
-226.9482279779
 20
-35.7212908288
 10
-226.9928543693
 20
-36.3644246354
 10
-226.8514108493
 20
-37.035887455
 10
-226.5409575938
 20
-37.6546909617
 10
-226.0989398474
 20
-38.1461983201
 10
-225.5786714736
 20
-38.4511264889
 10
-225.0429045168
 20
-38.5326966307
 10
-224.5562603789
 20
-38.3810701825
 10
-224.1774355251
 20
-38.0145355318
 10
-223.9521218237
 20
-37.4773021669
 10
-223.9074954323
 20
-36.8341683602
  0
LWPOLYLINE
  5
9F
330
1F
100
AcDbEntity
  8
0
  6
Continuous
 62
     7
370
    15
100
AcDbPolyline
 90
       17
 70
   128
 43
0.0
 10
-216.579767957
 20
-37.9498097067
 10
-216.7084630172
 20
-37.3848166665
 10
-216.9937096446
 20
-36.879020861
 10
-217.392081626
 20
-36.5094251165
 10
-217.8429304383
 20
-36.3322970349
 10
-218.277618437
 20
-36.3746027608
 10
-218.6299683147
 20
-36.629901631
 10
-218.8463379964
 20
-37.0593267068
 10
-218.8937871597
 20
-37.5975019131
 10
-218.7650920995
 20
-38.1624949534
 10
-218.4798454721
 20
-38.6682907589
 10
-218.0814734907
 20
-39.0378865033
 10
-217.6306246783
 20
-39.215014585
 10
-217.1959366797
 20
-39.172708859
 10
-216.843586802
 20
-38.9174099888
 10
-216.6272171202
 20
-38.4879849131
 10
-216.579767957
 20
-37.9498097067
  0
LINE
  5
C1
330
1F
100
AcDbEntity
  8
0
  6
Continuous
 62
     7
370
    15
100
AcDbLine
 10
-326.6285232377
 20
20.2688989412
 30
0.0
 11
-149.2203843608
 21
-6.7413652375
 31
0.0
  0
LINE
  5
C2
330
1F
100
AcDbEntity
  8
0
  6
Continuous
 62
     7
370
    15
100
AcDbLine
 10
-181.1588739703
 20
77.9382742299
 30
0.0
 11
-326.6285232377
 21
20.2688989412
 31
0.0
  0
LINE
  5
C3
330
1F
100
AcDbEntity
  8
0
  6
Continuous
 62
     7
370
    15
100
AcDbLine
 10
-3.7507350933
 20
50.9280100511
 30
0.0
 11
-181.1588739703
 21
77.9382742299
 31
0.0
  0
LINE
  5
C4
330
1F
100
AcDbEntity
  8
0
  6
Continuous
 62
     7
370
    15
100
AcDbLine
 10
-149.2203843608
 20
-6.7413652375
 30
0.0
 11
-3.7507350933
 21
50.9280100511
 31
0.0
  0
LINE
  5
C5
330
1F
100
AcDbEntity
  8
0
  6
Continuous
 62
     7
370
    15
100
AcDbLine
 10
-180.8811479737
 20
77.2019295389
 30
0.0
 11
-323.8208902973
 21
20.5354999074
 31
0.0
  0
LINE
  5
C6
330
1F
100
AcDbEntity
  8
0
  6
Continuous
 62
     7
370
    15
100
AcDbLine
 10
-323.8208902973
 20
20.5354999074
 30
0.0
 11
-149.4981103574
 21
-6.0050205465
 31
0.0
  0
LINE
  5
C7
330
1F
100
AcDbEntity
  8
0
  6
Continuous
 62
     7
370
    15
100
AcDbLine
 10
-149.4981103574
 20
-6.0050205465
 30
0.0
 11
-6.5583680337
 21
50.661409085
 31
0.0
  0
LINE
  5
C8
330
1F
100
AcDbEntity
  8
0
  6
Continuous
 62
     7
370
    15
100
AcDbLine
 10
-6.5583680337
 20
50.661409085
 30
0.0
 11
-180.8811479737
 21
77.2019295389
 31
0.0
  0
LINE
  5
C9
330
1F
100
AcDbEntity
  8
0
  6
Continuous
 62
     7
370
    15
100
AcDbLine
 10
-149.2203843608
 20
-6.7413652375
 30
0.0
 11
-145.4696492674
 21
-57.6693752886
 31
0.0
  0
LINE
  5
CA
330
1F
100
AcDbEntity
  8
0
  6
Continuous
 62
     7
370
    15
100
AcDbLine
 10
-3.7507350933
 20
50.9280100511
 30
0.0
 11
0.0
 21
0.0
 31
0.0
  0
LINE
  5
CB
330
1F
100
AcDbEntity
  8
0
  6
Continuous
 62
     7
370
    15
100
AcDbLine
 10
-145.4696492674
 20
-57.6693752886
 30
0.0
 11
0.0
 21
0.0
 31
0.0
  0
LINE
  5
CC
330
1F
100
AcDbEntity
  8
0
  6
Continuous
 62
     7
370
    15
100
AcDbLine
 10
-326.6285232377
 20
20.2688989412
 30
0.0
 11
-322.8777881444
 21
-30.6591111099
 31
0.0
  0
LINE
  5
CD
330
1F
100
AcDbEntity
  8
0
  6
Continuous
 62
     7
370
    15
100
AcDbLine
 10
-322.8777881444
 20
-30.6591111099
 30
0.0
 11
-145.4696492674
 21
-57.6693752886
 31
0.0
  0
LINE
  5
CE
330
1F
100
AcDbEntity
  8
0
  6
Continuous
 62
     7
370
    15
100
AcDbLine
 10
-176.3157044581
 20
-36.5833187647
 30
0.0
 11
-163.3454943716
 21
-38.5580241142
 31
0.0
  0
LINE
  5
CF
330
1F
100
AcDbEntity
  8
0
  6
Continuous
 62
     7
370
    15
100
AcDbLine
 10
-164.654713225
 20
-20.7812658888
 30
0.0
 11
-177.6249233114
 21
-18.8065605393
 31
0.0
  0
LINE
  5
D0
330
1F
100
AcDbEntity
  8
0
  6
Continuous
 62
     7
370
    15
100
AcDbLine
 10
-160.9139093952
 20
-29.4269173885
 30
0.0
 11
-180.1626611678
 21
-26.4963084899
 31
0.0
  0
LINE
  5
D1
330
1F
100
AcDbEntity
  8
0
  6
Continuous
 62
     7
370
    15
100
AcDbLine
 10
-179.9482311679
 20
-23.6785611587
 30
0.0
 11
-161.5529509151
 21
-26.4792296196
 31
0.0
  0
LINE
  5
D2
330
1F
100
AcDbEntity
  8
0
  6
Continuous
 62
     7
370
    15
100
AcDbLine
 10
-162.3718204012
 20
-37.2810682165
 30
0.0
 11
-177.5016841885
 21
-34.9775571123
 31
0.0
  0
LINE
  5
D3
330
1F
100
AcDbEntity
  8
0
  6
Continuous
 62
     7
370
    15
100
AcDbLine
 10
-178.86379128
 20
-32.3948488107
 30
0.0
 11
-161.363556243
 21
-35.059247268
 31
0.0
  0
LINE
  5
D4
330
1F
100
AcDbEntity
  8
0
  6
Continuous
 62
     7
370
    15
100
AcDbLine
 10
-180.0565082878
 20
-27.9376672649
 30
0.0
 11
-160.8077565152
 21
-30.8682761636
 31
0.0
  0
LINE
  5
D5
330
1F
100
AcDbEntity
  8
0
  6
Continuous
 62
     7
370
    15
100
AcDbLine
 10
-161.0221865151
 20
-33.6860234948
 30
0.0
 11
-179.4174667679
 21
-30.8853550338
 31
0.0
  0
LINE
  5
D6
330
1F
100
AcDbEntity
  8
0
  6
Continuous
 62
     7
370
    15
100
AcDbLine
 10
-162.106626403
 20
-24.9697358428
 30
0.0
 11
-179.60686144
 21
-22.3053373854
 31
0.0
  0
LINE
  5
D7
330
1F
100
AcDbEntity
  8
0
  6
Continuous
 62
     7
370
    15
100
AcDbLine
 10
-178.5985972818
 20
-20.0835164369
 30
0.0
 11
-163.4687334946
 21
-22.3870275412
 31
0.0
  0
LINE
  5
D8
330
1F
100
AcDbEntity
  8
0
  6
Continuous
 62
     7
370
    15
100
AcDbLine
 10
-290.3822198469
 20
-30.7261680246
 30
0.0
 11
-291.1889817349
 21
-19.7718413343
 31
0.0
  0
LINE
  5
D9
330
1F
100
AcDbEntity
  8
0
  6
Continuous
 62
     7
370
    15
100
AcDbLine
 10
-291.1889817349
 20
-19.7718413343
 30
0.0
 11
-300.9078623864
 21
-18.2921486011
 31
0.0
  0
LINE
  5
DA
330
1F
100
AcDbEntity
  8
0
  6
Continuous
 62
     7
370
    15
100
AcDbLine
 10
-300.9078623864
 20
-18.2921486011
 30
0.0
 11
-300.1011004984
 21
-29.2464752913
 31
0.0
  0
LINE
  5
DB
330
1F
100
AcDbEntity
  8
0
  6
Continuous
 62
     7
370
    15
100
AcDbLine
 10
-300.1011004984
 20
-29.2464752913
 30
0.0
 11
-290.3822198469
 21
-30.7261680246
 31
0.0
  0
LINE
  5
DC
330
1F
100
AcDbEntity
  8
0
  6
Continuous
 62
     7
370
    15
100
AcDbLine
 10
-180.2522532188
 20
73.2146949523
 30
0.0
 11
-13.6507529138
 21
47.849733884
 31
0.0
  0
LINE
  5
DD
330
1F
100
AcDbEntity
  8
0
  6
Continuous
 62
     7
370
    15
100
AcDbLine
 10
-316.0996106623
 20
19.3599405218
 30
0.0
 11
-180.2522532188
 21
73.2146949523
 31
0.0
  0
LINE
  5
DE
330
1F
100
AcDbEntity
  8
0
  6
Continuous
 62
     7
370
    15
100
AcDbLine
 10
-180.6688422137
 20
74.3192119888
 30
0.0
 11
-318.4136298651
 21
19.7122483154
 31
0.0
  0
LINE
  5
DF
330
1F
100
AcDbEntity
  8
0
  6
Continuous
 62
     7
370
    15
100
AcDbLine
 10
-11.753322706
 20
48.6019431269
 30
0.0
 11
-180.6688422137
 21
74.3192119888
 31
0.0
  0
LINE
  5
E0
330
1F
100
AcDbEntity
  8
0
  6
Continuous
 62
     7
370
    15
100
AcDbLine
 10
-174.4625396317
 20
-17.5528784678
 30
0.0
 11
-177.6249233114
 21
-18.8065605393
 31
0.0
  0
LINE
  5
E1
330
1F
100
AcDbEntity
  8
0
  6
Continuous
 62
     7
370
    15
100
AcDbLine
 10
-173.4305743787
 20
-16.6373162628
 30
0.0
 11
-174.4625396317
 21
-17.5528784678
 31
0.0
  0
LINE
  5
E2
330
1F
100
AcDbEntity
  8
0
  6
Continuous
 62
     7
370
    15
100
AcDbLine
 10
-179.60686144
 20
-22.3053373854
 30
0.0
 11
-176.4444777603
 21
-21.0516553139
 31
0.0
  0
LINE
  5
E3
330
1F
100
AcDbEntity
  8
0
  6
Continuous
 62
     7
370
    15
100
AcDbLine
 10
-163.0379250164
 20
-23.0927935257
 30
0.0
 11
-176.4444777603
 21
-21.0516553139
 31
0.0
  0
LINE
  5
E4
330
1F
100
AcDbEntity
  8
0
  6
Continuous
 62
     7
370
    15
100
AcDbLine
 10
-180.1626611678
 20
-26.4963084899
 30
0.0
 11
-177.0002774881
 21
-25.2426264184
 31
0.0
  0
LINE
  5
E5
330
1F
100
AcDbEntity
  8
0
  6
Continuous
 62
     7
370
    15
100
AcDbLine
 10
-161.2327729669
 20
-27.6432178752
 30
0.0
 11
-177.0002774881
 21
-25.2426264184
 31
0.0
  0
LINE
  5
E6
330
1F
100
AcDbEntity
  8
0
  6
Continuous
 62
     7
370
    15
100
AcDbLine
 10
-166.800126465
 20
-18.719475475
 30
0.0
 11
-174.4625396317
 21
-17.5528784678
 31
0.0
  0
LINE
  5
E7
330
1F
100
AcDbEntity
  8
0
  6
Continuous
 62
     7
370
    15
100
AcDbLine
 10
-179.4174667679
 20
-30.8853550338
 30
0.0
 11
-176.2550830882
 21
-29.6316729623
 31
0.0
  0
LINE
  5
E8
330
1F
100
AcDbEntity
  8
0
  6
Continuous
 62
     7
370
    15
100
AcDbLine
 10
-160.8221900165
 20
-31.9813200616
 30
0.0
 11
-176.2550830882
 21
-29.6316729623
 31
0.0
  0
LINE
  5
E9
330
1F
100
AcDbEntity
  8
0
  6
Continuous
 62
     7
370
    15
100
AcDbLine
 10
-176.9261296454
 20
28.0521200013
 30
0.0
 11
-231.3858638902
 21
6.4623322476
 31
0.0
  0
LINE
  5
EA
330
1F
100
AcDbEntity
  8
0
  6
Continuous
 62
     7
370
    15
100
AcDbLine
 10
-295.7928563409
 20
-19.0709046685
 30
0.0
 11
-297.5446477573
 21
-19.7653774821
 31
0.0
  0
LINE
  5
EB
330
1F
100
AcDbEntity
  8
0
  6
Continuous
 62
     7
370
    15
100
AcDbLine
 10
-309.6362923804
 20
-24.5589381674
 30
0.0
 11
-310.4607558013
 21
-24.8857849747
 31
0.0
  0
LINE
  5
EC
330
1F
100
AcDbEntity
  8
0
  6
Continuous
 62
     7
370
    15
100
AcDbLine
 10
-95.0383761126
 20
15.5847672071
 30
0.0
 11
-176.9261296454
 21
28.0521200013
 31
0.0
  0
LINE
  5
ED
330
1F
100
AcDbEntity
  8
0
  6
Continuous
 62
     7
370
    15
100
AcDbLine
 10
-174.3393005087
 20
-33.7238750408
 30
0.0
 11
-177.5016841885
 21
-34.9775571123
 31
0.0
  0
LINE
  5
EE
330
1F
100
AcDbEntity
  8
0
  6
Continuous
 62
     7
370
    15
100
AcDbLine
 10
-161.575685926
 20
-35.6671263704
 30
0.0
 11
-174.3393005087
 21
-33.7238750408
 31
0.0
  0
LINE
  5
EF
330
1F
100
AcDbEntity
  8
0
  6
Continuous
 62
     7
370
    15
100
AcDbLine
 10
-296.9387168186
 20
-27.9927932198
 30
0.0
 11
-300.1011004984
 21
-29.2464752913
 31
0.0
  0
LINE
  5
F0
330
1F
100
AcDbEntity
  8
0
  6
Continuous
 62
     7
370
    15
100
AcDbLine
 10
-296.9387168186
 20
-27.9927932198
 30
0.0
 11
-290.5114591401
 21
-28.971338674
 31
0.0
  0
LINE
  5
F1
330
1F
100
AcDbEntity
  8
0
  6
Continuous
 62
     7
370
    15
100
AcDbLine
 10
-297.6162394134
 20
-18.7932958801
 30
0.0
 11
-296.9387168186
 21
-27.9927932198
 31
0.0
  0
LINE
  5
F2
330
1F
100
AcDbEntity
  8
0
  6
Continuous
 62
     7
370
    15
100
AcDbLine
 10
-180.6688422137
 20
74.3192119888
 30
0.0
 11
-180.8811479737
 21
77.2019295389
 31
0.0
  0
LINE
  5
F3
330
1F
100
AcDbEntity
  8
0
  6
Continuous
 62
     7
370
    15
100
AcDbLine
 10
-176.9261296454
 20
28.0521200013
 30
0.0
 11
-180.2522532188
 21
73.2146949523
 31
0.0
  0
ARC
  5
F4
330
1F
100
AcDbEntity
  8
0
  6
Continuous
 62
     7
370
    15
100
AcDbCircle
 10
-177.2454601774
 20
-31.4243882444
 30
0.0
 40
16.45325015823061
100
AcDbArc
 50
6.9730698263
 51
17.4911306961
  0
ARC
  5
F5
330
1F
100
AcDbEntity
  8
0
  6
Continuous
 62
     7
370
    15
100
AcDbCircle
 10
-166.6286770069
 20
-26.1092092318
 30
0.0
 40
13.53951893911717
100
AcDbArc
 50
169.6580529036
 51
181.6383282537
  0
ARC
  5
F6
330
1F
100
AcDbEntity
  8
0
  6
Continuous
 62
     7
370
    15
100
AcDbCircle
 10
-170.7282956309
 20
-32.14920692
 30
0.0
 40
9.806461065534824
100
AcDbArc
 50
328.4451681501
 51
342.7376602859
  0
ARC
  5
F7
330
1F
100
AcDbEntity
  8
0
  6
Continuous
 62
     7
370
    15
100
AcDbCircle
 10
-163.4031163815
 20
-25.891506579
 30
0.0
 40
16.7727734290379
100
AcDbArc
 50
202.8134558436
 51
212.8004123167
  0
ARC
  5
F8
330
1F
100
AcDbEntity
  8
0
  6
Continuous
 62
     7
370
    15
100
AcDbCircle
 10
-163.7249575056
 20
-25.9401964091
 30
0.0
 40
16.45325015822901
100
AcDbArc
 50
186.9730698263
 51
197.4911306961
  0
ARC
  5
F9
330
1F
100
AcDbEntity
  8
0
  6
Continuous
 62
     7
370
    15
100
AcDbCircle
 10
-174.3417406761
 20
-31.2553754217
 30
0.0
 40
13.53951893912184
100
AcDbArc
 50
349.6580529036
 51
1.6383282537
  0
ARC
  5
FA
330
1F
100
AcDbEntity
  8
0
  6
Continuous
 62
     7
370
    15
100
AcDbCircle
 10
-177.5673013016
 20
-31.4730780744
 30
0.0
 40
16.77277342904295
100
AcDbArc
 50
22.8134558436
 51
32.8004123167
  0
ARC
  5
FB
330
1F
100
AcDbEntity
  8
0
  6
Continuous
 62
     7
370
    15
100
AcDbCircle
 10
-170.2421220522
 20
-25.2153777334
 30
0.0
 40
9.806461065533018
100
AcDbArc
 50
148.4451681501
 51
162.7376602859
  0
ARC
  5
FC
330
1F
100
AcDbEntity
  8
0
  6
Continuous
 62
     7
370
    15
100
AcDbCircle
 10
-165.1319173386
 20
-30.2779779466
 30
0.0
 40
9.226506369342994
100
AcDbArc
 50
230.4419472129
 51
274.6903518397
  0
ARC
  5
FD
330
1F
100
AcDbEntity
  8
0
  6
Continuous
 62
     7
370
    15
100
AcDbCircle
 10
-166.3322973249
 20
-24.2395188545
 30
0.0
 40
10.60276695545878
100
AcDbArc
 50
159.0228574989
 51
162.5025495764
  0
ARC
  5
FE
330
1F
100
AcDbEntity
  8
0
  6
Continuous
 62
     7
370
    15
100
AcDbCircle
 10
-162.7555748512
 20
-24.8707304049
 30
0.0
 40
14.24955647935821
100
AcDbArc
 50
177.0185868298
 51
181.4955196501
  0
ARC
  5
FF
330
1F
100
AcDbEntity
  8
0
  6
Continuous
 62
     7
370
    15
100
AcDbCircle
 10
-160.5135687706
 20
-24.8001051617
 30
0.0
 40
16.45553180389191
100
AcDbArc
 50
209.9607596029
 51
212.8400780438
  0
ARC
  5
100
330
1F
100
AcDbEntity
  8
0
  6
Continuous
 62
     7
370
    15
100
AcDbCircle
 10
-160.2484437514
 20
-24.6027010617
 30
0.0
 40
16.7780529631559
100
AcDbArc
 50
193.3182370665
 51
197.4416951695
  0
ARC
  5
101
330
1F
100
AcDbEntity
  8
0
  6
Continuous
 62
     7
370
    15
100
AcDbCircle
 10
-228.5965312148
 20
-33.6143986688
 30
0.0
 40
3.343645362995477
100
AcDbArc
 50
185.4891007306
 51
217.7611926269
  0
ARC
  5
102
330
1F
100
AcDbEntity
  8
0
  6
Continuous
 62
     7
370
    15
100
AcDbCircle
 10
-236.2097729626
 20
-32.4003340945
 30
0.0
 40
3.825397888353688
100
AcDbArc
 50
171.8285059355
 51
231.4217874221
  0
ARC
  5
103
330
1F
100
AcDbEntity
  8
0
  6
Continuous
 62
     7
370
    15
100
AcDbCircle
 10
-244.0233258997
 20
-31.2656800446
 30
0.0
 40
3.343645362996633
100
AcDbArc
 50
185.4891007308
 51
217.7611926268
  0
ARC
  5
104
330
1F
100
AcDbEntity
  8
0
  6
Continuous
 62
     7
370
    15
100
AcDbCircle
 10
-307.2066442008
 20
-22.8831594988
 30
0.0
 40
3.825397888351473
100
AcDbArc
 50
171.8285059353
 51
231.4217874222
  0
ENDSEC
  0
SECTION
  2
OBJECTS
  0
DICTIONARY
  5
C
330
0
100
AcDbDictionary
281
     1
  3
ACAD_GROUP
350
D
  3
ACAD_LAYOUT
350
1A
  3
ACAD_MLINESTYLE
350
17
  3
ACAD_PLOTSETTINGS
350
19
  3
ACAD_PLOTSTYLENAME
350
E
  3
ACAD_SCALELIST
350
47
  0
DICTIONARY
  5
D
102
{ACAD_REACTORS
330
C
102
}
330
C
100
AcDbDictionary
281
     1
  0
DICTIONARY
  5
1A
102
{ACAD_REACTORS
330
C
102
}
330
C
100
AcDbDictionary
281
     1
  3
Layout1
350
1E
  3
Layout2
350
26
  3
Model
350
22
  0
DICTIONARY
  5
17
102
{ACAD_REACTORS
330
C
102
}
330
C
100
AcDbDictionary
281
     1
  3
Standard
350
18
  0
DICTIONARY
  5
19
102
{ACAD_REACTORS
330
C
102
}
330
C
100
AcDbDictionary
281
     1
  0
ACDBDICTIONARYWDFLT
  5
E
102
{ACAD_REACTORS
330
C
102
}
330
C
100
AcDbDictionary
281
     1
  3
Normal
350
F
100
AcDbDictionaryWithDefault
340
F
  0
DICTIONARY
  5
47
102
{ACAD_REACTORS
330
C
102
}
330
C
100
AcDbDictionary
281
     1
  3
A0
350
48
  3
A1
350
49
  3
A2
350
4A
  3
A3
350
4B
  3
A4
350
4C
  3
A5
350
4D
  3
A6
350
4E
  3
A7
350
4F
  3
A8
350
50
  3
A9
350
51
  3
B0
350
52
  3
B1
350
53
  3
B2
350
54
  3
B3
350
55
  3
B4
350
56
  3
B5
350
57
  3
B6
350
58
  3
B7
350
59
  3
B8
350
5A
  3
B9
350
5B
  3
C0
350
5C
  3
C1
350
5D
  3
C2
350
5E
  3
C3
350
5F
  3
C4
350
60
  3
C5
350
61
  3
C6
350
62
  3
C7
350
63
  3
C8
350
64
  3
C9
350
65
  3
D0
350
66
  3
D1
350
67
  3
D2
350
68
  0
LAYOUT
  5
1E
102
{ACAD_REACTORS
330
1A
102
}
330
1A
100
AcDbPlotSettings
  1

  2
none_device
  4

  6

 40
0.0
 41
0.0
 42
0.0
 43
0.0
 44
0.0
 45
0.0
 46
0.0
 47
0.0
 48
0.0
 49
0.0
140
0.0
141
0.0
142
1.0
143
1.0
 70
   688
 72
     1
 73
     0
 74
     5
  7

 75
    16
147
1.0
148
0.0
149
0.0
100
AcDbLayout
  1
Layout1
 70
     1
 71
     1
 10
0.0
 20
0.0
 11
420.0
 21
297.0
 12
0.0
 22
0.0
 32
0.0
 14
1.0000000000E+20
 24
1.0000000000E+20
 34
1.0000000000E+20
 15
-1.0000000000E+20
 25
-1.0000000000E+20
 35
-1.0000000000E+20
146
0.0
 13
0.0
 23
0.0
 33
0.0
 16
1.0
 26
0.0
 36
0.0
 17
0.0
 27
1.0
 37
0.0
 76
     0
330
1B
  0
LAYOUT
  5
26
102
{ACAD_REACTORS
330
1A
102
}
330
1A
100
AcDbPlotSettings
  1

  2
none_device
  4

  6

 40
0.0
 41
0.0
 42
0.0
 43
0.0
 44
0.0
 45
0.0
 46
0.0
 47
0.0
 48
0.0
 49
0.0
140
0.0
141
0.0
142
1.0
143
1.0
 70
   688
 72
     1
 73
     0
 74
     5
  7

 75
    16
147
1.0
148
0.0
149
0.0
100
AcDbLayout
  1
Layout2
 70
     1
 71
     2
 10
0.0
 20
0.0
 11
0.0
 21
0.0
 12
0.0
 22
0.0
 32
0.0
 14
0.0
 24
0.0
 34
0.0
 15
0.0
 25
0.0
 35
0.0
146
0.0
 13
0.0
 23
0.0
 33
0.0
 16
1.0
 26
0.0
 36
0.0
 17
0.0
 27
1.0
 37
0.0
 76
     0
330
23
  0
LAYOUT
  5
22
102
{ACAD_REACTORS
330
1A
102
}
330
1A
100
AcDbPlotSettings
  1

  2
none_device
  4
ANSI_A_(11.00_x_8.50_Inches)
  6

 40
6.35
 41
19.05
 42
6.35000508
 43
19.05000254
 44
279.4
 45
215.9
 46
271.65299746
 47
80.3176204904
 48
0.0
 49
0.0
140
0.0
141
0.0
142
0.0333406277
143
1.0
 70
  1696
 72
     0
 73
     0
 74
     0
  7

 75
     0
147
0.0179189148
148
-1300.4909072572
149
0.0
100
AcDbLayout
  1
Model
 70
     1
 71
     0
 10
0.0
 20
0.0
 11
420.0
 21
297.0
 12
0.0
 22
0.0
 32
0.0
 14
-326.6285232377
 24
-57.6693752886
 34
0.0
 15
0.0
 25
77.9382742299
 35
0.0
146
0.0
 13
0.0
 23
0.0
 33
0.0
 16
1.0
 26
0.0
 36
0.0
 17
0.0
 27
1.0
 37
0.0
 76
     0
330
1F
331
29
  0
MLINESTYLE
  5
18
102
{ACAD_REACTORS
330
17
102
}
330
17
100
AcDbMlineStyle
  2
Standard
 70
     0
  3

 62
   256
 51
90.0
 52
90.0
 71
     2
 49
0.5
 62
   256
  6
BYLAYER
 49
-0.5
 62
   256
  6
BYLAYER
  0
ACDBPLACEHOLDER
  5
F
102
{ACAD_REACTORS
330
E
102
}
330
E
  0
SCALE
  5
48
102
{ACAD_REACTORS
330
47
102
}
330
47
100
AcDbScale
 70
     0
300
1:1
140
1.0
141
1.0
290
     1
  0
SCALE
  5
49
102
{ACAD_REACTORS
330
47
102
}
330
47
100
AcDbScale
 70
     0
300
1:2
140
1.0
141
2.0
290
     0
  0
SCALE
  5
4A
102
{ACAD_REACTORS
330
47
102
}
330
47
100
AcDbScale
 70
     0
300
1:4
140
1.0
141
4.0
290
     0
  0
SCALE
  5
4B
102
{ACAD_REACTORS
330
47
102
}
330
47
100
AcDbScale
 70
     0
300
1:5
140
1.0
141
5.0
290
     0
  0
SCALE
  5
4C
102
{ACAD_REACTORS
330
47
102
}
330
47
100
AcDbScale
 70
     0
300
1:8
140
1.0
141
8.0
290
     0
  0
SCALE
  5
4D
102
{ACAD_REACTORS
330
47
102
}
330
47
100
AcDbScale
 70
     0
300
1:10
140
1.0
141
10.0
290
     0
  0
SCALE
  5
4E
102
{ACAD_REACTORS
330
47
102
}
330
47
100
AcDbScale
 70
     0
300
1:16
140
1.0
141
16.0
290
     0
  0
SCALE
  5
4F
102
{ACAD_REACTORS
330
47
102
}
330
47
100
AcDbScale
 70
     0
300
1:20
140
1.0
141
20.0
290
     0
  0
SCALE
  5
50
102
{ACAD_REACTORS
330
47
102
}
330
47
100
AcDbScale
 70
     0
300
1:30
140
1.0
141
30.0
290
     0
  0
SCALE
  5
51
102
{ACAD_REACTORS
330
47
102
}
330
47
100
AcDbScale
 70
     0
300
1:40
140
1.0
141
40.0
290
     0
  0
SCALE
  5
52
102
{ACAD_REACTORS
330
47
102
}
330
47
100
AcDbScale
 70
     0
300
1:50
140
1.0
141
50.0
290
     0
  0
SCALE
  5
53
102
{ACAD_REACTORS
330
47
102
}
330
47
100
AcDbScale
 70
     0
300
1:100
140
1.0
141
100.0
290
     0
  0
SCALE
  5
54
102
{ACAD_REACTORS
330
47
102
}
330
47
100
AcDbScale
 70
     0
300
2:1
140
2.0
141
1.0
290
     0
  0
SCALE
  5
55
102
{ACAD_REACTORS
330
47
102
}
330
47
100
AcDbScale
 70
     0
300
4:1
140
4.0
141
1.0
290
     0
  0
SCALE
  5
56
102
{ACAD_REACTORS
330
47
102
}
330
47
100
AcDbScale
 70
     0
300
8:1
140
8.0
141
1.0
290
     0
  0
SCALE
  5
57
102
{ACAD_REACTORS
330
47
102
}
330
47
100
AcDbScale
 70
     0
300
10:1
140
10.0
141
1.0
290
     0
  0
SCALE
  5
58
102
{ACAD_REACTORS
330
47
102
}
330
47
100
AcDbScale
 70
     0
300
100:1
140
100.0
141
1.0
290
     0
  0
SCALE
  5
59
102
{ACAD_REACTORS
330
47
102
}
330
47
100
AcDbScale
 70
     0
300
1/128" = 1'-0"
140
0.0078125
141
12.0
290
     0
  0
SCALE
  5
5A
102
{ACAD_REACTORS
330
47
102
}
330
47
100
AcDbScale
 70
     0
300
1/64" = 1'-0"
140
0.015625
141
12.0
290
     0
  0
SCALE
  5
5B
102
{ACAD_REACTORS
330
47
102
}
330
47
100
AcDbScale
 70
     0
300
1/32" = 1'-0"
140
0.03125
141
12.0
290
     0
  0
SCALE
  5
5C
102
{ACAD_REACTORS
330
47
102
}
330
47
100
AcDbScale
 70
     0
300
1/16" = 1'-0"
140
0.0625
141
12.0
290
     0
  0
SCALE
  5
5D
102
{ACAD_REACTORS
330
47
102
}
330
47
100
AcDbScale
 70
     0
300
3/32" = 1'-0"
140
0.09375
141
12.0
290
     0
  0
SCALE
  5
5E
102
{ACAD_REACTORS
330
47
102
}
330
47
100
AcDbScale
 70
     0
300
1/8" = 1'-0"
140
0.125
141
12.0
290
     0
  0
SCALE
  5
5F
102
{ACAD_REACTORS
330
47
102
}
330
47
100
AcDbScale
 70
     0
300
3/16" = 1'-0"
140
0.1875
141
12.0
290
     0
  0
SCALE
  5
60
102
{ACAD_REACTORS
330
47
102
}
330
47
100
AcDbScale
 70
     0
300
1/4" = 1'-0"
140
0.25
141
12.0
290
     0
  0
SCALE
  5
61
102
{ACAD_REACTORS
330
47
102
}
330
47
100
AcDbScale
 70
     0
300
3/8" = 1'-0"
140
0.375
141
12.0
290
     0
  0
SCALE
  5
62
102
{ACAD_REACTORS
330
47
102
}
330
47
100
AcDbScale
 70
     0
300
1/2" = 1'-0"
140
0.5
141
12.0
290
     0
  0
SCALE
  5
63
102
{ACAD_REACTORS
330
47
102
}
330
47
100
AcDbScale
 70
     0
300
3/4" = 1'-0"
140
0.75
141
12.0
290
     0
  0
SCALE
  5
64
102
{ACAD_REACTORS
330
47
102
}
330
47
100
AcDbScale
 70
     0
300
1" = 1'-0"
140
1.0
141
12.0
290
     0
  0
SCALE
  5
65
102
{ACAD_REACTORS
330
47
102
}
330
47
100
AcDbScale
 70
     0
300
1-1/2" = 1'-0"
140
1.5
141
12.0
290
     0
  0
SCALE
  5
66
102
{ACAD_REACTORS
330
47
102
}
330
47
100
AcDbScale
 70
     0
300
3" = 1'-0"
140
3.0
141
12.0
290
     0
  0
SCALE
  5
67
102
{ACAD_REACTORS
330
47
102
}
330
47
100
AcDbScale
 70
     0
300
6" = 1'-0"
140
6.0
141
12.0
290
     0
  0
SCALE
  5
68
102
{ACAD_REACTORS
330
47
102
}
330
47
100
AcDbScale
 70
     0
300
1'-0" = 1'-0"
140
12.0
141
12.0
290
     0
  0
ENDSEC
  0
EOF
