  0
SECTION
  2
HEADER
  9
$ACADVER
  1
AC1014
  9
$HANDSEED
  5
FFFF
  9
$MEASUREMENT
 70
     1
  0
ENDSEC
  0
SECTION
  2
TABLES
  0
TABLE
  2
VPORT
  5
8
330
0
100
AcDbSymbolTable
 70
     4
  0
VPORT
  5
2E
330
8
100
AcDbSymbolTableRecord
100
AcDbViewportTableRecord
  2
*ACTIVE
 70
     0
 10
0.0
 20
0.0
 11
1.0
 21
1.0
 12
210.0
 22
148.5
 13
0.0
 23
0.0
 14
10.0
 24
10.0
 15
10.0
 25
10.0
 16
0.0
 26
0.0
 36
1.0
 17
0.0
 27
0.0
 37
0.0
 40
341.0
 41
1.24
 42
50.0
 43
0.0
 44
0.0
 50
0.0
 51
0.0
 71
     0
 72
   100
 73
     1
 74
     3
 75
     0
 76
     0
 77
     0
 78
     0
  0
ENDTAB
  0
TABLE
  2
LTYPE
  5
5
330
0
100
AcDbSymbolTable
 70
     1
  0
LTYPE
  5
14
330
5
100
AcDbSymbolTableRecord
100
AcDbLinetypeTableRecord
  2
BYBLOCK
 70
     0
  3

 72
    65
 73
     0
 40
0.0
  0
LTYPE
  5
15
330
5
100
AcDbSymbolTableRecord
100
AcDbLinetypeTableRecord
  2
BYLAYER
 70
     0
  3

 72
    65
 73
     0
 40
0.0
  0
LTYPE
  5
16
330
5
100
AcDbSymbolTableRecord
100
AcDbLinetypeTableRecord
  2
CONTINUOUS
 70
     0
  3
Solid line
 72
    65
 73
     0
 40
0.0
  0
ENDTAB
  0
TABLE
  2
LAYER
  5
2
100
AcDbSymbolTable
 70
1
  0
LAYER
  5
50
100
AcDbSymbolTableRecord
100
AcDbLayerTableRecord
  2
0
 70
0
  6
CONTINUOUS
  0
ENDTAB
  0
TABLE
  2
STYLE
  5
3
330
0
100
AcDbSymbolTable
 70
     1
  0
STYLE
  5
11
330
3
100
AcDbSymbolTableRecord
100
AcDbTextStyleTableRecord
  2
STANDARD
 70
     0
 40
0.0
 41
1.0
 50
0.0
 71
     0
 42
2.5
  3
txt
  4

  0
ENDTAB
  0
TABLE
  2
VIEW
  5
6
330
0
100
AcDbSymbolTable
 70
     0
  0
ENDTAB
  0
TABLE
  2
UCS
  5
7
330
0
100
AcDbSymbolTable
 70
     0
  0
ENDTAB
  0
TABLE
  2
APPID
  5
9
330
0
100
AcDbSymbolTable
 70
     2
  0
APPID
  5
12
330
9
100
AcDbSymbolTableRecord
100
AcDbRegAppTableRecord
  2
ACAD
 70
     0
  0
ENDTAB
  0
TABLE
  2
DIMSTYLE
  5
A
330
0
100
AcDbSymbolTable
 70
     1
  0
DIMSTYLE
105
27
330
A
100
AcDbSymbolTableRecord
100
AcDbDimStyleTableRecord
  2
ISO-25
 70
     0
  3

  4

  5

  6

  7

 40
1.0
 41
2.5
 42
0.625
 43
3.75
 44
1.25
 45
0.0
 46
0.0
 47
0.0
 48
0.0
140
2.5
141
2.5
142
0.0
143
0.03937007874016
144
1.0
145
0.0
146
1.0
147
0.625
 71
     0
 72
     0
 73
     0
 74
     0
 75
     0
 76
     0
 77
     1
 78
     8
170
     0
171
     3
172
     1
173
     0
174
     0
175
     0
176
     0
177
     0
178
     0
270
     2
271
     2
272
     2
273
     2
274
     3
340
11
275
     0
280
     0
281
     0
282
     0
283
     0
284
     8
285
     0
286
     0
287
     3
288
     0
  0
ENDTAB
  0
TABLE
  2
BLOCK_RECORD
  5
1
330
0
100
AcDbSymbolTable
 70
     1
  0
BLOCK_RECORD
  5
1F
330
1
100
AcDbSymbolTableRecord
100
AcDbBlockTableRecord
  2
*MODEL_SPACE
  0
BLOCK_RECORD
  5
1B
330
1
100
AcDbSymbolTableRecord
100
AcDbBlockTableRecord
  2
*PAPER_SPACE
  0
ENDTAB
  0
ENDSEC
  0
SECTION
  2
BLOCKS
  0
BLOCK
  5
20
330
1F
100
AcDbEntity
  8
0
100
AcDbBlockBegin
  2
*MODEL_SPACE
 70
     0
 10
0.0
 20
0.0
 30
0.0
  3
*MODEL_SPACE
  1

  0
ENDBLK
  5
21
330
1F
100
AcDbEntity
  8
0
100
AcDbBlockEnd
  0
BLOCK
  5
1C
330
1B
100
AcDbEntity
 67
     1
  8
0
100
AcDbBlockBegin
  2
*PAPER_SPACE
  1

  0
ENDBLK
  5
1D
330
1B
100
AcDbEntity
 67
     1
  8
0
100
AcDbBlockEnd
  0
ENDSEC
  0
SECTION
  2
ENTITIES
  0
LWPOLYLINE
  5
100
100
AcDbEntity
  8
0
 62
7
100
AcDbPolyline
 90
477
 70
1
 10
18.000015
 20
258.944867
 30
0.0
 10
30.047268
 20
258.944867
 30
0.0
 10
30.047268
 20
250.440923
 30
0.0
 10
42.094523
 20
250.440923
 30
0.0
 10
42.094523
 20
258.944867
 30
0.0
 10
50.598467
 20
258.944867
 30
0.0
 10
50.598467
 20
250.440923
 30
0.0
 10
59.102411
 20
250.440923
 30
0.0
 10
59.102411
 20
258.944867
 30
0.0
 10
67.606355
 20
258.944867
 30
0.0
 10
67.606355
 20
250.440923
 30
0.0
 10
76.110299
 20
250.440923
 30
0.0
 10
76.110299
 20
258.944867
 30
0.0
 10
84.614243
 20
258.944867
 30
0.0
 10
84.614243
 20
250.440923
 30
0.0
 10
93.118187
 20
250.440923
 30
0.0
 10
93.118187
 20
258.944867
 30
0.0
 10
101.622127
 20
258.944867
 30
0.0
 10
101.622127
 20
250.440923
 30
0.0
 10
110.126071
 20
250.440923
 30
0.0
 10
110.126071
 20
258.944867
 30
0.0
 10
118.630015
 20
258.944867
 30
0.0
 10
118.630015
 20
250.440923
 30
0.0
 10
127.133959
 20
250.440923
 30
0.0
 10
127.133959
 20
258.944867
 30
0.0
 10
135.637911
 20
258.944867
 30
0.0
 10
135.637911
 20
250.440923
 30
0.0
 10
144.141847
 20
250.440923
 30
0.0
 10
144.141847
 20
258.944867
 30
0.0
 10
152.645791
 20
258.944867
 30
0.0
 10
152.645791
 20
250.440923
 30
0.0
 10
161.149735
 20
250.440923
 30
0.0
 10
161.149735
 20
258.944867
 30
0.0
 10
169.653679
 20
258.944867
 30
0.0
 10
169.653679
 20
250.440923
 30
0.0
 10
178.157623
 20
250.440923
 30
0.0
 10
178.157623
 20
258.944867
 30
0.0
 10
186.661567
 20
258.944867
 30
0.0
 10
186.661567
 20
250.440923
 30
0.0
 10
195.165511
 20
250.440923
 30
0.0
 10
195.165511
 20
258.944867
 30
0.0
 10
203.669455
 20
258.944867
 30
0.0
 10
203.669455
 20
250.440923
 30
0.0
 10
212.173399
 20
250.440923
 30
0.0
 10
212.173399
 20
258.944867
 30
0.0
 10
220.677343
 20
258.944867
 30
0.0
 10
220.677343
 20
250.440923
 30
0.0
 10
229.181295
 20
250.440923
 30
0.0
 10
229.181295
 20
258.944867
 30
0.0
 10
237.685239
 20
258.944867
 30
0.0
 10
237.685239
 20
250.440923
 30
0.0
 10
246.189175
 20
250.440923
 30
0.0
 10
246.189175
 20
258.944867
 30
0.0
 10
254.693119
 20
258.944867
 30
0.0
 10
254.693119
 20
250.440923
 30
0.0
 10
263.197063
 20
250.440923
 30
0.0
 10
263.197063
 20
258.944867
 30
0.0
 10
271.701007
 20
258.944867
 30
0.0
 10
271.701007
 20
250.440923
 30
0.0
 10
280.204951
 20
250.440923
 30
0.0
 10
280.204951
 20
258.944867
 30
0.0
 10
288.708895
 20
258.944867
 30
0.0
 10
288.708895
 20
250.440923
 30
0.0
 10
297.212839
 20
250.440923
 30
0.0
 10
297.212839
 20
258.944867
 30
0.0
 10
305.716783
 20
258.944867
 30
0.0
 10
305.716783
 20
250.440923
 30
0.0
 10
314.220727
 20
250.440923
 30
0.0
 10
314.220727
 20
258.944867
 30
0.0
 10
322.724671
 20
258.944867
 30
0.0
 10
322.724671
 20
250.440923
 30
0.0
 10
331.228615
 20
250.440923
 30
0.0
 10
331.228615
 20
258.944867
 30
0.0
 10
339.732559
 20
258.944867
 30
0.0
 10
339.732559
 20
250.440923
 30
0.0
 10
348.236503
 20
250.440923
 30
0.0
 10
348.236503
 20
258.944867
 30
0.0
 10
356.740447
 20
258.944867
 30
0.0
 10
356.740447
 20
250.440923
 30
0.0
 10
365.244391
 20
250.440923
 30
0.0
 10
365.244391
 20
258.944867
 30
0.0
 10
373.748335
 20
258.944867
 30
0.0
 10
373.748335
 20
250.440923
 30
0.0
 10
382.252279
 20
250.440923
 30
0.0
 10
382.252279
 20
258.944867
 30
0.0
 10
390.756223
 20
258.944867
 30
0.0
 10
390.756223
 20
250.440923
 30
0.0
 10
399.260167
 20
250.440923
 30
0.0
 10
399.260167
 20
258.944867
 30
0.0
 10
407.764111
 20
258.944867
 30
0.0
 10
407.764111
 20
250.440923
 30
0.0
 10
416.268055
 20
250.440923
 30
0.0
 10
416.268055
 20
258.944867
 30
0.0
 10
424.772007
 20
258.944867
 30
0.0
 10
424.772007
 20
250.440923
 30
0.0
 10
433.275951
 20
250.440923
 30
0.0
 10
433.275951
 20
258.944867
 30
0.0
 10
441.779895
 20
258.944867
 30
0.0
 10
441.779895
 20
250.440923
 30
0.0
 10
450.283839
 20
250.440923
 30
0.0
 10
450.283839
 20
258.944867
 30
0.0
 10
458.787783
 20
258.944867
 30
0.0
 10
458.787783
 20
250.440923
 30
0.0
 10
467.291727
 20
250.440923
 30
0.0
 10
467.291727
 20
258.944867
 30
0.0
 10
475.795671
 20
258.944867
 30
0.0
 10
475.795671
 20
250.440923
 30
0.0
 10
484.299615
 20
250.440923
 30
0.0
 10
484.299615
 20
258.944867
 30
0.0
 10
492.803559
 20
258.944867
 30
0.0
 10
492.803559
 20
250.440923
 30
0.0
 10
501.307503
 20
250.440923
 30
0.0
 10
501.307503
 20
258.944867
 30
0.0
 10
509.811447
 20
258.944867
 30
0.0
 10
509.811447
 20
250.440923
 30
0.0
 10
518.315391
 20
250.440923
 30
0.0
 10
518.315391
 20
258.944867
 30
0.0
 10
526.819335
 20
258.944867
 30
0.0
 10
526.819335
 20
250.440923
 30
0.0
 10
535.323279
 20
250.440923
 30
0.0
 10
535.323279
 20
258.944867
 30
0.0
 10
543.827223
 20
258.944867
 30
0.0
 10
543.827223
 20
250.440923
 30
0.0
 10
552.331167
 20
250.440923
 30
0.0
 10
552.331167
 20
258.944867
 30
0.0
 10
560.835111
 20
258.944867
 30
0.0
 10
560.835111
 20
250.440923
 30
0.0
 10
569.339055
 20
250.440923
 30
0.0
 10
569.339055
 20
258.944867
 30
0.0
 10
577.842999
 20
258.944867
 30
0.0
 10
577.842999
 20
250.440923
 30
0.0
 10
586.346943
 20
250.440923
 30
0.0
 10
586.346943
 20
258.944867
 30
0.0
 10
594.850879
 20
258.944867
 30
0.0
 10
594.850879
 20
250.440923
 30
0.0
 10
603.354831
 20
250.440923
 30
0.0
 10
603.354831
 20
258.944867
 30
0.0
 10
611.858767
 20
258.944867
 30
0.0
 10
611.858767
 20
250.440923
 30
0.0
 10
620.362719
 20
250.440923
 30
0.0
 10
620.362719
 20
258.944867
 30
0.0
 10
628.866655
 20
258.944867
 30
0.0
 10
628.866655
 20
250.440923
 30
0.0
 10
637.370607
 20
250.440923
 30
0.0
 10
637.370607
 20
258.944867
 30
0.0
 10
645.874543
 20
258.944867
 30
0.0
 10
645.874543
 20
250.440923
 30
0.0
 10
654.378495
 20
250.440923
 30
0.0
 10
654.378495
 20
258.944867
 30
0.0
 10
662.882431
 20
258.944867
 30
0.0
 10
662.882431
 20
250.440923
 30
0.0
 10
671.386383
 20
250.440923
 30
0.0
 10
671.386383
 20
258.944867
 30
0.0
 10
679.890319
 20
258.944867
 30
0.0
 10
679.890319
 20
250.440923
 30
0.0
 10
688.394271
 20
250.440923
 30
0.0
 10
688.394271
 20
258.944867
 30
0.0
 10
696.898207
 20
258.944867
 30
0.0
 10
696.898207
 20
250.440923
 30
0.0
 10
705.402159
 20
250.440923
 30
0.0
 10
705.402159
 20
258.944867
 30
0.0
 10
713.906095
 20
258.944867
 30
0.0
 10
713.906095
 20
250.440923
 30
0.0
 10
722.410047
 20
250.440923
 30
0.0
 10
722.410047
 20
258.944867
 30
0.0
 10
730.913991
 20
258.944867
 30
0.0
 10
730.913991
 20
250.440923
 30
0.0
 10
739.417935
 20
250.440923
 30
0.0
 10
739.417935
 20
258.944867
 30
0.0
 10
747.921879
 20
258.944867
 30
0.0
 10
747.921879
 20
250.440923
 30
0.0
 10
756.425823
 20
250.440923
 30
0.0
 10
756.425823
 20
258.944867
 30
0.0
 10
764.929767
 20
258.944867
 30
0.0
 10
764.929767
 20
250.440923
 30
0.0
 10
773.433711
 20
250.440923
 30
0.0
 10
773.433711
 20
258.944867
 30
0.0
 10
781.937655
 20
258.944867
 30
0.0
 10
781.937655
 20
250.440923
 30
0.0
 10
790.441599
 20
250.440923
 30
0.0
 10
790.441599
 20
258.944867
 30
0.0
 10
798.945543
 20
258.944867
 30
0.0
 10
798.945543
 20
250.440923
 30
0.0
 10
807.449487
 20
250.440923
 30
0.0
 10
807.449487
 20
258.944867
 30
0.0
 10
815.953431
 20
258.944867
 30
0.0
 10
815.953431
 20
250.440923
 30
0.0
 10
824.457375
 20
250.440923
 30
0.0
 10
824.457375
 20
258.944867
 30
0.0
 10
832.961295
 20
258.944867
 30
0.0
 10
832.961295
 20
250.440923
 30
0.0
 10
841.465295
 20
250.440923
 30
0.0
 10
841.465295
 20
258.944867
 30
0.0
 10
849.969215
 20
258.944867
 30
0.0
 10
849.969215
 20
250.440923
 30
0.0
 10
858.473135
 20
250.440923
 30
0.0
 10
858.473135
 20
258.944867
 30
0.0
 10
866.977055
 20
258.944867
 30
0.0
 10
866.977055
 20
250.440923
 30
0.0
 10
875.481055
 20
250.440923
 30
0.0
 10
875.481055
 20
258.944867
 30
0.0
 10
883.984975
 20
258.944867
 30
0.0
 10
883.984975
 20
250.440923
 30
0.0
 10
892.488895
 20
250.440923
 30
0.0
 10
892.488895
 20
258.944867
 30
0.0
 10
900.992895
 20
258.944867
 30
0.0
 10
900.992895
 20
250.440923
 30
0.0
 10
909.496815
 20
250.440923
 30
0.0
 10
909.496815
 20
258.944867
 30
0.0
 10
918.000735
 20
258.944867
 30
0.0
 10
918.000735
 20
250.440923
 30
0.0
 10
926.504735
 20
250.440923
 30
0.0
 10
926.504735
 20
258.944867
 30
0.0
 10
935.008655
 20
258.944867
 30
0.0
 10
935.008655
 20
250.440923
 30
0.0
 10
943.512575
 20
250.440923
 30
0.0
 10
943.512575
 20
258.944867
 30
0.0
 10
952.016495
 20
258.944867
 30
0.0
 10
952.016495
 20
250.440923
 30
0.0
 10
960.520495
 20
250.440923
 30
0.0
 10
960.520495
 20
258.944867
 30
0.0
 10
969.024415
 20
258.944867
 30
0.0
 10
969.024415
 20
250.440923
 30
0.0
 10
977.528335
 20
250.440923
 30
0.0
 10
977.528335
 20
258.944867
 30
0.0
 10
986.032335
 20
258.944867
 30
0.0
 10
986.032335
 20
250.440923
 30
0.0
 10
998.079535
 20
250.440923
 30
0.0
 10
998.079535
 20
258.944867
 30
0.0
 10
1010.126815
 20
258.944867
 30
0.0
 10
1010.126815
 20
253.275571
 30
0.0
 10
1001.622895
 20
253.275571
 30
0.0
 10
1001.622895
 20
247.606275
 30
0.0
 10
1010.126815
 20
247.606275
 30
0.0
 10
1010.126815
 20
241.936979
 30
0.0
 10
1001.622895
 20
241.936979
 30
0.0
 10
1001.622895
 20
236.267683
 30
0.0
 10
1010.126815
 20
236.267683
 30
0.0
 10
1010.126815
 20
230.598387
 30
0.0
 10
998.079535
 20
230.598387
 30
0.0
 10
998.079535
 20
239.102331
 30
0.0
 10
986.032335
 20
239.102331
 30
0.0
 10
986.032335
 20
230.598387
 30
0.0
 10
977.528335
 20
230.598387
 30
0.0
 10
977.528335
 20
239.102331
 30
0.0
 10
969.024415
 20
239.102331
 30
0.0
 10
969.024415
 20
230.598387
 30
0.0
 10
960.520495
 20
230.598387
 30
0.0
 10
960.520495
 20
239.102331
 30
0.0
 10
952.016495
 20
239.102331
 30
0.0
 10
952.016495
 20
230.598387
 30
0.0
 10
943.512575
 20
230.598387
 30
0.0
 10
943.512575
 20
239.102331
 30
0.0
 10
935.008655
 20
239.102331
 30
0.0
 10
935.008655
 20
230.598387
 30
0.0
 10
926.504735
 20
230.598387
 30
0.0
 10
926.504735
 20
239.102331
 30
0.0
 10
918.000735
 20
239.102331
 30
0.0
 10
918.000735
 20
230.598387
 30
0.0
 10
909.496815
 20
230.598387
 30
0.0
 10
909.496815
 20
239.102331
 30
0.0
 10
900.992895
 20
239.102331
 30
0.0
 10
900.992895
 20
230.598387
 30
0.0
 10
892.488895
 20
230.598387
 30
0.0
 10
892.488895
 20
239.102331
 30
0.0
 10
883.984975
 20
239.102331
 30
0.0
 10
883.984975
 20
230.598387
 30
0.0
 10
875.481055
 20
230.598387
 30
0.0
 10
875.481055
 20
239.102331
 30
0.0
 10
866.977055
 20
239.102331
 30
0.0
 10
866.977055
 20
230.598387
 30
0.0
 10
858.473135
 20
230.598387
 30
0.0
 10
858.473135
 20
239.102331
 30
0.0
 10
849.969215
 20
239.102331
 30
0.0
 10
849.969215
 20
230.598387
 30
0.0
 10
841.465295
 20
230.598387
 30
0.0
 10
841.465295
 20
239.102331
 30
0.0
 10
832.961295
 20
239.102331
 30
0.0
 10
832.961295
 20
230.598387
 30
0.0
 10
824.457375
 20
230.598387
 30
0.0
 10
824.457375
 20
239.102331
 30
0.0
 10
815.953431
 20
239.102331
 30
0.0
 10
815.953431
 20
230.598387
 30
0.0
 10
807.449487
 20
230.598387
 30
0.0
 10
807.449487
 20
239.102331
 30
0.0
 10
798.945543
 20
239.102331
 30
0.0
 10
798.945543
 20
230.598387
 30
0.0
 10
790.441599
 20
230.598387
 30
0.0
 10
790.441599
 20
239.102331
 30
0.0
 10
781.937655
 20
239.102331
 30
0.0
 10
781.937655
 20
230.598387
 30
0.0
 10
773.433711
 20
230.598387
 30
0.0
 10
773.433711
 20
239.102331
 30
0.0
 10
764.929767
 20
239.102331
 30
0.0
 10
764.929767
 20
230.598387
 30
0.0
 10
756.425823
 20
230.598387
 30
0.0
 10
756.425823
 20
239.102331
 30
0.0
 10
747.921879
 20
239.102331
 30
0.0
 10
747.921879
 20
230.598387
 30
0.0
 10
739.417935
 20
230.598387
 30
0.0
 10
739.417935
 20
239.102331
 30
0.0
 10
730.913991
 20
239.102331
 30
0.0
 10
730.913991
 20
230.598387
 30
0.0
 10
722.410047
 20
230.598387
 30
0.0
 10
722.410047
 20
239.102331
 30
0.0
 10
713.906095
 20
239.102331
 30
0.0
 10
713.906095
 20
230.598387
 30
0.0
 10
705.402159
 20
230.598387
 30
0.0
 10
705.402159
 20
239.102331
 30
0.0
 10
696.898207
 20
239.102331
 30
0.0
 10
696.898207
 20
230.598387
 30
0.0
 10
688.394271
 20
230.598387
 30
0.0
 10
688.394271
 20
239.102331
 30
0.0
 10
679.890319
 20
239.102331
 30
0.0
 10
679.890319
 20
230.598387
 30
0.0
 10
671.386383
 20
230.598387
 30
0.0
 10
671.386383
 20
239.102331
 30
0.0
 10
662.882431
 20
239.102331
 30
0.0
 10
662.882431
 20
230.598387
 30
0.0
 10
654.378495
 20
230.598387
 30
0.0
 10
654.378495
 20
239.102331
 30
0.0
 10
645.874543
 20
239.102331
 30
0.0
 10
645.874543
 20
230.598387
 30
0.0
 10
637.370607
 20
230.598387
 30
0.0
 10
637.370607
 20
239.102331
 30
0.0
 10
628.866655
 20
239.102331
 30
0.0
 10
628.866655
 20
230.598387
 30
0.0
 10
620.362719
 20
230.598387
 30
0.0
 10
620.362719
 20
239.102331
 30
0.0
 10
611.858767
 20
239.102331
 30
0.0
 10
611.858767
 20
230.598387
 30
0.0
 10
603.354831
 20
230.598387
 30
0.0
 10
603.354831
 20
239.102331
 30
0.0
 10
594.850879
 20
239.102331
 30
0.0
 10
594.850879
 20
230.598387
 30
0.0
 10
586.346943
 20
230.598387
 30
0.0
 10
586.346943
 20
239.102331
 30
0.0
 10
577.842999
 20
239.102331
 30
0.0
 10
577.842999
 20
230.598387
 30
0.0
 10
569.339055
 20
230.598387
 30
0.0
 10
569.339055
 20
239.102331
 30
0.0
 10
560.835111
 20
239.102331
 30
0.0
 10
560.835111
 20
230.598387
 30
0.0
 10
552.331167
 20
230.598387
 30
0.0
 10
552.331167
 20
239.102331
 30
0.0
 10
543.827223
 20
239.102331
 30
0.0
 10
543.827223
 20
230.598387
 30
0.0
 10
535.323279
 20
230.598387
 30
0.0
 10
535.323279
 20
239.102331
 30
0.0
 10
526.819335
 20
239.102331
 30
0.0
 10
526.819335
 20
230.598387
 30
0.0
 10
518.315391
 20
230.598387
 30
0.0
 10
518.315391
 20
239.102331
 30
0.0
 10
509.811447
 20
239.102331
 30
0.0
 10
509.811447
 20
230.598387
 30
0.0
 10
501.307503
 20
230.598387
 30
0.0
 10
501.307503
 20
239.102331
 30
0.0
 10
492.803559
 20
239.102331
 30
0.0
 10
492.803559
 20
230.598387
 30
0.0
 10
484.299615
 20
230.598387
 30
0.0
 10
484.299615
 20
239.102331
 30
0.0
 10
475.795671
 20
239.102331
 30
0.0
 10
475.795671
 20
230.598387
 30
0.0
 10
467.291727
 20
230.598387
 30
0.0
 10
467.291727
 20
239.102331
 30
0.0
 10
458.787783
 20
239.102331
 30
0.0
 10
458.787783
 20
230.598387
 30
0.0
 10
450.283839
 20
230.598387
 30
0.0
 10
450.283839
 20
239.102331
 30
0.0
 10
441.779895
 20
239.102331
 30
0.0
 10
441.779895
 20
230.598387
 30
0.0
 10
433.275951
 20
230.598387
 30
0.0
 10
433.275951
 20
239.102331
 30
0.0
 10
424.772007
 20
239.102331
 30
0.0
 10
424.772007
 20
230.598387
 30
0.0
 10
416.268055
 20
230.598387
 30
0.0
 10
416.268055
 20
239.102331
 30
0.0
 10
407.764111
 20
239.102331
 30
0.0
 10
407.764111
 20
230.598387
 30
0.0
 10
399.260167
 20
230.598387
 30
0.0
 10
399.260167
 20
239.102331
 30
0.0
 10
390.756223
 20
239.102331
 30
0.0
 10
390.756223
 20
230.598387
 30
0.0
 10
382.252279
 20
230.598387
 30
0.0
 10
382.252279
 20
239.102331
 30
0.0
 10
373.748335
 20
239.102331
 30
0.0
 10
373.748335
 20
230.598387
 30
0.0
 10
365.244391
 20
230.598387
 30
0.0
 10
365.244391
 20
239.102331
 30
0.0
 10
356.740447
 20
239.102331
 30
0.0
 10
356.740447
 20
230.598387
 30
0.0
 10
348.236503
 20
230.598387
 30
0.0
 10
348.236503
 20
239.102331
 30
0.0
 10
339.732559
 20
239.102331
 30
0.0
 10
339.732559
 20
230.598387
 30
0.0
 10
331.228615
 20
230.598387
 30
0.0
 10
331.228615
 20
239.102331
 30
0.0
 10
322.724671
 20
239.102331
 30
0.0
 10
322.724671
 20
230.598387
 30
0.0
 10
314.220727
 20
230.598387
 30
0.0
 10
314.220727
 20
239.102331
 30
0.0
 10
305.716783
 20
239.102331
 30
0.0
 10
305.716783
 20
230.598387
 30
0.0
 10
297.212839
 20
230.598387
 30
0.0
 10
297.212839
 20
239.102331
 30
0.0
 10
288.708895
 20
239.102331
 30
0.0
 10
288.708895
 20
230.598387
 30
0.0
 10
280.204951
 20
230.598387
 30
0.0
 10
280.204951
 20
239.102331
 30
0.0
 10
271.701007
 20
239.102331
 30
0.0
 10
271.701007
 20
230.598387
 30
0.0
 10
263.197063
 20
230.598387
 30
0.0
 10
263.197063
 20
239.102331
 30
0.0
 10
254.693119
 20
239.102331
 30
0.0
 10
254.693119
 20
230.598387
 30
0.0
 10
246.189175
 20
230.598387
 30
0.0
 10
246.189175
 20
239.102331
 30
0.0
 10
237.685239
 20
239.102331
 30
0.0
 10
237.685239
 20
230.598387
 30
0.0
 10
229.181295
 20
230.598387
 30
0.0
 10
229.181295
 20
239.102331
 30
0.0
 10
220.677343
 20
239.102331
 30
0.0
 10
220.677343
 20
230.598387
 30
0.0
 10
212.173399
 20
230.598387
 30
0.0
 10
212.173399
 20
239.102331
 30
0.0
 10
203.669455
 20
239.102331
 30
0.0
 10
203.669455
 20
230.598387
 30
0.0
 10
195.165511
 20
230.598387
 30
0.0
 10
195.165511
 20
239.102331
 30
0.0
 10
186.661567
 20
239.102331
 30
0.0
 10
186.661567
 20
230.598387
 30
0.0
 10
178.157623
 20
230.598387
 30
0.0
 10
178.157623
 20
239.102331
 30
0.0
 10
169.653679
 20
239.102331
 30
0.0
 10
169.653679
 20
230.598387
 30
0.0
 10
161.149735
 20
230.598387
 30
0.0
 10
161.149735
 20
239.102331
 30
0.0
 10
152.645791
 20
239.102331
 30
0.0
 10
152.645791
 20
230.598387
 30
0.0
 10
144.141847
 20
230.598387
 30
0.0
 10
144.141847
 20
239.102331
 30
0.0
 10
135.637911
 20
239.102331
 30
0.0
 10
135.637911
 20
230.598387
 30
0.0
 10
127.133959
 20
230.598387
 30
0.0
 10
127.133959
 20
239.102331
 30
0.0
 10
118.630015
 20
239.102331
 30
0.0
 10
118.630015
 20
230.598387
 30
0.0
 10
110.126071
 20
230.598387
 30
0.0
 10
110.126071
 20
239.102331
 30
0.0
 10
101.622127
 20
239.102331
 30
0.0
 10
101.622127
 20
230.598387
 30
0.0
 10
93.118187
 20
230.598387
 30
0.0
 10
93.118187
 20
239.102331
 30
0.0
 10
84.614243
 20
239.102331
 30
0.0
 10
84.614243
 20
230.598387
 30
0.0
 10
76.110299
 20
230.598387
 30
0.0
 10
76.110299
 20
239.102331
 30
0.0
 10
67.606355
 20
239.102331
 30
0.0
 10
67.606355
 20
230.598387
 30
0.0
 10
59.102411
 20
230.598387
 30
0.0
 10
59.102411
 20
239.102331
 30
0.0
 10
50.598467
 20
239.102331
 30
0.0
 10
50.598467
 20
230.598387
 30
0.0
 10
42.094523
 20
230.598387
 30
0.0
 10
42.094523
 20
239.102331
 30
0.0
 10
30.047268
 20
239.102331
 30
0.0
 10
30.047268
 20
230.598387
 30
0.0
 10
18.000015
 20
230.598387
 30
0.0
 10
18.000015
 20
236.267683
 30
0.0
 10
26.503959
 20
236.267683
 30
0.0
 10
26.503959
 20
241.936979
 30
0.0
 10
18.000015
 20
241.936979
 30
0.0
 10
18.000015
 20
247.606275
 30
0.0
 10
26.503959
 20
247.606275
 30
0.0
 10
26.503959
 20
253.275571
 30
0.0
 10
18.000015
 20
253.275571
 30
0.0
 10
18.000015
 20
258.944867
 30
0.0
  0
LWPOLYLINE
  5
101
100
AcDbEntity
  8
0
 62
7
100
AcDbPolyline
 90
477
 70
1
 10
30.897719
 20
11.125778
 30
0.0
 10
30.897719
 20
2.621834
 30
0.0
 10
42.944974
 20
2.621834
 30
0.0
 10
42.944974
 20
11.125778
 30
0.0
 10
51.448918
 20
11.125778
 30
0.0
 10
51.448918
 20
2.621834
 30
0.0
 10
59.952862
 20
2.621834
 30
0.0
 10
59.952862
 20
11.125778
 30
0.0
 10
68.456806
 20
11.125778
 30
0.0
 10
68.456806
 20
2.621834
 30
0.0
 10
76.960750
 20
2.621834
 30
0.0
 10
76.960750
 20
11.125778
 30
0.0
 10
85.464694
 20
11.125778
 30
0.0
 10
85.464694
 20
2.621834
 30
0.0
 10
93.968638
 20
2.621834
 30
0.0
 10
93.968638
 20
11.125778
 30
0.0
 10
102.472578
 20
11.125778
 30
0.0
 10
102.472578
 20
2.621834
 30
0.0
 10
110.976522
 20
2.621834
 30
0.0
 10
110.976522
 20
11.125778
 30
0.0
 10
119.480466
 20
11.125778
 30
0.0
 10
119.480466
 20
2.621834
 30
0.0
 10
127.984418
 20
2.621834
 30
0.0
 10
127.984418
 20
11.125778
 30
0.0
 10
136.488362
 20
11.125778
 30
0.0
 10
136.488362
 20
2.621834
 30
0.0
 10
144.992298
 20
2.621834
 30
0.0
 10
144.992298
 20
11.125778
 30
0.0
 10
153.496242
 20
11.125778
 30
0.0
 10
153.496242
 20
2.621834
 30
0.0
 10
162.000186
 20
2.621834
 30
0.0
 10
162.000186
 20
11.125778
 30
0.0
 10
170.504130
 20
11.125778
 30
0.0
 10
170.504130
 20
2.621834
 30
0.0
 10
179.008074
 20
2.621834
 30
0.0
 10
179.008074
 20
11.125778
 30
0.0
 10
187.512018
 20
11.125778
 30
0.0
 10
187.512018
 20
2.621834
 30
0.0
 10
196.015962
 20
2.621834
 30
0.0
 10
196.015962
 20
11.125778
 30
0.0
 10
204.519906
 20
11.125778
 30
0.0
 10
204.519906
 20
2.621834
 30
0.0
 10
213.023850
 20
2.621834
 30
0.0
 10
213.023850
 20
11.125778
 30
0.0
 10
221.527802
 20
11.125778
 30
0.0
 10
221.527802
 20
2.621834
 30
0.0
 10
230.031746
 20
2.621834
 30
0.0
 10
230.031746
 20
11.125778
 30
0.0
 10
238.535690
 20
11.125778
 30
0.0
 10
238.535690
 20
2.621834
 30
0.0
 10
247.039626
 20
2.621834
 30
0.0
 10
247.039626
 20
11.125778
 30
0.0
 10
255.543570
 20
11.125778
 30
0.0
 10
255.543570
 20
2.621834
 30
0.0
 10
264.047514
 20
2.621834
 30
0.0
 10
264.047514
 20
11.125778
 30
0.0
 10
272.551458
 20
11.125778
 30
0.0
 10
272.551458
 20
2.621834
 30
0.0
 10
281.055402
 20
2.621834
 30
0.0
 10
281.055402
 20
11.125778
 30
0.0
 10
289.559346
 20
11.125778
 30
0.0
 10
289.559346
 20
2.621834
 30
0.0
 10
298.063290
 20
2.621834
 30
0.0
 10
298.063290
 20
11.125778
 30
0.0
 10
306.567234
 20
11.125778
 30
0.0
 10
306.567234
 20
2.621834
 30
0.0
 10
315.071178
 20
2.621834
 30
0.0
 10
315.071178
 20
11.125778
 30
0.0
 10
323.575122
 20
11.125778
 30
0.0
 10
323.575122
 20
2.621834
 30
0.0
 10
332.079066
 20
2.621834
 30
0.0
 10
332.079066
 20
11.125778
 30
0.0
 10
340.583010
 20
11.125778
 30
0.0
 10
340.583010
 20
2.621834
 30
0.0
 10
349.086954
 20
2.621834
 30
0.0
 10
349.086954
 20
11.125778
 30
0.0
 10
357.590898
 20
11.125778
 30
0.0
 10
357.590898
 20
2.621834
 30
0.0
 10
366.094850
 20
2.621834
 30
0.0
 10
366.094850
 20
11.125778
 30
0.0
 10
374.598794
 20
11.125778
 30
0.0
 10
374.598794
 20
2.621834
 30
0.0
 10
383.102738
 20
2.621834
 30
0.0
 10
383.102738
 20
11.125778
 30
0.0
 10
391.606682
 20
11.125778
 30
0.0
 10
391.606682
 20
2.621834
 30
0.0
 10
400.110626
 20
2.621834
 30
0.0
 10
400.110626
 20
11.125778
 30
0.0
 10
408.614570
 20
11.125778
 30
0.0
 10
408.614570
 20
2.621834
 30
0.0
 10
417.118514
 20
2.621834
 30
0.0
 10
417.118514
 20
11.125778
 30
0.0
 10
425.622458
 20
11.125778
 30
0.0
 10
425.622458
 20
2.621834
 30
0.0
 10
434.126402
 20
2.621834
 30
0.0
 10
434.126402
 20
11.125778
 30
0.0
 10
442.630346
 20
11.125778
 30
0.0
 10
442.630346
 20
2.621834
 30
0.0
 10
451.134290
 20
2.621834
 30
0.0
 10
451.134290
 20
11.125778
 30
0.0
 10
459.638234
 20
11.125778
 30
0.0
 10
459.638234
 20
2.621834
 30
0.0
 10
468.142178
 20
2.621834
 30
0.0
 10
468.142178
 20
11.125778
 30
0.0
 10
476.646122
 20
11.125778
 30
0.0
 10
476.646122
 20
2.621834
 30
0.0
 10
485.150066
 20
2.621834
 30
0.0
 10
485.150066
 20
11.125778
 30
0.0
 10
493.654010
 20
11.125778
 30
0.0
 10
493.654010
 20
2.621834
 30
0.0
 10
502.157954
 20
2.621834
 30
0.0
 10
502.157954
 20
11.125778
 30
0.0
 10
510.661898
 20
11.125778
 30
0.0
 10
510.661898
 20
2.621834
 30
0.0
 10
519.165842
 20
2.621834
 30
0.0
 10
519.165842
 20
11.125778
 30
0.0
 10
527.669786
 20
11.125778
 30
0.0
 10
527.669786
 20
2.621834
 30
0.0
 10
536.173730
 20
2.621834
 30
0.0
 10
536.173730
 20
11.125778
 30
0.0
 10
544.677674
 20
11.125778
 30
0.0
 10
544.677674
 20
2.621834
 30
0.0
 10
553.181618
 20
2.621834
 30
0.0
 10
553.181618
 20
11.125778
 30
0.0
 10
561.685562
 20
11.125778
 30
0.0
 10
561.685562
 20
2.621834
 30
0.0
 10
570.189506
 20
2.621834
 30
0.0
 10
570.189506
 20
11.125778
 30
0.0
 10
578.693450
 20
11.125778
 30
0.0
 10
578.693450
 20
2.621834
 30
0.0
 10
587.197394
 20
2.621834
 30
0.0
 10
587.197394
 20
11.125778
 30
0.0
 10
595.701330
 20
11.125778
 30
0.0
 10
595.701330
 20
2.621834
 30
0.0
 10
604.205282
 20
2.621834
 30
0.0
 10
604.205282
 20
11.125778
 30
0.0
 10
612.709218
 20
11.125778
 30
0.0
 10
612.709218
 20
2.621834
 30
0.0
 10
621.213170
 20
2.621834
 30
0.0
 10
621.213170
 20
11.125778
 30
0.0
 10
629.717106
 20
11.125778
 30
0.0
 10
629.717106
 20
2.621834
 30
0.0
 10
638.221058
 20
2.621834
 30
0.0
 10
638.221058
 20
11.125778
 30
0.0
 10
646.724994
 20
11.125778
 30
0.0
 10
646.724994
 20
2.621834
 30
0.0
 10
655.228946
 20
2.621834
 30
0.0
 10
655.228946
 20
11.125778
 30
0.0
 10
663.732890
 20
11.125778
 30
0.0
 10
663.732890
 20
2.621834
 30
0.0
 10
672.236834
 20
2.621834
 30
0.0
 10
672.236834
 20
11.125778
 30
0.0
 10
680.740778
 20
11.125778
 30
0.0
 10
680.740778
 20
2.621834
 30
0.0
 10
689.244722
 20
2.621834
 30
0.0
 10
689.244722
 20
11.125778
 30
0.0
 10
697.748666
 20
11.125778
 30
0.0
 10
697.748666
 20
2.621834
 30
0.0
 10
706.252610
 20
2.621834
 30
0.0
 10
706.252610
 20
11.125778
 30
0.0
 10
714.756554
 20
11.125778
 30
0.0
 10
714.756554
 20
2.621834
 30
0.0
 10
723.260498
 20
2.621834
 30
0.0
 10
723.260498
 20
11.125778
 30
0.0
 10
731.764442
 20
11.125778
 30
0.0
 10
731.764442
 20
2.621834
 30
0.0
 10
740.268386
 20
2.621834
 30
0.0
 10
740.268386
 20
11.125778
 30
0.0
 10
748.772330
 20
11.125778
 30
0.0
 10
748.772330
 20
2.621834
 30
0.0
 10
757.276274
 20
2.621834
 30
0.0
 10
757.276274
 20
11.125778
 30
0.0
 10
765.780218
 20
11.125778
 30
0.0
 10
765.780218
 20
2.621834
 30
0.0
 10
774.284162
 20
2.621834
 30
0.0
 10
774.284162
 20
11.125778
 30
0.0
 10
782.788106
 20
11.125778
 30
0.0
 10
782.788106
 20
2.621834
 30
0.0
 10
791.292050
 20
2.621834
 30
0.0
 10
791.292050
 20
11.125778
 30
0.0
 10
799.795994
 20
11.125778
 30
0.0
 10
799.795994
 20
2.621834
 30
0.0
 10
808.299938
 20
2.621834
 30
0.0
 10
808.299938
 20
11.125778
 30
0.0
 10
816.803882
 20
11.125778
 30
0.0
 10
816.803882
 20
2.621834
 30
0.0
 10
825.307826
 20
2.621834
 30
0.0
 10
825.307826
 20
11.125778
 30
0.0
 10
833.811746
 20
11.125778
 30
0.0
 10
833.811746
 20
2.621834
 30
0.0
 10
842.315746
 20
2.621834
 30
0.0
 10
842.315746
 20
11.125778
 30
0.0
 10
850.819666
 20
11.125778
 30
0.0
 10
850.819666
 20
2.621834
 30
0.0
 10
859.323586
 20
2.621834
 30
0.0
 10
859.323586
 20
11.125778
 30
0.0
 10
867.827506
 20
11.125778
 30
0.0
 10
867.827506
 20
2.621834
 30
0.0
 10
876.331506
 20
2.621834
 30
0.0
 10
876.331506
 20
11.125778
 30
0.0
 10
884.835426
 20
11.125778
 30
0.0
 10
884.835426
 20
2.621834
 30
0.0
 10
893.339346
 20
2.621834
 30
0.0
 10
893.339346
 20
11.125778
 30
0.0
 10
901.843346
 20
11.125778
 30
0.0
 10
901.843346
 20
2.621834
 30
0.0
 10
910.347266
 20
2.621834
 30
0.0
 10
910.347266
 20
11.125778
 30
0.0
 10
918.851186
 20
11.125778
 30
0.0
 10
918.851186
 20
2.621834
 30
0.0
 10
927.355186
 20
2.621834
 30
0.0
 10
927.355186
 20
11.125778
 30
0.0
 10
935.859106
 20
11.125778
 30
0.0
 10
935.859106
 20
2.621834
 30
0.0
 10
944.363026
 20
2.621834
 30
0.0
 10
944.363026
 20
11.125778
 30
0.0
 10
952.866946
 20
11.125778
 30
0.0
 10
952.866946
 20
2.621834
 30
0.0
 10
961.370946
 20
2.621834
 30
0.0
 10
961.370946
 20
11.125778
 30
0.0
 10
969.874866
 20
11.125778
 30
0.0
 10
969.874866
 20
2.621834
 30
0.0
 10
978.378786
 20
2.621834
 30
0.0
 10
978.378786
 20
11.125778
 30
0.0
 10
986.882786
 20
11.125778
 30
0.0
 10
986.882786
 20
2.621834
 30
0.0
 10
998.929986
 20
2.621834
 30
0.0
 10
998.929986
 20
11.125778
 30
0.0
 10
1010.977266
 20
11.125778
 30
0.0
 10
1010.977266
 20
5.456482
 30
0.0
 10
1002.473346
 20
5.456482
 30
0.0
 10
1002.473346
 20
-0.212814
 30
0.0
 10
1010.977266
 20
-0.212814
 30
0.0
 10
1010.977266
 20
-5.882110
 30
0.0
 10
1002.473346
 20
-5.882110
 30
0.0
 10
1002.473346
 20
-11.551406
 30
0.0
 10
1010.977266
 20
-11.551406
 30
0.0
 10
1010.977266
 20
-17.220702
 30
0.0
 10
998.929986
 20
-17.220702
 30
0.0
 10
998.929986
 20
-8.716758
 30
0.0
 10
986.882786
 20
-8.716758
 30
0.0
 10
986.882786
 20
-17.220702
 30
0.0
 10
978.378786
 20
-17.220702
 30
0.0
 10
978.378786
 20
-8.716758
 30
0.0
 10
969.874866
 20
-8.716758
 30
0.0
 10
969.874866
 20
-17.220702
 30
0.0
 10
961.370946
 20
-17.220702
 30
0.0
 10
961.370946
 20
-8.716758
 30
0.0
 10
952.866946
 20
-8.716758
 30
0.0
 10
952.866946
 20
-17.220702
 30
0.0
 10
944.363026
 20
-17.220702
 30
0.0
 10
944.363026
 20
-8.716758
 30
0.0
 10
935.859106
 20
-8.716758
 30
0.0
 10
935.859106
 20
-17.220702
 30
0.0
 10
927.355186
 20
-17.220702
 30
0.0
 10
927.355186
 20
-8.716758
 30
0.0
 10
918.851186
 20
-8.716758
 30
0.0
 10
918.851186
 20
-17.220702
 30
0.0
 10
910.347266
 20
-17.220702
 30
0.0
 10
910.347266
 20
-8.716758
 30
0.0
 10
901.843346
 20
-8.716758
 30
0.0
 10
901.843346
 20
-17.220702
 30
0.0
 10
893.339346
 20
-17.220702
 30
0.0
 10
893.339346
 20
-8.716758
 30
0.0
 10
884.835426
 20
-8.716758
 30
0.0
 10
884.835426
 20
-17.220702
 30
0.0
 10
876.331506
 20
-17.220702
 30
0.0
 10
876.331506
 20
-8.716758
 30
0.0
 10
867.827506
 20
-8.716758
 30
0.0
 10
867.827506
 20
-17.220702
 30
0.0
 10
859.323586
 20
-17.220702
 30
0.0
 10
859.323586
 20
-8.716758
 30
0.0
 10
850.819666
 20
-8.716758
 30
0.0
 10
850.819666
 20
-17.220702
 30
0.0
 10
842.315746
 20
-17.220702
 30
0.0
 10
842.315746
 20
-8.716758
 30
0.0
 10
833.811746
 20
-8.716758
 30
0.0
 10
833.811746
 20
-17.220702
 30
0.0
 10
825.307826
 20
-17.220702
 30
0.0
 10
825.307826
 20
-8.716758
 30
0.0
 10
816.803882
 20
-8.716758
 30
0.0
 10
816.803882
 20
-17.220702
 30
0.0
 10
808.299938
 20
-17.220702
 30
0.0
 10
808.299938
 20
-8.716758
 30
0.0
 10
799.795994
 20
-8.716758
 30
0.0
 10
799.795994
 20
-17.220702
 30
0.0
 10
791.292050
 20
-17.220702
 30
0.0
 10
791.292050
 20
-8.716758
 30
0.0
 10
782.788106
 20
-8.716758
 30
0.0
 10
782.788106
 20
-17.220702
 30
0.0
 10
774.284162
 20
-17.220702
 30
0.0
 10
774.284162
 20
-8.716758
 30
0.0
 10
765.780218
 20
-8.716758
 30
0.0
 10
765.780218
 20
-17.220702
 30
0.0
 10
757.276274
 20
-17.220702
 30
0.0
 10
757.276274
 20
-8.716758
 30
0.0
 10
748.772330
 20
-8.716758
 30
0.0
 10
748.772330
 20
-17.220702
 30
0.0
 10
740.268386
 20
-17.220702
 30
0.0
 10
740.268386
 20
-8.716758
 30
0.0
 10
731.764442
 20
-8.716758
 30
0.0
 10
731.764442
 20
-17.220702
 30
0.0
 10
723.260498
 20
-17.220702
 30
0.0
 10
723.260498
 20
-8.716758
 30
0.0
 10
714.756554
 20
-8.716758
 30
0.0
 10
714.756554
 20
-17.220702
 30
0.0
 10
706.252610
 20
-17.220702
 30
0.0
 10
706.252610
 20
-8.716758
 30
0.0
 10
697.748666
 20
-8.716758
 30
0.0
 10
697.748666
 20
-17.220702
 30
0.0
 10
689.244722
 20
-17.220702
 30
0.0
 10
689.244722
 20
-8.716758
 30
0.0
 10
680.740778
 20
-8.716758
 30
0.0
 10
680.740778
 20
-17.220702
 30
0.0
 10
672.236834
 20
-17.220702
 30
0.0
 10
672.236834
 20
-8.716758
 30
0.0
 10
663.732890
 20
-8.716758
 30
0.0
 10
663.732890
 20
-17.220702
 30
0.0
 10
655.228946
 20
-17.220702
 30
0.0
 10
655.228946
 20
-8.716758
 30
0.0
 10
646.724994
 20
-8.716758
 30
0.0
 10
646.724994
 20
-17.220702
 30
0.0
 10
638.221058
 20
-17.220702
 30
0.0
 10
638.221058
 20
-8.716758
 30
0.0
 10
629.717106
 20
-8.716758
 30
0.0
 10
629.717106
 20
-17.220702
 30
0.0
 10
621.213170
 20
-17.220702
 30
0.0
 10
621.213170
 20
-8.716758
 30
0.0
 10
612.709218
 20
-8.716758
 30
0.0
 10
612.709218
 20
-17.220702
 30
0.0
 10
604.205282
 20
-17.220702
 30
0.0
 10
604.205282
 20
-8.716758
 30
0.0
 10
595.701330
 20
-8.716758
 30
0.0
 10
595.701330
 20
-17.220702
 30
0.0
 10
587.197394
 20
-17.220702
 30
0.0
 10
587.197394
 20
-8.716758
 30
0.0
 10
578.693450
 20
-8.716758
 30
0.0
 10
578.693450
 20
-17.220702
 30
0.0
 10
570.189506
 20
-17.220702
 30
0.0
 10
570.189506
 20
-8.716758
 30
0.0
 10
561.685562
 20
-8.716758
 30
0.0
 10
561.685562
 20
-17.220702
 30
0.0
 10
553.181618
 20
-17.220702
 30
0.0
 10
553.181618
 20
-8.716758
 30
0.0
 10
544.677674
 20
-8.716758
 30
0.0
 10
544.677674
 20
-17.220702
 30
0.0
 10
536.173730
 20
-17.220702
 30
0.0
 10
536.173730
 20
-8.716758
 30
0.0
 10
527.669786
 20
-8.716758
 30
0.0
 10
527.669786
 20
-17.220702
 30
0.0
 10
519.165842
 20
-17.220702
 30
0.0
 10
519.165842
 20
-8.716758
 30
0.0
 10
510.661898
 20
-8.716758
 30
0.0
 10
510.661898
 20
-17.220702
 30
0.0
 10
502.157954
 20
-17.220702
 30
0.0
 10
502.157954
 20
-8.716758
 30
0.0
 10
493.654010
 20
-8.716758
 30
0.0
 10
493.654010
 20
-17.220702
 30
0.0
 10
485.150066
 20
-17.220702
 30
0.0
 10
485.150066
 20
-8.716758
 30
0.0
 10
476.646122
 20
-8.716758
 30
0.0
 10
476.646122
 20
-17.220702
 30
0.0
 10
468.142178
 20
-17.220702
 30
0.0
 10
468.142178
 20
-8.716758
 30
0.0
 10
459.638234
 20
-8.716758
 30
0.0
 10
459.638234
 20
-17.220702
 30
0.0
 10
451.134290
 20
-17.220702
 30
0.0
 10
451.134290
 20
-8.716758
 30
0.0
 10
442.630346
 20
-8.716758
 30
0.0
 10
442.630346
 20
-17.220702
 30
0.0
 10
434.126402
 20
-17.220702
 30
0.0
 10
434.126402
 20
-8.716758
 30
0.0
 10
425.622458
 20
-8.716758
 30
0.0
 10
425.622458
 20
-17.220702
 30
0.0
 10
417.118514
 20
-17.220702
 30
0.0
 10
417.118514
 20
-8.716758
 30
0.0
 10
408.614570
 20
-8.716758
 30
0.0
 10
408.614570
 20
-17.220702
 30
0.0
 10
400.110626
 20
-17.220702
 30
0.0
 10
400.110626
 20
-8.716758
 30
0.0
 10
391.606682
 20
-8.716758
 30
0.0
 10
391.606682
 20
-17.220702
 30
0.0
 10
383.102738
 20
-17.220702
 30
0.0
 10
383.102738
 20
-8.716758
 30
0.0
 10
374.598794
 20
-8.716758
 30
0.0
 10
374.598794
 20
-17.220702
 30
0.0
 10
366.094850
 20
-17.220702
 30
0.0
 10
366.094850
 20
-8.716758
 30
0.0
 10
357.590898
 20
-8.716758
 30
0.0
 10
357.590898
 20
-17.220702
 30
0.0
 10
349.086954
 20
-17.220702
 30
0.0
 10
349.086954
 20
-8.716758
 30
0.0
 10
340.583010
 20
-8.716758
 30
0.0
 10
340.583010
 20
-17.220702
 30
0.0
 10
332.079066
 20
-17.220702
 30
0.0
 10
332.079066
 20
-8.716758
 30
0.0
 10
323.575122
 20
-8.716758
 30
0.0
 10
323.575122
 20
-17.220702
 30
0.0
 10
315.071178
 20
-17.220702
 30
0.0
 10
315.071178
 20
-8.716758
 30
0.0
 10
306.567234
 20
-8.716758
 30
0.0
 10
306.567234
 20
-17.220702
 30
0.0
 10
298.063290
 20
-17.220702
 30
0.0
 10
298.063290
 20
-8.716758
 30
0.0
 10
289.559346
 20
-8.716758
 30
0.0
 10
289.559346
 20
-17.220702
 30
0.0
 10
281.055402
 20
-17.220702
 30
0.0
 10
281.055402
 20
-8.716758
 30
0.0
 10
272.551458
 20
-8.716758
 30
0.0
 10
272.551458
 20
-17.220702
 30
0.0
 10
264.047514
 20
-17.220702
 30
0.0
 10
264.047514
 20
-8.716758
 30
0.0
 10
255.543570
 20
-8.716758
 30
0.0
 10
255.543570
 20
-17.220702
 30
0.0
 10
247.039626
 20
-17.220702
 30
0.0
 10
247.039626
 20
-8.716758
 30
0.0
 10
238.535690
 20
-8.716758
 30
0.0
 10
238.535690
 20
-17.220702
 30
0.0
 10
230.031746
 20
-17.220702
 30
0.0
 10
230.031746
 20
-8.716758
 30
0.0
 10
221.527802
 20
-8.716758
 30
0.0
 10
221.527802
 20
-17.220702
 30
0.0
 10
213.023850
 20
-17.220702
 30
0.0
 10
213.023850
 20
-8.716758
 30
0.0
 10
204.519906
 20
-8.716758
 30
0.0
 10
204.519906
 20
-17.220702
 30
0.0
 10
196.015962
 20
-17.220702
 30
0.0
 10
196.015962
 20
-8.716758
 30
0.0
 10
187.512018
 20
-8.716758
 30
0.0
 10
187.512018
 20
-17.220702
 30
0.0
 10
179.008074
 20
-17.220702
 30
0.0
 10
179.008074
 20
-8.716758
 30
0.0
 10
170.504130
 20
-8.716758
 30
0.0
 10
170.504130
 20
-17.220702
 30
0.0
 10
162.000186
 20
-17.220702
 30
0.0
 10
162.000186
 20
-8.716758
 30
0.0
 10
153.496242
 20
-8.716758
 30
0.0
 10
153.496242
 20
-17.220702
 30
0.0
 10
144.992298
 20
-17.220702
 30
0.0
 10
144.992298
 20
-8.716758
 30
0.0
 10
136.488362
 20
-8.716758
 30
0.0
 10
136.488362
 20
-17.220702
 30
0.0
 10
127.984418
 20
-17.220702
 30
0.0
 10
127.984418
 20
-8.716758
 30
0.0
 10
119.480466
 20
-8.716758
 30
0.0
 10
119.480466
 20
-17.220702
 30
0.0
 10
110.976522
 20
-17.220702
 30
0.0
 10
110.976522
 20
-8.716758
 30
0.0
 10
102.472578
 20
-8.716758
 30
0.0
 10
102.472578
 20
-17.220702
 30
0.0
 10
93.968638
 20
-17.220702
 30
0.0
 10
93.968638
 20
-8.716758
 30
0.0
 10
85.464694
 20
-8.716758
 30
0.0
 10
85.464694
 20
-17.220702
 30
0.0
 10
76.960750
 20
-17.220702
 30
0.0
 10
76.960750
 20
-8.716758
 30
0.0
 10
68.456806
 20
-8.716758
 30
0.0
 10
68.456806
 20
-17.220702
 30
0.0
 10
59.952862
 20
-17.220702
 30
0.0
 10
59.952862
 20
-8.716758
 30
0.0
 10
51.448918
 20
-8.716758
 30
0.0
 10
51.448918
 20
-17.220702
 30
0.0
 10
42.944974
 20
-17.220702
 30
0.0
 10
42.944974
 20
-8.716758
 30
0.0
 10
30.897719
 20
-8.716758
 30
0.0
 10
30.897719
 20
-17.220702
 30
0.0
 10
18.850466
 20
-17.220702
 30
0.0
 10
18.850466
 20
-11.551406
 30
0.0
 10
27.354410
 20
-11.551406
 30
0.0
 10
27.354410
 20
-5.882110
 30
0.0
 10
18.850466
 20
-5.882110
 30
0.0
 10
18.850466
 20
-0.212814
 30
0.0
 10
27.354410
 20
-0.212814
 30
0.0
 10
27.354410
 20
5.456482
 30
0.0
 10
18.850466
 20
5.456482
 30
0.0
 10
18.850466
 20
11.125778
 30
0.0
 10
30.897719
 20
11.125778
 30
0.0
  0
LWPOLYLINE
  5
102
100
AcDbEntity
  8
0
 62
7
100
AcDbPolyline
 90
109
 70
1
 10
1026.469064
 20
-191.661486
 30
0.0
 10
1017.965120
 20
-191.661486
 30
0.0
 10
1017.965120
 20
-183.157542
 30
0.0
 10
1026.469064
 20
-183.157542
 30
0.0
 10
1026.469064
 20
-174.653598
 30
0.0
 10
1017.965120
 20
-174.653598
 30
0.0
 10
1017.965120
 20
-166.149654
 30
0.0
 10
1026.469064
 20
-166.149654
 30
0.0
 10
1026.469064
 20
-157.645710
 30
0.0
 10
1017.965120
 20
-157.645710
 30
0.0
 10
1017.965120
 20
-149.141766
 30
0.0
 10
1026.469064
 20
-149.141766
 30
0.0
 10
1026.469064
 20
-140.637822
 30
0.0
 10
1017.965120
 20
-140.637822
 30
0.0
 10
1017.965120
 20
-132.133878
 30
0.0
 10
1026.469064
 20
-132.133878
 30
0.0
 10
1026.469064
 20
-123.629934
 30
0.0
 10
1017.965120
 20
-123.629934
 30
0.0
 10
1017.965120
 20
-115.125990
 30
0.0
 10
1026.469064
 20
-115.125990
 30
0.0
 10
1026.469064
 20
-106.622046
 30
0.0
 10
1017.965120
 20
-106.622046
 30
0.0
 10
1017.965120
 20
-98.118102
 30
0.0
 10
1026.469064
 20
-98.118102
 30
0.0
 10
1026.469064
 20
-89.614158
 30
0.0
 10
1017.965120
 20
-89.614158
 30
0.0
 10
1017.965120
 20
-81.110214
 30
0.0
 10
1026.469064
 20
-81.110214
 30
0.0
 10
1026.469064
 20
-72.606270
 30
0.0
 10
1017.965120
 20
-72.606270
 30
0.0
 10
1017.965120
 20
-64.102326
 30
0.0
 10
1026.469064
 20
-64.102326
 30
0.0
 10
1026.469064
 20
-55.598382
 30
0.0
 10
1017.965120
 20
-55.598382
 30
0.0
 10
1017.965120
 20
-47.094438
 30
0.0
 10
1026.469064
 20
-47.094438
 30
0.0
 10
1026.469064
 20
-38.590494
 30
0.0
 10
1017.965120
 20
-38.590494
 30
0.0
 10
1017.965120
 20
-30.086550
 30
0.0
 10
1026.469064
 20
-30.086550
 30
0.0
 10
1026.469064
 20
-17.330630
 30
0.0
 10
1017.965120
 20
-17.330630
 30
0.0
 10
1017.965120
 20
-13.078662
 30
0.0
 10
1023.634416
 20
-13.078662
 30
0.0
 10
1023.634416
 20
-4.574718
 30
0.0
 10
1029.303712
 20
-4.574718
 30
0.0
 10
1029.303712
 20
-13.078662
 30
0.0
 10
1034.973008
 20
-13.078662
 30
0.0
 10
1034.973008
 20
-4.574718
 30
0.0
 10
1040.642304
 20
-4.574718
 30
0.0
 10
1040.642304
 20
-13.078662
 30
0.0
 10
1046.311600
 20
-13.078662
 30
0.0
 10
1046.311600
 20
-17.330630
 30
0.0
 10
1037.807656
 20
-17.330630
 30
0.0
 10
1037.807656
 20
-30.086550
 30
0.0
 10
1046.311600
 20
-30.086550
 30
0.0
 10
1046.311600
 20
-38.590494
 30
0.0
 10
1037.807656
 20
-38.590494
 30
0.0
 10
1037.807656
 20
-47.094438
 30
0.0
 10
1046.311600
 20
-47.094438
 30
0.0
 10
1046.311600
 20
-55.598382
 30
0.0
 10
1037.807656
 20
-55.598382
 30
0.0
 10
1037.807656
 20
-64.102326
 30
0.0
 10
1046.311600
 20
-64.102326
 30
0.0
 10
1046.311600
 20
-72.606270
 30
0.0
 10
1037.807656
 20
-72.606270
 30
0.0
 10
1037.807656
 20
-81.110214
 30
0.0
 10
1046.311600
 20
-81.110214
 30
0.0
 10
1046.311600
 20
-89.614158
 30
0.0
 10
1037.807656
 20
-89.614158
 30
0.0
 10
1037.807656
 20
-98.118102
 30
0.0
 10
1046.311600
 20
-98.118102
 30
0.0
 10
1046.311600
 20
-106.622046
 30
0.0
 10
1037.807656
 20
-106.622046
 30
0.0
 10
1037.807656
 20
-115.125990
 30
0.0
 10
1046.311600
 20
-115.125990
 30
0.0
 10
1046.311600
 20
-123.629934
 30
0.0
 10
1037.807656
 20
-123.629934
 30
0.0
 10
1037.807656
 20
-132.133878
 30
0.0
 10
1046.311600
 20
-132.133878
 30
0.0
 10
1046.311600
 20
-140.637822
 30
0.0
 10
1037.807656
 20
-140.637822
 30
0.0
 10
1037.807656
 20
-149.141766
 30
0.0
 10
1046.311600
 20
-149.141766
 30
0.0
 10
1046.311600
 20
-157.645710
 30
0.0
 10
1037.807656
 20
-157.645710
 30
0.0
 10
1037.807656
 20
-166.149654
 30
0.0
 10
1046.311600
 20
-166.149654
 30
0.0
 10
1046.311600
 20
-174.653598
 30
0.0
 10
1037.807656
 20
-174.653598
 30
0.0
 10
1037.807656
 20
-183.157542
 30
0.0
 10
1046.311600
 20
-183.157542
 30
0.0
 10
1046.311600
 20
-191.661486
 30
0.0
 10
1037.807656
 20
-191.661486
 30
0.0
 10
1037.807656
 20
-204.417402
 30
0.0
 10
1046.311600
 20
-204.417402
 30
0.0
 10
1046.311600
 20
-208.669374
 30
0.0
 10
1040.642304
 20
-208.669374
 30
0.0
 10
1040.642304
 20
-217.173318
 30
0.0
 10
1034.973008
 20
-217.173318
 30
0.0
 10
1034.973008
 20
-208.669374
 30
0.0
 10
1029.303712
 20
-208.669374
 30
0.0
 10
1029.303712
 20
-217.173318
 30
0.0
 10
1023.634416
 20
-217.173318
 30
0.0
 10
1023.634416
 20
-208.669374
 30
0.0
 10
1017.965120
 20
-208.669374
 30
0.0
 10
1017.965120
 20
-204.417402
 30
0.0
 10
1026.469064
 20
-204.417402
 30
0.0
 10
1026.469064
 20
-191.661486
 30
0.0
  0
LWPOLYLINE
  5
103
100
AcDbEntity
  8
0
 62
7
100
AcDbPolyline
 90
109
 70
1
 10
1024.815224
 20
45.211186
 30
0.0
 10
1016.311280
 20
45.211186
 30
0.0
 10
1016.311280
 20
53.715130
 30
0.0
 10
1024.815224
 20
53.715130
 30
0.0
 10
1024.815224
 20
62.219074
 30
0.0
 10
1016.311280
 20
62.219074
 30
0.0
 10
1016.311280
 20
70.723018
 30
0.0
 10
1024.815224
 20
70.723018
 30
0.0
 10
1024.815224
 20
79.226962
 30
0.0
 10
1016.311280
 20
79.226962
 30
0.0
 10
1016.311280
 20
87.730906
 30
0.0
 10
1024.815224
 20
87.730906
 30
0.0
 10
1024.815224
 20
96.234850
 30
0.0
 10
1016.311280
 20
96.234850
 30
0.0
 10
1016.311280
 20
104.738794
 30
0.0
 10
1024.815224
 20
104.738794
 30
0.0
 10
1024.815224
 20
113.242738
 30
0.0
 10
1016.311280
 20
113.242738
 30
0.0
 10
1016.311280
 20
121.746682
 30
0.0
 10
1024.815224
 20
121.746682
 30
0.0
 10
1024.815224
 20
130.250626
 30
0.0
 10
1016.311280
 20
130.250626
 30
0.0
 10
1016.311280
 20
138.754570
 30
0.0
 10
1024.815224
 20
138.754570
 30
0.0
 10
1024.815224
 20
147.258514
 30
0.0
 10
1016.311280
 20
147.258514
 30
0.0
 10
1016.311280
 20
155.762458
 30
0.0
 10
1024.815224
 20
155.762458
 30
0.0
 10
1024.815224
 20
164.266402
 30
0.0
 10
1016.311280
 20
164.266402
 30
0.0
 10
1016.311280
 20
172.770346
 30
0.0
 10
1024.815224
 20
172.770346
 30
0.0
 10
1024.815224
 20
181.274290
 30
0.0
 10
1016.311280
 20
181.274290
 30
0.0
 10
1016.311280
 20
189.778234
 30
0.0
 10
1024.815224
 20
189.778234
 30
0.0
 10
1024.815224
 20
198.282178
 30
0.0
 10
1016.311280
 20
198.282178
 30
0.0
 10
1016.311280
 20
206.786122
 30
0.0
 10
1024.815224
 20
206.786122
 30
0.0
 10
1024.815224
 20
219.542042
 30
0.0
 10
1016.311280
 20
219.542042
 30
0.0
 10
1016.311280
 20
223.794010
 30
0.0
 10
1021.980576
 20
223.794010
 30
0.0
 10
1021.980576
 20
232.297954
 30
0.0
 10
1027.649872
 20
232.297954
 30
0.0
 10
1027.649872
 20
223.794010
 30
0.0
 10
1033.319168
 20
223.794010
 30
0.0
 10
1033.319168
 20
232.297954
 30
0.0
 10
1038.988464
 20
232.297954
 30
0.0
 10
1038.988464
 20
223.794010
 30
0.0
 10
1044.657760
 20
223.794010
 30
0.0
 10
1044.657760
 20
219.542042
 30
0.0
 10
1036.153816
 20
219.542042
 30
0.0
 10
1036.153816
 20
206.786122
 30
0.0
 10
1044.657760
 20
206.786122
 30
0.0
 10
1044.657760
 20
198.282178
 30
0.0
 10
1036.153816
 20
198.282178
 30
0.0
 10
1036.153816
 20
189.778234
 30
0.0
 10
1044.657760
 20
189.778234
 30
0.0
 10
1044.657760
 20
181.274290
 30
0.0
 10
1036.153816
 20
181.274290
 30
0.0
 10
1036.153816
 20
172.770346
 30
0.0
 10
1044.657760
 20
172.770346
 30
0.0
 10
1044.657760
 20
164.266402
 30
0.0
 10
1036.153816
 20
164.266402
 30
0.0
 10
1036.153816
 20
155.762458
 30
0.0
 10
1044.657760
 20
155.762458
 30
0.0
 10
1044.657760
 20
147.258514
 30
0.0
 10
1036.153816
 20
147.258514
 30
0.0
 10
1036.153816
 20
138.754570
 30
0.0
 10
1044.657760
 20
138.754570
 30
0.0
 10
1044.657760
 20
130.250626
 30
0.0
 10
1036.153816
 20
130.250626
 30
0.0
 10
1036.153816
 20
121.746682
 30
0.0
 10
1044.657760
 20
121.746682
 30
0.0
 10
1044.657760
 20
113.242738
 30
0.0
 10
1036.153816
 20
113.242738
 30
0.0
 10
1036.153816
 20
104.738794
 30
0.0
 10
1044.657760
 20
104.738794
 30
0.0
 10
1044.657760
 20
96.234850
 30
0.0
 10
1036.153816
 20
96.234850
 30
0.0
 10
1036.153816
 20
87.730906
 30
0.0
 10
1044.657760
 20
87.730906
 30
0.0
 10
1044.657760
 20
79.226962
 30
0.0
 10
1036.153816
 20
79.226962
 30
0.0
 10
1036.153816
 20
70.723018
 30
0.0
 10
1044.657760
 20
70.723018
 30
0.0
 10
1044.657760
 20
62.219074
 30
0.0
 10
1036.153816
 20
62.219074
 30
0.0
 10
1036.153816
 20
53.715130
 30
0.0
 10
1044.657760
 20
53.715130
 30
0.0
 10
1044.657760
 20
45.211186
 30
0.0
 10
1036.153816
 20
45.211186
 30
0.0
 10
1036.153816
 20
32.455270
 30
0.0
 10
1044.657760
 20
32.455270
 30
0.0
 10
1044.657760
 20
28.203298
 30
0.0
 10
1038.988464
 20
28.203298
 30
0.0
 10
1038.988464
 20
19.699354
 30
0.0
 10
1033.319168
 20
19.699354
 30
0.0
 10
1033.319168
 20
28.203298
 30
0.0
 10
1027.649872
 20
28.203298
 30
0.0
 10
1027.649872
 20
19.699354
 30
0.0
 10
1021.980576
 20
19.699354
 30
0.0
 10
1021.980576
 20
28.203298
 30
0.0
 10
1016.311280
 20
28.203298
 30
0.0
 10
1016.311280
 20
32.455270
 30
0.0
 10
1024.815224
 20
32.455270
 30
0.0
 10
1024.815224
 20
45.211186
 30
0.0
  0
LWPOLYLINE
  5
104
100
AcDbEntity
  8
0
 62
7
100
AcDbPolyline
 90
549
 70
1
 10
26.503959
 20
222.094443
 30
0.0
 10
30.047268
 20
222.094443
 30
0.0
 10
30.047268
 20
230.598387
 30
0.0
 10
42.094523
 20
230.598387
 30
0.0
 10
42.094523
 20
222.094443
 30
0.0
 10
50.598467
 20
222.094443
 30
0.0
 10
50.598467
 20
230.598387
 30
0.0
 10
59.102411
 20
230.598387
 30
0.0
 10
59.102411
 20
222.094443
 30
0.0
 10
67.606355
 20
222.094443
 30
0.0
 10
67.606355
 20
230.598387
 30
0.0
 10
76.110299
 20
230.598387
 30
0.0
 10
76.110299
 20
222.094443
 30
0.0
 10
84.614243
 20
222.094443
 30
0.0
 10
84.614243
 20
230.598387
 30
0.0
 10
93.118187
 20
230.598387
 30
0.0
 10
93.118187
 20
222.094443
 30
0.0
 10
101.622127
 20
222.094443
 30
0.0
 10
101.622127
 20
230.598387
 30
0.0
 10
110.126071
 20
230.598387
 30
0.0
 10
110.126071
 20
222.094443
 30
0.0
 10
118.630015
 20
222.094443
 30
0.0
 10
118.630015
 20
230.598387
 30
0.0
 10
127.133959
 20
230.598387
 30
0.0
 10
127.133959
 20
222.094443
 30
0.0
 10
135.637911
 20
222.094443
 30
0.0
 10
135.637911
 20
230.598387
 30
0.0
 10
144.141847
 20
230.598387
 30
0.0
 10
144.141847
 20
222.094443
 30
0.0
 10
152.645791
 20
222.094443
 30
0.0
 10
152.645791
 20
230.598387
 30
0.0
 10
161.149735
 20
230.598387
 30
0.0
 10
161.149735
 20
222.094443
 30
0.0
 10
169.653679
 20
222.094443
 30
0.0
 10
169.653679
 20
230.598387
 30
0.0
 10
178.157623
 20
230.598387
 30
0.0
 10
178.157623
 20
222.094443
 30
0.0
 10
186.661567
 20
222.094443
 30
0.0
 10
186.661567
 20
230.598387
 30
0.0
 10
195.165511
 20
230.598387
 30
0.0
 10
195.165511
 20
222.094443
 30
0.0
 10
203.669455
 20
222.094443
 30
0.0
 10
203.669455
 20
230.598387
 30
0.0
 10
212.173399
 20
230.598387
 30
0.0
 10
212.173399
 20
222.094443
 30
0.0
 10
220.677343
 20
222.094443
 30
0.0
 10
220.677343
 20
230.598387
 30
0.0
 10
229.181295
 20
230.598387
 30
0.0
 10
229.181295
 20
222.094443
 30
0.0
 10
237.685239
 20
222.094443
 30
0.0
 10
237.685239
 20
230.598387
 30
0.0
 10
246.189175
 20
230.598387
 30
0.0
 10
246.189175
 20
222.094443
 30
0.0
 10
254.693119
 20
222.094443
 30
0.0
 10
254.693119
 20
230.598387
 30
0.0
 10
263.197063
 20
230.598387
 30
0.0
 10
263.197063
 20
222.094443
 30
0.0
 10
271.701007
 20
222.094443
 30
0.0
 10
271.701007
 20
230.598387
 30
0.0
 10
280.204951
 20
230.598387
 30
0.0
 10
280.204951
 20
222.094443
 30
0.0
 10
288.708895
 20
222.094443
 30
0.0
 10
288.708895
 20
230.598387
 30
0.0
 10
297.212839
 20
230.598387
 30
0.0
 10
297.212839
 20
222.094443
 30
0.0
 10
305.716783
 20
222.094443
 30
0.0
 10
305.716783
 20
230.598387
 30
0.0
 10
314.220727
 20
230.598387
 30
0.0
 10
314.220727
 20
222.094443
 30
0.0
 10
322.724671
 20
222.094443
 30
0.0
 10
322.724671
 20
230.598387
 30
0.0
 10
331.228615
 20
230.598387
 30
0.0
 10
331.228615
 20
222.094443
 30
0.0
 10
339.732559
 20
222.094443
 30
0.0
 10
339.732559
 20
230.598387
 30
0.0
 10
348.236503
 20
230.598387
 30
0.0
 10
348.236503
 20
222.094443
 30
0.0
 10
356.740447
 20
222.094443
 30
0.0
 10
356.740447
 20
230.598387
 30
0.0
 10
365.244391
 20
230.598387
 30
0.0
 10
365.244391
 20
222.094443
 30
0.0
 10
373.748335
 20
222.094443
 30
0.0
 10
373.748335
 20
230.598387
 30
0.0
 10
382.252279
 20
230.598387
 30
0.0
 10
382.252279
 20
222.094443
 30
0.0
 10
390.756223
 20
222.094443
 30
0.0
 10
390.756223
 20
230.598387
 30
0.0
 10
399.260167
 20
230.598387
 30
0.0
 10
399.260167
 20
222.094443
 30
0.0
 10
407.764111
 20
222.094443
 30
0.0
 10
407.764111
 20
230.598387
 30
0.0
 10
416.268055
 20
230.598387
 30
0.0
 10
416.268055
 20
222.094443
 30
0.0
 10
424.772007
 20
222.094443
 30
0.0
 10
424.772007
 20
230.598387
 30
0.0
 10
433.275951
 20
230.598387
 30
0.0
 10
433.275951
 20
222.094443
 30
0.0
 10
441.779895
 20
222.094443
 30
0.0
 10
441.779895
 20
230.598387
 30
0.0
 10
450.283839
 20
230.598387
 30
0.0
 10
450.283839
 20
222.094443
 30
0.0
 10
458.787783
 20
222.094443
 30
0.0
 10
458.787783
 20
230.598387
 30
0.0
 10
467.291727
 20
230.598387
 30
0.0
 10
467.291727
 20
222.094443
 30
0.0
 10
475.795671
 20
222.094443
 30
0.0
 10
475.795671
 20
230.598387
 30
0.0
 10
484.299615
 20
230.598387
 30
0.0
 10
484.299615
 20
222.094443
 30
0.0
 10
492.803559
 20
222.094443
 30
0.0
 10
492.803559
 20
230.598387
 30
0.0
 10
501.307503
 20
230.598387
 30
0.0
 10
501.307503
 20
222.094443
 30
0.0
 10
509.811447
 20
222.094443
 30
0.0
 10
509.811447
 20
230.598387
 30
0.0
 10
518.315391
 20
230.598387
 30
0.0
 10
518.315391
 20
222.094443
 30
0.0
 10
526.819335
 20
222.094443
 30
0.0
 10
526.819335
 20
230.598387
 30
0.0
 10
535.323279
 20
230.598387
 30
0.0
 10
535.323279
 20
222.094443
 30
0.0
 10
543.827223
 20
222.094443
 30
0.0
 10
543.827223
 20
230.598387
 30
0.0
 10
552.331167
 20
230.598387
 30
0.0
 10
552.331167
 20
222.094443
 30
0.0
 10
560.835111
 20
222.094443
 30
0.0
 10
560.835111
 20
230.598387
 30
0.0
 10
569.339055
 20
230.598387
 30
0.0
 10
569.339055
 20
222.094443
 30
0.0
 10
577.842999
 20
222.094443
 30
0.0
 10
577.842999
 20
230.598387
 30
0.0
 10
586.346943
 20
230.598387
 30
0.0
 10
586.346943
 20
222.094443
 30
0.0
 10
594.850879
 20
222.094443
 30
0.0
 10
594.850879
 20
230.598387
 30
0.0
 10
603.354831
 20
230.598387
 30
0.0
 10
603.354831
 20
222.094443
 30
0.0
 10
611.858767
 20
222.094443
 30
0.0
 10
611.858767
 20
230.598387
 30
0.0
 10
620.362719
 20
230.598387
 30
0.0
 10
620.362719
 20
222.094443
 30
0.0
 10
628.866655
 20
222.094443
 30
0.0
 10
628.866655
 20
230.598387
 30
0.0
 10
637.370607
 20
230.598387
 30
0.0
 10
637.370607
 20
222.094443
 30
0.0
 10
645.874543
 20
222.094443
 30
0.0
 10
645.874543
 20
230.598387
 30
0.0
 10
654.378495
 20
230.598387
 30
0.0
 10
654.378495
 20
222.094443
 30
0.0
 10
662.882431
 20
222.094443
 30
0.0
 10
662.882431
 20
230.598387
 30
0.0
 10
671.386383
 20
230.598387
 30
0.0
 10
671.386383
 20
222.094443
 30
0.0
 10
679.890319
 20
222.094443
 30
0.0
 10
679.890319
 20
230.598387
 30
0.0
 10
688.394271
 20
230.598387
 30
0.0
 10
688.394271
 20
222.094443
 30
0.0
 10
696.898207
 20
222.094443
 30
0.0
 10
696.898207
 20
230.598387
 30
0.0
 10
705.402159
 20
230.598387
 30
0.0
 10
705.402159
 20
222.094443
 30
0.0
 10
713.906095
 20
222.094443
 30
0.0
 10
713.906095
 20
230.598387
 30
0.0
 10
722.410047
 20
230.598387
 30
0.0
 10
722.410047
 20
222.094443
 30
0.0
 10
730.913991
 20
222.094443
 30
0.0
 10
730.913991
 20
230.598387
 30
0.0
 10
739.417935
 20
230.598387
 30
0.0
 10
739.417935
 20
222.094443
 30
0.0
 10
747.921879
 20
222.094443
 30
0.0
 10
747.921879
 20
230.598387
 30
0.0
 10
756.425823
 20
230.598387
 30
0.0
 10
756.425823
 20
222.094443
 30
0.0
 10
764.929767
 20
222.094443
 30
0.0
 10
764.929767
 20
230.598387
 30
0.0
 10
773.433711
 20
230.598387
 30
0.0
 10
773.433711
 20
222.094443
 30
0.0
 10
781.937655
 20
222.094443
 30
0.0
 10
781.937655
 20
230.598387
 30
0.0
 10
790.441599
 20
230.598387
 30
0.0
 10
790.441599
 20
222.094443
 30
0.0
 10
798.945543
 20
222.094443
 30
0.0
 10
798.945543
 20
230.598387
 30
0.0
 10
807.449487
 20
230.598387
 30
0.0
 10
807.449487
 20
222.094443
 30
0.0
 10
815.953431
 20
222.094443
 30
0.0
 10
815.953431
 20
230.598387
 30
0.0
 10
824.457375
 20
230.598387
 30
0.0
 10
824.457375
 20
222.094443
 30
0.0
 10
832.961295
 20
222.094443
 30
0.0
 10
832.961295
 20
230.598387
 30
0.0
 10
841.465295
 20
230.598387
 30
0.0
 10
841.465295
 20
222.094443
 30
0.0
 10
849.969215
 20
222.094443
 30
0.0
 10
849.969215
 20
230.598387
 30
0.0
 10
858.473135
 20
230.598387
 30
0.0
 10
858.473135
 20
222.094443
 30
0.0
 10
866.977055
 20
222.094443
 30
0.0
 10
866.977055
 20
230.598387
 30
0.0
 10
875.481055
 20
230.598387
 30
0.0
 10
875.481055
 20
222.094443
 30
0.0
 10
883.984975
 20
222.094443
 30
0.0
 10
883.984975
 20
230.598387
 30
0.0
 10
892.488895
 20
230.598387
 30
0.0
 10
892.488895
 20
222.094443
 30
0.0
 10
900.992895
 20
222.094443
 30
0.0
 10
900.992895
 20
230.598387
 30
0.0
 10
909.496815
 20
230.598387
 30
0.0
 10
909.496815
 20
222.094443
 30
0.0
 10
918.000735
 20
222.094443
 30
0.0
 10
918.000735
 20
230.598387
 30
0.0
 10
926.504735
 20
230.598387
 30
0.0
 10
926.504735
 20
222.094443
 30
0.0
 10
935.008655
 20
222.094443
 30
0.0
 10
935.008655
 20
230.598387
 30
0.0
 10
943.512575
 20
230.598387
 30
0.0
 10
943.512575
 20
222.094443
 30
0.0
 10
952.016495
 20
222.094443
 30
0.0
 10
952.016495
 20
230.598387
 30
0.0
 10
960.520495
 20
230.598387
 30
0.0
 10
960.520495
 20
222.094443
 30
0.0
 10
969.024415
 20
222.094443
 30
0.0
 10
969.024415
 20
230.598387
 30
0.0
 10
977.528335
 20
230.598387
 30
0.0
 10
977.528335
 20
222.094443
 30
0.0
 10
986.032335
 20
222.094443
 30
0.0
 10
986.032335
 20
230.598387
 30
0.0
 10
998.079535
 20
230.598387
 30
0.0
 10
998.079535
 20
222.094443
 30
0.0
 10
1001.622895
 20
222.094443
 30
0.0
 10
1001.622895
 20
217.842471
 30
0.0
 10
1010.126815
 20
217.842471
 30
0.0
 10
1010.126815
 20
205.086555
 30
0.0
 10
1001.622895
 20
205.086555
 30
0.0
 10
1001.622895
 20
196.582611
 30
0.0
 10
1010.126815
 20
196.582611
 30
0.0
 10
1010.126815
 20
188.078667
 30
0.0
 10
1001.622895
 20
188.078667
 30
0.0
 10
1001.622895
 20
179.574723
 30
0.0
 10
1010.126815
 20
179.574723
 30
0.0
 10
1010.126815
 20
171.070779
 30
0.0
 10
1001.622895
 20
171.070779
 30
0.0
 10
1001.622895
 20
162.566835
 30
0.0
 10
1010.126815
 20
162.566835
 30
0.0
 10
1010.126815
 20
154.062891
 30
0.0
 10
1001.622895
 20
154.062891
 30
0.0
 10
1001.622895
 20
145.558947
 30
0.0
 10
1010.126815
 20
145.558947
 30
0.0
 10
1010.126815
 20
137.055003
 30
0.0
 10
1001.622895
 20
137.055003
 30
0.0
 10
1001.622895
 20
128.551059
 30
0.0
 10
1010.126815
 20
128.551059
 30
0.0
 10
1010.126815
 20
120.047115
 30
0.0
 10
1001.622895
 20
120.047115
 30
0.0
 10
1001.622895
 20
111.543171
 30
0.0
 10
1010.126815
 20
111.543171
 30
0.0
 10
1010.126815
 20
103.039227
 30
0.0
 10
1001.622895
 20
103.039227
 30
0.0
 10
1001.622895
 20
94.535283
 30
0.0
 10
1010.126815
 20
94.535283
 30
0.0
 10
1010.126815
 20
86.031339
 30
0.0
 10
1001.622895
 20
86.031339
 30
0.0
 10
1001.622895
 20
77.527395
 30
0.0
 10
1010.126815
 20
77.527395
 30
0.0
 10
1010.126815
 20
69.023451
 30
0.0
 10
1001.622895
 20
69.023451
 30
0.0
 10
1001.622895
 20
60.519507
 30
0.0
 10
1010.126815
 20
60.519507
 30
0.0
 10
1010.126815
 20
52.015563
 30
0.0
 10
1001.622895
 20
52.015563
 30
0.0
 10
1001.622895
 20
43.511619
 30
0.0
 10
1010.126815
 20
43.511619
 30
0.0
 10
1010.126815
 20
30.755707
 30
0.0
 10
1001.622895
 20
30.755707
 30
0.0
 10
1001.622895
 20
26.503731
 30
0.0
 10
998.079535
 20
26.503731
 30
0.0
 10
998.079535
 20
17.999787
 30
0.0
 10
986.032335
 20
17.999787
 30
0.0
 10
986.032335
 20
26.503731
 30
0.0
 10
977.528335
 20
26.503731
 30
0.0
 10
977.528335
 20
17.999787
 30
0.0
 10
969.024415
 20
17.999787
 30
0.0
 10
969.024415
 20
26.503731
 30
0.0
 10
960.520495
 20
26.503731
 30
0.0
 10
960.520495
 20
17.999787
 30
0.0
 10
952.016495
 20
17.999787
 30
0.0
 10
952.016495
 20
26.503731
 30
0.0
 10
943.512575
 20
26.503731
 30
0.0
 10
943.512575
 20
17.999787
 30
0.0
 10
935.008655
 20
17.999787
 30
0.0
 10
935.008655
 20
26.503731
 30
0.0
 10
926.504735
 20
26.503731
 30
0.0
 10
926.504735
 20
17.999787
 30
0.0
 10
918.000735
 20
17.999787
 30
0.0
 10
918.000735
 20
26.503731
 30
0.0
 10
909.496815
 20
26.503731
 30
0.0
 10
909.496815
 20
17.999787
 30
0.0
 10
900.992895
 20
17.999787
 30
0.0
 10
900.992895
 20
26.503731
 30
0.0
 10
892.488895
 20
26.503731
 30
0.0
 10
892.488895
 20
17.999787
 30
0.0
 10
883.984975
 20
17.999787
 30
0.0
 10
883.984975
 20
26.503731
 30
0.0
 10
875.481055
 20
26.503731
 30
0.0
 10
875.481055
 20
17.999787
 30
0.0
 10
866.977055
 20
17.999787
 30
0.0
 10
866.977055
 20
26.503731
 30
0.0
 10
858.473135
 20
26.503731
 30
0.0
 10
858.473135
 20
17.999787
 30
0.0
 10
849.969215
 20
17.999787
 30
0.0
 10
849.969215
 20
26.503731
 30
0.0
 10
841.465295
 20
26.503731
 30
0.0
 10
841.465295
 20
17.999787
 30
0.0
 10
832.961295
 20
17.999787
 30
0.0
 10
832.961295
 20
26.503731
 30
0.0
 10
824.457375
 20
26.503731
 30
0.0
 10
824.457375
 20
17.999787
 30
0.0
 10
815.953431
 20
17.999787
 30
0.0
 10
815.953431
 20
26.503731
 30
0.0
 10
807.449487
 20
26.503731
 30
0.0
 10
807.449487
 20
17.999787
 30
0.0
 10
798.945543
 20
17.999787
 30
0.0
 10
798.945543
 20
26.503731
 30
0.0
 10
790.441599
 20
26.503731
 30
0.0
 10
790.441599
 20
17.999787
 30
0.0
 10
781.937655
 20
17.999787
 30
0.0
 10
781.937655
 20
26.503731
 30
0.0
 10
773.433711
 20
26.503731
 30
0.0
 10
773.433711
 20
17.999787
 30
0.0
 10
764.929767
 20
17.999787
 30
0.0
 10
764.929767
 20
26.503731
 30
0.0
 10
756.425823
 20
26.503731
 30
0.0
 10
756.425823
 20
17.999787
 30
0.0
 10
747.921879
 20
17.999787
 30
0.0
 10
747.921879
 20
26.503731
 30
0.0
 10
739.417935
 20
26.503731
 30
0.0
 10
739.417935
 20
17.999787
 30
0.0
 10
730.913991
 20
17.999787
 30
0.0
 10
730.913991
 20
26.503731
 30
0.0
 10
722.410047
 20
26.503731
 30
0.0
 10
722.410047
 20
17.999787
 30
0.0
 10
713.906095
 20
17.999787
 30
0.0
 10
713.906095
 20
26.503731
 30
0.0
 10
705.402159
 20
26.503731
 30
0.0
 10
705.402159
 20
17.999787
 30
0.0
 10
696.898207
 20
17.999787
 30
0.0
 10
696.898207
 20
26.503731
 30
0.0
 10
688.394271
 20
26.503731
 30
0.0
 10
688.394271
 20
17.999787
 30
0.0
 10
679.890319
 20
17.999787
 30
0.0
 10
679.890319
 20
26.503731
 30
0.0
 10
671.386383
 20
26.503731
 30
0.0
 10
671.386383
 20
17.999787
 30
0.0
 10
662.882431
 20
17.999787
 30
0.0
 10
662.882431
 20
26.503731
 30
0.0
 10
654.378495
 20
26.503731
 30
0.0
 10
654.378495
 20
17.999787
 30
0.0
 10
645.874543
 20
17.999787
 30
0.0
 10
645.874543
 20
26.503731
 30
0.0
 10
637.370607
 20
26.503731
 30
0.0
 10
637.370607
 20
17.999787
 30
0.0
 10
628.866655
 20
17.999787
 30
0.0
 10
628.866655
 20
26.503731
 30
0.0
 10
620.362719
 20
26.503731
 30
0.0
 10
620.362719
 20
17.999787
 30
0.0
 10
611.858767
 20
17.999787
 30
0.0
 10
611.858767
 20
26.503731
 30
0.0
 10
603.354831
 20
26.503731
 30
0.0
 10
603.354831
 20
17.999787
 30
0.0
 10
594.850879
 20
17.999787
 30
0.0
 10
594.850879
 20
26.503731
 30
0.0
 10
586.346943
 20
26.503731
 30
0.0
 10
586.346943
 20
17.999787
 30
0.0
 10
577.842999
 20
17.999787
 30
0.0
 10
577.842999
 20
26.503731
 30
0.0
 10
569.339055
 20
26.503731
 30
0.0
 10
569.339055
 20
17.999787
 30
0.0
 10
560.835111
 20
17.999787
 30
0.0
 10
560.835111
 20
26.503731
 30
0.0
 10
552.331167
 20
26.503731
 30
0.0
 10
552.331167
 20
17.999787
 30
0.0
 10
543.827223
 20
17.999787
 30
0.0
 10
543.827223
 20
26.503731
 30
0.0
 10
535.323279
 20
26.503731
 30
0.0
 10
535.323279
 20
17.999787
 30
0.0
 10
526.819335
 20
17.999787
 30
0.0
 10
526.819335
 20
26.503731
 30
0.0
 10
518.315391
 20
26.503731
 30
0.0
 10
518.315391
 20
17.999787
 30
0.0
 10
509.811447
 20
17.999787
 30
0.0
 10
509.811447
 20
26.503731
 30
0.0
 10
501.307503
 20
26.503731
 30
0.0
 10
501.307503
 20
17.999787
 30
0.0
 10
492.803559
 20
17.999787
 30
0.0
 10
492.803559
 20
26.503731
 30
0.0
 10
484.299615
 20
26.503731
 30
0.0
 10
484.299615
 20
17.999787
 30
0.0
 10
475.795671
 20
17.999787
 30
0.0
 10
475.795671
 20
26.503731
 30
0.0
 10
467.291727
 20
26.503731
 30
0.0
 10
467.291727
 20
17.999787
 30
0.0
 10
458.787783
 20
17.999787
 30
0.0
 10
458.787783
 20
26.503731
 30
0.0
 10
450.283839
 20
26.503731
 30
0.0
 10
450.283839
 20
17.999787
 30
0.0
 10
441.779895
 20
17.999787
 30
0.0
 10
441.779895
 20
26.503731
 30
0.0
 10
433.275951
 20
26.503731
 30
0.0
 10
433.275951
 20
17.999787
 30
0.0
 10
424.772007
 20
17.999787
 30
0.0
 10
424.772007
 20
26.503731
 30
0.0
 10
416.268055
 20
26.503731
 30
0.0
 10
416.268055
 20
17.999787
 30
0.0
 10
407.764111
 20
17.999787
 30
0.0
 10
407.764111
 20
26.503731
 30
0.0
 10
399.260167
 20
26.503731
 30
0.0
 10
399.260167
 20
17.999787
 30
0.0
 10
390.756223
 20
17.999787
 30
0.0
 10
390.756223
 20
26.503731
 30
0.0
 10
382.252279
 20
26.503731
 30
0.0
 10
382.252279
 20
17.999787
 30
0.0
 10
373.748335
 20
17.999787
 30
0.0
 10
373.748335
 20
26.503731
 30
0.0
 10
365.244391
 20
26.503731
 30
0.0
 10
365.244391
 20
17.999787
 30
0.0
 10
356.740447
 20
17.999787
 30
0.0
 10
356.740447
 20
26.503731
 30
0.0
 10
348.236503
 20
26.503731
 30
0.0
 10
348.236503
 20
17.999787
 30
0.0
 10
339.732559
 20
17.999787
 30
0.0
 10
339.732559
 20
26.503731
 30
0.0
 10
331.228615
 20
26.503731
 30
0.0
 10
331.228615
 20
17.999787
 30
0.0
 10
322.724671
 20
17.999787
 30
0.0
 10
322.724671
 20
26.503731
 30
0.0
 10
314.220727
 20
26.503731
 30
0.0
 10
314.220727
 20
17.999787
 30
0.0
 10
305.716783
 20
17.999787
 30
0.0
 10
305.716783
 20
26.503731
 30
0.0
 10
297.212839
 20
26.503731
 30
0.0
 10
297.212839
 20
17.999787
 30
0.0
 10
288.708895
 20
17.999787
 30
0.0
 10
288.708895
 20
26.503731
 30
0.0
 10
280.204951
 20
26.503731
 30
0.0
 10
280.204951
 20
17.999787
 30
0.0
 10
271.701007
 20
17.999787
 30
0.0
 10
271.701007
 20
26.503731
 30
0.0
 10
263.197063
 20
26.503731
 30
0.0
 10
263.197063
 20
17.999787
 30
0.0
 10
254.693119
 20
17.999787
 30
0.0
 10
254.693119
 20
26.503731
 30
0.0
 10
246.189175
 20
26.503731
 30
0.0
 10
246.189175
 20
17.999787
 30
0.0
 10
237.685239
 20
17.999787
 30
0.0
 10
237.685239
 20
26.503731
 30
0.0
 10
229.181295
 20
26.503731
 30
0.0
 10
229.181295
 20
17.999787
 30
0.0
 10
220.677343
 20
17.999787
 30
0.0
 10
220.677343
 20
26.503731
 30
0.0
 10
212.173399
 20
26.503731
 30
0.0
 10
212.173399
 20
17.999787
 30
0.0
 10
203.669455
 20
17.999787
 30
0.0
 10
203.669455
 20
26.503731
 30
0.0
 10
195.165511
 20
26.503731
 30
0.0
 10
195.165511
 20
17.999787
 30
0.0
 10
186.661567
 20
17.999787
 30
0.0
 10
186.661567
 20
26.503731
 30
0.0
 10
178.157623
 20
26.503731
 30
0.0
 10
178.157623
 20
17.999787
 30
0.0
 10
169.653679
 20
17.999787
 30
0.0
 10
169.653679
 20
26.503731
 30
0.0
 10
161.149735
 20
26.503731
 30
0.0
 10
161.149735
 20
17.999787
 30
0.0
 10
152.645791
 20
17.999787
 30
0.0
 10
152.645791
 20
26.503731
 30
0.0
 10
144.141847
 20
26.503731
 30
0.0
 10
144.141847
 20
17.999787
 30
0.0
 10
135.637911
 20
17.999787
 30
0.0
 10
135.637911
 20
26.503731
 30
0.0
 10
127.133959
 20
26.503731
 30
0.0
 10
127.133959
 20
17.999787
 30
0.0
 10
118.630015
 20
17.999787
 30
0.0
 10
118.630015
 20
26.503731
 30
0.0
 10
110.126071
 20
26.503731
 30
0.0
 10
110.126071
 20
17.999787
 30
0.0
 10
101.622127
 20
17.999787
 30
0.0
 10
101.622127
 20
26.503731
 30
0.0
 10
93.118187
 20
26.503731
 30
0.0
 10
93.118187
 20
17.999787
 30
0.0
 10
84.614243
 20
17.999787
 30
0.0
 10
84.614243
 20
26.503731
 30
0.0
 10
76.110299
 20
26.503731
 30
0.0
 10
76.110299
 20
17.999787
 30
0.0
 10
67.606355
 20
17.999787
 30
0.0
 10
67.606355
 20
26.503731
 30
0.0
 10
59.102411
 20
26.503731
 30
0.0
 10
59.102411
 20
17.999787
 30
0.0
 10
50.598467
 20
17.999787
 30
0.0
 10
50.598467
 20
26.503731
 30
0.0
 10
42.094523
 20
26.503731
 30
0.0
 10
42.094523
 20
17.999787
 30
0.0
 10
30.047268
 20
17.999787
 30
0.0
 10
30.047268
 20
26.503731
 30
0.0
 10
26.503959
 20
26.503731
 30
0.0
 10
26.503959
 20
30.755707
 30
0.0
 10
18.000015
 20
30.755707
 30
0.0
 10
18.000015
 20
43.511619
 30
0.0
 10
26.503959
 20
43.511619
 30
0.0
 10
26.503959
 20
52.015563
 30
0.0
 10
18.000015
 20
52.015563
 30
0.0
 10
18.000015
 20
60.519507
 30
0.0
 10
26.503959
 20
60.519507
 30
0.0
 10
26.503959
 20
69.023451
 30
0.0
 10
18.000015
 20
69.023451
 30
0.0
 10
18.000015
 20
77.527395
 30
0.0
 10
26.503959
 20
77.527395
 30
0.0
 10
26.503959
 20
86.031339
 30
0.0
 10
18.000015
 20
86.031339
 30
0.0
 10
18.000015
 20
94.535283
 30
0.0
 10
26.503959
 20
94.535283
 30
0.0
 10
26.503959
 20
103.039227
 30
0.0
 10
18.000015
 20
103.039227
 30
0.0
 10
18.000015
 20
111.543171
 30
0.0
 10
26.503959
 20
111.543171
 30
0.0
 10
26.503959
 20
120.047115
 30
0.0
 10
18.000015
 20
120.047115
 30
0.0
 10
18.000015
 20
128.551059
 30
0.0
 10
26.503959
 20
128.551059
 30
0.0
 10
26.503959
 20
137.055003
 30
0.0
 10
18.000015
 20
137.055003
 30
0.0
 10
18.000015
 20
145.558947
 30
0.0
 10
26.503959
 20
145.558947
 30
0.0
 10
26.503959
 20
154.062891
 30
0.0
 10
18.000015
 20
154.062891
 30
0.0
 10
18.000015
 20
162.566835
 30
0.0
 10
26.503959
 20
162.566835
 30
0.0
 10
26.503959
 20
171.070779
 30
0.0
 10
18.000015
 20
171.070779
 30
0.0
 10
18.000015
 20
179.574723
 30
0.0
 10
26.503959
 20
179.574723
 30
0.0
 10
26.503959
 20
188.078667
 30
0.0
 10
18.000015
 20
188.078667
 30
0.0
 10
18.000015
 20
196.582611
 30
0.0
 10
26.503959
 20
196.582611
 30
0.0
 10
26.503959
 20
205.086555
 30
0.0
 10
18.000015
 20
205.086555
 30
0.0
 10
18.000015
 20
217.842471
 30
0.0
 10
26.503959
 20
217.842471
 30
0.0
 10
26.503959
 20
222.094443
 30
0.0
  0
LWPOLYLINE
  5
105
100
AcDbEntity
  8
0
 62
7
100
AcDbPolyline
 90
2
 70
1
 10
57.020254
 20
202.397115
 30
0.0
 10
144.734376
 20
202.397115
 30
0.0
  0
SPLINE
  5
106
100
AcDbEntity
  8
0
 62
7
100
AcDbSpline
 70
0
 71
3
 72
10
 73
6
 74
4
 40
0.000000
 40
0.000000
 40
0.000000
 40
0.000000
 40
0.663779
 40
1.306407
 40
1.970190
 40
1.970190
 40
1.970190
 40
1.970190
 10
144.734376
 20
202.397115
 30
0.0
 10
144.956909
 20
202.362513
 30
0.0
 10
145.394883
 20
202.294411
 30
0.0
 10
145.899649
 20
201.789642
 30
0.0
 10
145.967750
 20
201.351667
 30
0.0
 10
146.002352
 20
201.129133
 30
0.0
 11
144.734376
 21
202.397115
 31
0.0
 11
145.375313
 21
202.224482
 31
0.0
 11
145.829719
 21
201.770075
 31
0.0
 11
146.002352
 21
201.129133
 31
0.0
  0
LWPOLYLINE
  5
107
100
AcDbEntity
  8
0
 62
7
100
AcDbPolyline
 90
2
 70
1
 10
146.002352
 20
201.129133
 30
0.0
 10
146.002352
 20
46.448938
 30
0.0
  0
SPLINE
  5
108
100
AcDbEntity
  8
0
 62
7
100
AcDbSpline
 70
0
 71
3
 72
10
 73
6
 74
4
 40
0.000000
 40
0.000000
 40
0.000000
 40
0.000000
 40
0.663785
 40
1.306413
 40
1.970192
 40
1.970192
 40
1.970192
 40
1.970192
 10
146.002352
 20
46.448938
 30
0.0
 10
145.967750
 20
46.226404
 30
0.0
 10
145.899649
 20
45.788428
 30
0.0
 10
145.394883
 20
45.283658
 30
0.0
 10
144.956909
 20
45.215556
 30
0.0
 10
144.734376
 20
45.180954
 30
0.0
 11
146.002352
 21
46.448938
 31
0.0
 11
145.829719
 21
45.807995
 31
0.0
 11
145.375313
 21
45.353587
 31
0.0
 11
144.734376
 21
45.180954
 31
0.0
  0
LWPOLYLINE
  5
109
100
AcDbEntity
  8
0
 62
7
100
AcDbPolyline
 90
2
 70
1
 10
144.734376
 20
45.180954
 30
0.0
 10
57.020254
 20
45.180954
 30
0.0
  0
SPLINE
  5
10a
100
AcDbEntity
  8
0
 62
7
100
AcDbSpline
 70
0
 71
3
 72
10
 73
6
 74
4
 40
0.000000
 40
0.000000
 40
0.000000
 40
0.000000
 40
0.663784
 40
1.306413
 40
1.970198
 40
1.970198
 40
1.970198
 40
1.970198
 10
57.020254
 20
45.180954
 30
0.0
 10
56.797720
 20
45.215556
 30
0.0
 10
56.359743
 20
45.283657
 30
0.0
 10
55.854974
 20
45.788427
 30
0.0
 10
55.786872
 20
46.226403
 30
0.0
 10
55.752270
 20
46.448938
 30
0.0
 11
57.020254
 21
45.180954
 31
0.0
 11
56.379312
 21
45.353587
 31
0.0
 11
55.924904
 21
45.807995
 31
0.0
 11
55.752270
 21
46.448938
 31
0.0
  0
LWPOLYLINE
  5
10b
100
AcDbEntity
  8
0
 62
7
100
AcDbPolyline
 90
2
 70
1
 10
55.752270
 20
46.448938
 30
0.0
 10
55.752270
 20
201.129133
 30
0.0
  0
LWPOLYLINE
  5
10c
100
AcDbEntity
  8
0
 62
7
100
AcDbPolyline
 90
2
 70
1
 10
57.020254
 20
202.397115
 30
0.0
 10
57.020254
 20
202.397115
 30
0.0
  0
SPLINE
  5
10d
100
AcDbEntity
  8
0
 62
7
100
AcDbSpline
 70
0
 71
3
 72
10
 73
6
 74
4
 40
0.000000
 40
0.000000
 40
0.000000
 40
0.000000
 40
0.663784
 40
1.306413
 40
1.970196
 40
1.970196
 40
1.970196
 40
1.970196
 10
55.752270
 20
201.129133
 30
0.0
 10
55.786873
 20
201.351667
 30
0.0
 10
55.854974
 20
201.789643
 30
0.0
 10
56.359743
 20
202.294412
 30
0.0
 10
56.797720
 20
202.362513
 30
0.0
 10
57.020254
 20
202.397115
 30
0.0
 11
55.752270
 21
201.129133
 31
0.0
 11
55.924904
 21
201.770075
 31
0.0
 11
56.379312
 21
202.224482
 31
0.0
 11
57.020254
 21
202.397115
 31
0.0
  0
LWPOLYLINE
  5
10e
100
AcDbEntity
  8
0
 62
7
100
AcDbPolyline
 90
2
 70
1
 10
173.814648
 20
203.342007
 30
0.0
 10
261.528856
 20
203.342007
 30
0.0
  0
SPLINE
  5
10f
100
AcDbEntity
  8
0
 62
7
100
AcDbSpline
 70
0
 71
3
 72
10
 73
6
 74
4
 40
0.000000
 40
0.000000
 40
0.000000
 40
0.000000
 40
0.663785
 40
1.306414
 40
1.970199
 40
1.970199
 40
1.970199
 40
1.970199
 10
261.528856
 20
203.342007
 30
0.0
 10
261.751390
 20
203.307405
 30
0.0
 10
262.189367
 20
203.239304
 30
0.0
 10
262.694137
 20
202.734534
 30
0.0
 10
262.762238
 20
202.296558
 30
0.0
 10
262.796840
 20
202.074023
 30
0.0
 11
261.528856
 21
203.342007
 31
0.0
 11
262.169799
 21
203.169374
 31
0.0
 11
262.624207
 21
202.714966
 31
0.0
 11
262.796840
 21
202.074023
 31
0.0
  0
LWPOLYLINE
  5
110
100
AcDbEntity
  8
0
 62
7
100
AcDbPolyline
 90
2
 70
1
 10
262.796840
 20
202.074023
 30
0.0
 10
262.796840
 20
47.393698
 30
0.0
  0
SPLINE
  5
111
100
AcDbEntity
  8
0
 62
7
100
AcDbSpline
 70
0
 71
3
 72
10
 73
6
 74
4
 40
0.000000
 40
0.000000
 40
0.000000
 40
0.000000
 40
0.663785
 40
1.306414
 40
1.970199
 40
1.970199
 40
1.970199
 40
1.970199
 10
262.796840
 20
47.393698
 30
0.0
 10
262.762238
 20
47.171163
 30
0.0
 10
262.694137
 20
46.733187
 30
0.0
 10
262.189367
 20
46.228417
 30
0.0
 10
261.751390
 20
46.160316
 30
0.0
 10
261.528856
 20
46.125714
 30
0.0
 11
262.796840
 21
47.393698
 31
0.0
 11
262.624207
 21
46.752755
 31
0.0
 11
262.169799
 21
46.298347
 31
0.0
 11
261.528856
 21
46.125714
 31
0.0
  0
LWPOLYLINE
  5
112
100
AcDbEntity
  8
0
 62
7
100
AcDbPolyline
 90
2
 70
1
 10
261.528856
 20
46.125714
 30
0.0
 10
173.814648
 20
46.125714
 30
0.0
  0
SPLINE
  5
113
100
AcDbEntity
  8
0
 62
7
100
AcDbSpline
 70
0
 71
3
 72
10
 73
6
 74
4
 40
0.000000
 40
0.000000
 40
0.000000
 40
0.000000
 40
0.663781
 40
1.306412
 40
1.970197
 40
1.970197
 40
1.970197
 40
1.970197
 10
173.814648
 20
46.125714
 30
0.0
 10
173.592115
 20
46.160316
 30
0.0
 10
173.154139
 20
46.228419
 30
0.0
 10
172.649369
 20
46.733186
 30
0.0
 10
172.581267
 20
47.171163
 30
0.0
 10
172.546664
 20
47.393698
 30
0.0
 11
173.814648
 21
46.125714
 31
0.0
 11
173.173709
 21
46.298347
 31
0.0
 11
172.719299
 21
46.752755
 31
0.0
 11
172.546664
 21
47.393698
 31
0.0
  0
LWPOLYLINE
  5
114
100
AcDbEntity
  8
0
 62
7
100
AcDbPolyline
 90
2
 70
1
 10
172.546664
 20
47.393698
 30
0.0
 10
172.546664
 20
202.074023
 30
0.0
  0
LWPOLYLINE
  5
115
100
AcDbEntity
  8
0
 62
7
100
AcDbPolyline
 90
2
 70
1
 10
173.814648
 20
203.342007
 30
0.0
 10
173.814648
 20
203.342007
 30
0.0
  0
SPLINE
  5
116
100
AcDbEntity
  8
0
 62
7
100
AcDbSpline
 70
0
 71
3
 72
10
 73
6
 74
4
 40
0.000000
 40
0.000000
 40
0.000000
 40
0.000000
 40
0.663785
 40
1.306416
 40
1.970197
 40
1.970197
 40
1.970197
 40
1.970197
 10
172.546664
 20
202.074023
 30
0.0
 10
172.581267
 20
202.296558
 30
0.0
 10
172.649369
 20
202.734535
 30
0.0
 10
173.154139
 20
203.239303
 30
0.0
 10
173.592115
 20
203.307405
 30
0.0
 10
173.814648
 20
203.342007
 30
0.0
 11
172.546664
 21
202.074023
 31
0.0
 11
172.719299
 21
202.714966
 31
0.0
 11
173.173709
 21
203.169374
 31
0.0
 11
173.814648
 21
203.342007
 31
0.0
  0
LWPOLYLINE
  5
117
100
AcDbEntity
  8
0
 62
7
100
AcDbPolyline
 90
2
 70
1
 10
295.917688
 20
203.814517
 30
0.0
 10
383.631896
 20
203.814517
 30
0.0
  0
SPLINE
  5
118
100
AcDbEntity
  8
0
 62
7
100
AcDbSpline
 70
0
 71
3
 72
10
 73
6
 74
4
 40
0.000000
 40
0.000000
 40
0.000000
 40
0.000000
 40
0.663785
 40
1.306414
 40
1.970199
 40
1.970199
 40
1.970199
 40
1.970199
 10
383.631896
 20
203.814517
 30
0.0
 10
383.854430
 20
203.779915
 30
0.0
 10
384.292407
 20
203.711814
 30
0.0
 10
384.797177
 20
203.207044
 30
0.0
 10
384.865278
 20
202.769067
 30
0.0
 10
384.899880
 20
202.546533
 30
0.0
 11
383.631896
 21
203.814517
 31
0.0
 11
384.272839
 21
203.641883
 31
0.0
 11
384.727247
 21
203.187476
 31
0.0
 11
384.899880
 21
202.546533
 31
0.0
  0
LWPOLYLINE
  5
119
100
AcDbEntity
  8
0
 62
7
100
AcDbPolyline
 90
2
 70
1
 10
384.899880
 20
202.546533
 30
0.0
 10
384.899880
 20
47.866202
 30
0.0
  0
SPLINE
  5
11a
100
AcDbEntity
  8
0
 62
7
100
AcDbSpline
 70
0
 71
3
 72
10
 73
6
 74
4
 40
0.000000
 40
0.000000
 40
0.000000
 40
0.000000
 40
0.663785
 40
1.306414
 40
1.970199
 40
1.970199
 40
1.970199
 40
1.970199
 10
384.899880
 20
47.866202
 30
0.0
 10
384.865278
 20
47.643667
 30
0.0
 10
384.797177
 20
47.205691
 30
0.0
 10
384.292407
 20
46.700921
 30
0.0
 10
383.854430
 20
46.632820
 30
0.0
 10
383.631896
 20
46.598218
 30
0.0
 11
384.899880
 21
47.866202
 31
0.0
 11
384.727247
 21
47.225259
 31
0.0
 11
384.272839
 21
46.770851
 31
0.0
 11
383.631896
 21
46.598218
 31
0.0
  0
LWPOLYLINE
  5
11b
100
AcDbEntity
  8
0
 62
7
100
AcDbPolyline
 90
2
 70
1
 10
383.631896
 20
46.598218
 30
0.0
 10
295.917688
 20
46.598218
 30
0.0
  0
SPLINE
  5
11c
100
AcDbEntity
  8
0
 62
7
100
AcDbSpline
 70
0
 71
3
 72
10
 73
6
 74
4
 40
0.000000
 40
0.000000
 40
0.000000
 40
0.000000
 40
0.663785
 40
1.306414
 40
1.970199
 40
1.970199
 40
1.970199
 40
1.970199
 10
295.917688
 20
46.598218
 30
0.0
 10
295.695154
 20
46.632820
 30
0.0
 10
295.257177
 20
46.700921
 30
0.0
 10
294.752407
 20
47.205691
 30
0.0
 10
294.684306
 20
47.643667
 30
0.0
 10
294.649704
 20
47.866202
 30
0.0
 11
295.917688
 21
46.598218
 31
0.0
 11
295.276745
 21
46.770851
 31
0.0
 11
294.822337
 21
47.225259
 31
0.0
 11
294.649704
 21
47.866202
 31
0.0
  0
LWPOLYLINE
  5
11d
100
AcDbEntity
  8
0
 62
7
100
AcDbPolyline
 90
2
 70
1
 10
294.649704
 20
47.866202
 30
0.0
 10
294.649704
 20
202.546533
 30
0.0
  0
LWPOLYLINE
  5
11e
100
AcDbEntity
  8
0
 62
7
100
AcDbPolyline
 90
2
 70
1
 10
295.917688
 20
203.814517
 30
0.0
 10
295.917688
 20
203.814517
 30
0.0
  0
SPLINE
  5
11f
100
AcDbEntity
  8
0
 62
7
100
AcDbSpline
 70
0
 71
3
 72
10
 73
6
 74
4
 40
0.000000
 40
0.000000
 40
0.000000
 40
0.000000
 40
0.663784
 40
1.306414
 40
1.970199
 40
1.970199
 40
1.970199
 40
1.970199
 10
294.649704
 20
202.546533
 30
0.0
 10
294.684306
 20
202.769067
 30
0.0
 10
294.752407
 20
203.207044
 30
0.0
 10
295.257177
 20
203.711814
 30
0.0
 10
295.695154
 20
203.779915
 30
0.0
 10
295.917688
 20
203.814517
 30
0.0
 11
294.649704
 21
202.546533
 31
0.0
 11
294.822337
 21
203.187476
 31
0.0
 11
295.276745
 21
203.641883
 31
0.0
 11
295.917688
 21
203.814517
 31
0.0
  0
LWPOLYLINE
  5
120
100
AcDbEntity
  8
0
 62
7
100
AcDbPolyline
 90
2
 70
1
 10
412.712224
 20
204.759408
 30
0.0
 10
500.426504
 20
204.759408
 30
0.0
  0
SPLINE
  5
121
100
AcDbEntity
  8
0
 62
7
100
AcDbSpline
 70
0
 71
3
 72
10
 73
6
 74
4
 40
0.000000
 40
0.000000
 40
0.000000
 40
0.000000
 40
0.663785
 40
1.306415
 40
1.970199
 40
1.970199
 40
1.970199
 40
1.970199
 10
500.426504
 20
204.759408
 30
0.0
 10
500.649038
 20
204.724806
 30
0.0
 10
501.087015
 20
204.656705
 30
0.0
 10
501.591784
 20
204.151934
 30
0.0
 10
501.659886
 20
203.713958
 30
0.0
 10
501.694488
 20
203.491423
 30
0.0
 11
500.426504
 21
204.759408
 31
0.0
 11
501.067447
 21
204.586774
 31
0.0
 11
501.521855
 21
204.132366
 31
0.0
 11
501.694488
 21
203.491423
 31
0.0
  0
LWPOLYLINE
  5
122
100
AcDbEntity
  8
0
 62
7
100
AcDbPolyline
 90
2
 70
1
 10
501.694488
 20
203.491423
 30
0.0
 10
501.694488
 20
48.810962
 30
0.0
  0
SPLINE
  5
123
100
AcDbEntity
  8
0
 62
7
100
AcDbSpline
 70
0
 71
3
 72
10
 73
6
 74
4
 40
0.000000
 40
0.000000
 40
0.000000
 40
0.000000
 40
0.663785
 40
1.306414
 40
1.970199
 40
1.970199
 40
1.970199
 40
1.970199
 10
501.694488
 20
48.810962
 30
0.0
 10
501.659886
 20
48.588427
 30
0.0
 10
501.591785
 20
48.150451
 30
0.0
 10
501.087015
 20
47.645681
 30
0.0
 10
500.649038
 20
47.577580
 30
0.0
 10
500.426504
 20
47.542978
 30
0.0
 11
501.694488
 21
48.810962
 31
0.0
 11
501.521855
 21
48.170019
 31
0.0
 11
501.067447
 21
47.715611
 31
0.0
 11
500.426504
 21
47.542978
 31
0.0
  0
LWPOLYLINE
  5
124
100
AcDbEntity
  8
0
 62
7
100
AcDbPolyline
 90
2
 70
1
 10
500.426504
 20
47.542978
 30
0.0
 10
412.712224
 20
47.542978
 30
0.0
  0
SPLINE
  5
125
100
AcDbEntity
  8
0
 62
7
100
AcDbSpline
 70
0
 71
3
 72
10
 73
6
 74
4
 40
0.000000
 40
0.000000
 40
0.000000
 40
0.000000
 40
0.663785
 40
1.306414
 40
1.970199
 40
1.970199
 40
1.970199
 40
1.970199
 10
412.712224
 20
47.542978
 30
0.0
 10
412.489690
 20
47.577580
 30
0.0
 10
412.051713
 20
47.645681
 30
0.0
 10
411.546943
 20
48.150451
 30
0.0
 10
411.478842
 20
48.588427
 30
0.0
 10
411.444240
 20
48.810962
 30
0.0
 11
412.712224
 21
47.542978
 31
0.0
 11
412.071281
 21
47.715611
 31
0.0
 11
411.616873
 21
48.170019
 31
0.0
 11
411.444240
 21
48.810962
 31
0.0
  0
LWPOLYLINE
  5
126
100
AcDbEntity
  8
0
 62
7
100
AcDbPolyline
 90
2
 70
1
 10
411.444240
 20
48.810962
 30
0.0
 10
411.444240
 20
203.491423
 30
0.0
  0
LWPOLYLINE
  5
127
100
AcDbEntity
  8
0
 62
7
100
AcDbPolyline
 90
2
 70
1
 10
412.712224
 20
204.759408
 30
0.0
 10
412.712224
 20
204.759408
 30
0.0
  0
SPLINE
  5
128
100
AcDbEntity
  8
0
 62
7
100
AcDbSpline
 70
0
 71
3
 72
10
 73
6
 74
4
 40
0.000000
 40
0.000000
 40
0.000000
 40
0.000000
 40
0.663784
 40
1.306414
 40
1.970199
 40
1.970199
 40
1.970199
 40
1.970199
 10
411.444240
 20
203.491423
 30
0.0
 10
411.478842
 20
203.713958
 30
0.0
 10
411.546944
 20
204.151934
 30
0.0
 10
412.051713
 20
204.656705
 30
0.0
 10
412.489690
 20
204.724806
 30
0.0
 10
412.712224
 20
204.759408
 30
0.0
 11
411.444240
 21
203.491423
 31
0.0
 11
411.616873
 21
204.132366
 31
0.0
 11
412.071281
 21
204.586774
 31
0.0
 11
412.712224
 21
204.759408
 31
0.0
  0
LWPOLYLINE
  5
129
100
AcDbEntity
  8
0
 62
7
100
AcDbPolyline
 90
2
 70
1
 10
532.160760
 20
204.759463
 30
0.0
 10
619.874960
 20
204.759463
 30
0.0
  0
SPLINE
  5
12a
100
AcDbEntity
  8
0
 62
7
100
AcDbSpline
 70
0
 71
3
 72
10
 73
6
 74
4
 40
0.000000
 40
0.000000
 40
0.000000
 40
0.000000
 40
0.663785
 40
1.306414
 40
1.970199
 40
1.970199
 40
1.970199
 40
1.970199
 10
619.874960
 20
204.759463
 30
0.0
 10
620.097494
 20
204.724861
 30
0.0
 10
620.535471
 20
204.656760
 30
0.0
 10
621.040241
 20
204.151990
 30
0.0
 10
621.108342
 20
203.714014
 30
0.0
 10
621.142944
 20
203.491479
 30
0.0
 11
619.874960
 21
204.759463
 31
0.0
 11
620.515903
 21
204.586830
 31
0.0
 11
620.970311
 21
204.132422
 31
0.0
 11
621.142944
 21
203.491479
 31
0.0
  0
LWPOLYLINE
  5
12b
100
AcDbEntity
  8
0
 62
7
100
AcDbPolyline
 90
2
 70
1
 10
621.142944
 20
203.491479
 30
0.0
 10
621.142944
 20
48.811154
 30
0.0
  0
SPLINE
  5
12c
100
AcDbEntity
  8
0
 62
7
100
AcDbSpline
 70
0
 71
3
 72
10
 73
6
 74
4
 40
0.000000
 40
0.000000
 40
0.000000
 40
0.000000
 40
0.663785
 40
1.306414
 40
1.970199
 40
1.970199
 40
1.970199
 40
1.970199
 10
621.142944
 20
48.811154
 30
0.0
 10
621.108342
 20
48.588619
 30
0.0
 10
621.040241
 20
48.150643
 30
0.0
 10
620.535471
 20
47.645873
 30
0.0
 10
620.097494
 20
47.577772
 30
0.0
 10
619.874960
 20
47.543170
 30
0.0
 11
621.142944
 21
48.811154
 31
0.0
 11
620.970311
 21
48.170211
 31
0.0
 11
620.515903
 21
47.715803
 31
0.0
 11
619.874960
 21
47.543170
 31
0.0
  0
LWPOLYLINE
  5
12d
100
AcDbEntity
  8
0
 62
7
100
AcDbPolyline
 90
2
 70
1
 10
619.874960
 20
47.543170
 30
0.0
 10
532.160760
 20
47.543170
 30
0.0
  0
SPLINE
  5
12e
100
AcDbEntity
  8
0
 62
7
100
AcDbSpline
 70
0
 71
3
 72
10
 73
6
 74
4
 40
0.000000
 40
0.000000
 40
0.000000
 40
0.000000
 40
0.663785
 40
1.306414
 40
1.970199
 40
1.970199
 40
1.970199
 40
1.970199
 10
532.160760
 20
47.543170
 30
0.0
 10
531.938226
 20
47.577772
 30
0.0
 10
531.500249
 20
47.645873
 30
0.0
 10
530.995479
 20
48.150643
 30
0.0
 10
530.927378
 20
48.588619
 30
0.0
 10
530.892776
 20
48.811154
 30
0.0
 11
532.160760
 21
47.543170
 31
0.0
 11
531.519817
 21
47.715803
 31
0.0
 11
531.065409
 21
48.170211
 31
0.0
 11
530.892776
 21
48.811154
 31
0.0
  0
LWPOLYLINE
  5
12f
100
AcDbEntity
  8
0
 62
7
100
AcDbPolyline
 90
2
 70
1
 10
530.892776
 20
48.811154
 30
0.0
 10
530.892776
 20
203.491479
 30
0.0
  0
LWPOLYLINE
  5
130
100
AcDbEntity
  8
0
 62
7
100
AcDbPolyline
 90
2
 70
1
 10
532.160760
 20
204.759463
 30
0.0
 10
532.160760
 20
204.759463
 30
0.0
  0
SPLINE
  5
131
100
AcDbEntity
  8
0
 62
7
100
AcDbSpline
 70
0
 71
3
 72
10
 73
6
 74
4
 40
0.000000
 40
0.000000
 40
0.000000
 40
0.000000
 40
0.663784
 40
1.306414
 40
1.970199
 40
1.970199
 40
1.970199
 40
1.970199
 10
530.892776
 20
203.491479
 30
0.0
 10
530.927378
 20
203.714014
 30
0.0
 10
530.995479
 20
204.151990
 30
0.0
 10
531.500249
 20
204.656760
 30
0.0
 10
531.938226
 20
204.724861
 30
0.0
 10
532.160760
 20
204.759463
 30
0.0
 11
530.892776
 21
203.491479
 31
0.0
 11
531.065409
 21
204.132422
 31
0.0
 11
531.519817
 21
204.586830
 31
0.0
 11
532.160760
 21
204.759463
 31
0.0
  0
LWPOLYLINE
  5
132
100
AcDbEntity
  8
0
 62
7
100
AcDbPolyline
 90
2
 70
1
 10
648.955288
 20
205.704360
 30
0.0
 10
736.669568
 20
205.704360
 30
0.0
  0
SPLINE
  5
133
100
AcDbEntity
  8
0
 62
7
100
AcDbSpline
 70
0
 71
3
 72
10
 73
6
 74
4
 40
0.000000
 40
0.000000
 40
0.000000
 40
0.000000
 40
0.663785
 40
1.306414
 40
1.970199
 40
1.970199
 40
1.970199
 40
1.970199
 10
736.669568
 20
205.704360
 30
0.0
 10
736.892102
 20
205.669758
 30
0.0
 10
737.330079
 20
205.601657
 30
0.0
 10
737.834849
 20
205.096887
 30
0.0
 10
737.902950
 20
204.658910
 30
0.0
 10
737.937552
 20
204.436375
 30
0.0
 11
736.669568
 21
205.704360
 31
0.0
 11
737.310511
 21
205.531727
 31
0.0
 11
737.764919
 21
205.077319
 31
0.0
 11
737.937552
 21
204.436375
 31
0.0
  0
LWPOLYLINE
  5
134
100
AcDbEntity
  8
0
 62
7
100
AcDbPolyline
 90
2
 70
1
 10
737.937552
 20
204.436375
 30
0.0
 10
737.937552
 20
49.755914
 30
0.0
  0
SPLINE
  5
135
100
AcDbEntity
  8
0
 62
7
100
AcDbSpline
 70
0
 71
3
 72
10
 73
6
 74
4
 40
0.000000
 40
0.000000
 40
0.000000
 40
0.000000
 40
0.663785
 40
1.306414
 40
1.970199
 40
1.970199
 40
1.970199
 40
1.970199
 10
737.937552
 20
49.755914
 30
0.0
 10
737.902950
 20
49.533379
 30
0.0
 10
737.834849
 20
49.095403
 30
0.0
 10
737.330079
 20
48.590633
 30
0.0
 10
736.892102
 20
48.522532
 30
0.0
 10
736.669568
 20
48.487930
 30
0.0
 11
737.937552
 21
49.755914
 31
0.0
 11
737.764919
 21
49.114971
 31
0.0
 11
737.310511
 21
48.660563
 31
0.0
 11
736.669568
 21
48.487930
 31
0.0
  0
LWPOLYLINE
  5
136
100
AcDbEntity
  8
0
 62
7
100
AcDbPolyline
 90
2
 70
1
 10
736.669568
 20
48.487930
 30
0.0
 10
648.955288
 20
48.487930
 30
0.0
  0
SPLINE
  5
137
100
AcDbEntity
  8
0
 62
7
100
AcDbSpline
 70
0
 71
3
 72
10
 73
6
 74
4
 40
0.000000
 40
0.000000
 40
0.000000
 40
0.000000
 40
0.663785
 40
1.306414
 40
1.970199
 40
1.970199
 40
1.970199
 40
1.970199
 10
648.955288
 20
48.487930
 30
0.0
 10
648.732754
 20
48.522532
 30
0.0
 10
648.294777
 20
48.590633
 30
0.0
 10
647.790007
 20
49.095403
 30
0.0
 10
647.721906
 20
49.533379
 30
0.0
 10
647.687304
 20
49.755914
 30
0.0
 11
648.955288
 21
48.487930
 31
0.0
 11
648.314345
 21
48.660563
 31
0.0
 11
647.859937
 21
49.114971
 31
0.0
 11
647.687304
 21
49.755914
 31
0.0
  0
LWPOLYLINE
  5
138
100
AcDbEntity
  8
0
 62
7
100
AcDbPolyline
 90
2
 70
1
 10
647.687304
 20
49.755914
 30
0.0
 10
647.687304
 20
204.436375
 30
0.0
  0
LWPOLYLINE
  5
139
100
AcDbEntity
  8
0
 62
7
100
AcDbPolyline
 90
2
 70
1
 10
648.955288
 20
205.704360
 30
0.0
 10
648.955288
 20
205.704360
 30
0.0
  0
SPLINE
  5
13a
100
AcDbEntity
  8
0
 62
7
100
AcDbSpline
 70
0
 71
3
 72
10
 73
6
 74
4
 40
0.000000
 40
0.000000
 40
0.000000
 40
0.000000
 40
0.663785
 40
1.306415
 40
1.970199
 40
1.970199
 40
1.970199
 40
1.970199
 10
647.687304
 20
204.436375
 30
0.0
 10
647.721906
 20
204.658910
 30
0.0
 10
647.790007
 20
205.096887
 30
0.0
 10
648.294777
 20
205.601657
 30
0.0
 10
648.732754
 20
205.669758
 30
0.0
 10
648.955288
 20
205.704360
 30
0.0
 11
647.687304
 21
204.436375
 31
0.0
 11
647.859937
 21
205.077319
 31
0.0
 11
648.314345
 21
205.531727
 31
0.0
 11
648.955288
 21
205.704360
 31
0.0
  0
LWPOLYLINE
  5
13b
100
AcDbEntity
  8
0
 62
7
100
AcDbPolyline
 90
2
 70
1
 10
764.864616
 20
205.704422
 30
0.0
 10
852.578800
 20
205.704422
 30
0.0
  0
SPLINE
  5
13c
100
AcDbEntity
  8
0
 62
7
100
AcDbSpline
 70
0
 71
3
 72
10
 73
6
 74
4
 40
0.000000
 40
0.000000
 40
0.000000
 40
0.000000
 40
0.663796
 40
1.306428
 40
1.970213
 40
1.970213
 40
1.970213
 40
1.970213
 10
852.578800
 20
205.704422
 30
0.0
 10
852.801338
 20
205.669820
 30
0.0
 10
853.239320
 20
205.601720
 30
0.0
 10
853.744096
 20
205.096950
 30
0.0
 10
853.812198
 20
204.658972
 30
0.0
 10
853.846800
 20
204.436438
 30
0.0
 11
852.578800
 21
205.704422
 31
0.0
 11
853.219754
 21
205.531788
 31
0.0
 11
853.674166
 21
205.077380
 31
0.0
 11
853.846800
 21
204.436438
 31
0.0
  0
LWPOLYLINE
  5
13d
100
AcDbEntity
  8
0
 62
7
100
AcDbPolyline
 90
2
 70
1
 10
853.846800
 20
204.436438
 30
0.0
 10
853.846800
 20
49.756106
 30
0.0
  0
SPLINE
  5
13e
100
AcDbEntity
  8
0
 62
7
100
AcDbSpline
 70
0
 71
3
 72
10
 73
6
 74
4
 40
0.000000
 40
0.000000
 40
0.000000
 40
0.000000
 40
0.663781
 40
1.306415
 40
1.970211
 40
1.970211
 40
1.970211
 40
1.970211
 10
853.846800
 20
49.756106
 30
0.0
 10
853.812198
 20
49.533573
 30
0.0
 10
853.744095
 20
49.095596
 30
0.0
 10
853.239320
 20
48.590825
 30
0.0
 10
852.801338
 20
48.522724
 30
0.0
 10
852.578800
 20
48.488122
 30
0.0
 11
853.846800
 21
49.756106
 31
0.0
 11
853.674166
 21
49.115167
 31
0.0
 11
853.219754
 21
48.660757
 31
0.0
 11
852.578800
 21
48.488122
 31
0.0
  0
LWPOLYLINE
  5
13f
100
AcDbEntity
  8
0
 62
7
100
AcDbPolyline
 90
2
 70
1
 10
852.578800
 20
48.488122
 30
0.0
 10
764.864616
 20
48.488122
 30
0.0
  0
SPLINE
  5
140
100
AcDbEntity
  8
0
 62
7
100
AcDbSpline
 70
0
 71
3
 72
10
 73
6
 74
4
 40
0.000000
 40
0.000000
 40
0.000000
 40
0.000000
 40
0.663785
 40
1.306416
 40
1.970197
 40
1.970197
 40
1.970197
 40
1.970197
 10
764.864616
 20
48.488122
 30
0.0
 10
764.642082
 20
48.522725
 30
0.0
 10
764.204105
 20
48.590827
 30
0.0
 10
763.699337
 20
49.095597
 30
0.0
 10
763.631234
 20
49.533573
 30
0.0
 10
763.596632
 20
49.756106
 30
0.0
 11
764.864616
 21
48.488122
 31
0.0
 11
764.223673
 21
48.660757
 31
0.0
 11
763.769265
 21
49.115167
 31
0.0
 11
763.596632
 21
49.756106
 31
0.0
  0
LWPOLYLINE
  5
141
100
AcDbEntity
  8
0
 62
7
100
AcDbPolyline
 90
2
 70
1
 10
763.596632
 20
49.756106
 30
0.0
 10
763.596632
 20
204.436438
 30
0.0
  0
LWPOLYLINE
  5
142
100
AcDbEntity
  8
0
 62
7
100
AcDbPolyline
 90
2
 70
1
 10
764.864616
 20
205.704422
 30
0.0
 10
764.864616
 20
205.704422
 30
0.0
  0
SPLINE
  5
143
100
AcDbEntity
  8
0
 62
7
100
AcDbSpline
 70
0
 71
3
 72
10
 73
6
 74
4
 40
0.000000
 40
0.000000
 40
0.000000
 40
0.000000
 40
0.663784
 40
1.306414
 40
1.970199
 40
1.970199
 40
1.970199
 40
1.970199
 10
763.596632
 20
204.436438
 30
0.0
 10
763.631234
 20
204.658972
 30
0.0
 10
763.699335
 20
205.096949
 30
0.0
 10
764.204105
 20
205.601718
 30
0.0
 10
764.642082
 20
205.669820
 30
0.0
 10
764.864616
 20
205.704422
 30
0.0
 11
763.596632
 21
204.436438
 31
0.0
 11
763.769265
 21
205.077380
 31
0.0
 11
764.223673
 21
205.531788
 31
0.0
 11
764.864616
 21
205.704422
 31
0.0
  0
LWPOLYLINE
  5
144
100
AcDbEntity
  8
0
 62
7
100
AcDbPolyline
 90
2
 70
1
 10
881.659200
 20
206.649319
 30
0.0
 10
969.373440
 20
206.649319
 30
0.0
  0
SPLINE
  5
145
100
AcDbEntity
  8
0
 62
7
100
AcDbSpline
 70
0
 71
3
 72
10
 73
6
 74
4
 40
0.000000
 40
0.000000
 40
0.000000
 40
0.000000
 40
0.663796
 40
1.306429
 40
1.970214
 40
1.970214
 40
1.970214
 40
1.970214
 10
969.373440
 20
206.649319
 30
0.0
 10
969.595978
 20
206.614718
 30
0.0
 10
970.033960
 20
206.546618
 30
0.0
 10
970.538736
 20
206.041847
 30
0.0
 10
970.606838
 20
205.603869
 30
0.0
 10
970.641440
 20
205.381334
 30
0.0
 11
969.373440
 21
206.649319
 31
0.0
 11
970.014394
 21
206.476686
 31
0.0
 11
970.468806
 21
206.022277
 31
0.0
 11
970.641440
 21
205.381334
 31
0.0
  0
LWPOLYLINE
  5
146
100
AcDbEntity
  8
0
 62
7
100
AcDbPolyline
 90
2
 70
1
 10
970.641440
 20
205.381334
 30
0.0
 10
970.641440
 20
50.700874
 30
0.0
  0
SPLINE
  5
147
100
AcDbEntity
  8
0
 62
7
100
AcDbSpline
 70
0
 71
3
 72
10
 73
6
 74
4
 40
0.000000
 40
0.000000
 40
0.000000
 40
0.000000
 40
0.663785
 40
1.306417
 40
1.970213
 40
1.970213
 40
1.970213
 40
1.970213
 10
970.641440
 20
50.700874
 30
0.0
 10
970.606838
 20
50.478339
 30
0.0
 10
970.538736
 20
50.040361
 30
0.0
 10
970.033960
 20
49.535591
 30
0.0
 10
969.595978
 20
49.467491
 30
0.0
 10
969.373440
 20
49.432890
 30
0.0
 11
970.641440
 21
50.700874
 31
0.0
 11
970.468806
 21
50.059931
 31
0.0
 11
970.014394
 21
49.605523
 31
0.0
 11
969.373440
 21
49.432890
 31
0.0
  0
LWPOLYLINE
  5
148
100
AcDbEntity
  8
0
 62
7
100
AcDbPolyline
 90
2
 70
1
 10
969.373440
 20
49.432890
 30
0.0
 10
881.659200
 20
49.432890
 30
0.0
  0
SPLINE
  5
149
100
AcDbEntity
  8
0
 62
7
100
AcDbSpline
 70
0
 71
3
 72
10
 73
6
 74
4
 40
0.000000
 40
0.000000
 40
0.000000
 40
0.000000
 40
0.663795
 40
1.306428
 40
1.970213
 40
1.970213
 40
1.970213
 40
1.970213
 10
881.659200
 20
49.432890
 30
0.0
 10
881.436662
 20
49.467491
 30
0.0
 10
880.998680
 20
49.535591
 30
0.0
 10
880.493904
 20
50.040361
 30
0.0
 10
880.425802
 20
50.478339
 30
0.0
 10
880.391200
 20
50.700874
 30
0.0
 11
881.659200
 21
49.432890
 31
0.0
 11
881.018246
 21
49.605523
 31
0.0
 11
880.563834
 21
50.059931
 31
0.0
 11
880.391200
 21
50.700874
 31
0.0
  0
LWPOLYLINE
  5
14a
100
AcDbEntity
  8
0
 62
7
100
AcDbPolyline
 90
2
 70
1
 10
880.391200
 20
50.700874
 30
0.0
 10
880.391200
 20
205.381334
 30
0.0
  0
LWPOLYLINE
  5
14b
100
AcDbEntity
  8
0
 62
7
100
AcDbPolyline
 90
2
 70
1
 10
881.659200
 20
206.649319
 30
0.0
 10
881.659200
 20
206.649319
 30
0.0
  0
LWPOLYLINE
  5
14c
100
AcDbEntity
  8
0
 62
7
100
AcDbPolyline
 90
549
 70
1
 10
51.995448
 20
-20.800758
 30
0.0
 10
60.499392
 20
-20.800758
 30
0.0
 10
60.499392
 20
-29.304702
 30
0.0
 10
69.003336
 20
-29.304702
 30
0.0
 10
69.003336
 20
-20.800758
 30
0.0
 10
77.507280
 20
-20.800758
 30
0.0
 10
77.507280
 20
-29.304702
 30
0.0
 10
86.011224
 20
-29.304702
 30
0.0
 10
86.011224
 20
-20.800758
 30
0.0
 10
94.515168
 20
-20.800758
 30
0.0
 10
94.515168
 20
-29.304702
 30
0.0
 10
103.019108
 20
-29.304702
 30
0.0
 10
103.019108
 20
-20.800758
 30
0.0
 10
111.523052
 20
-20.800758
 30
0.0
 10
111.523052
 20
-29.304702
 30
0.0
 10
120.026996
 20
-29.304702
 30
0.0
 10
120.026996
 20
-20.800758
 30
0.0
 10
128.530948
 20
-20.800758
 30
0.0
 10
128.530948
 20
-29.304702
 30
0.0
 10
137.034892
 20
-29.304702
 30
0.0
 10
137.034892
 20
-20.800758
 30
0.0
 10
145.538828
 20
-20.800758
 30
0.0
 10
145.538828
 20
-29.304702
 30
0.0
 10
154.042772
 20
-29.304702
 30
0.0
 10
154.042772
 20
-20.800758
 30
0.0
 10
162.546716
 20
-20.800758
 30
0.0
 10
162.546716
 20
-29.304702
 30
0.0
 10
171.050660
 20
-29.304702
 30
0.0
 10
171.050660
 20
-20.800758
 30
0.0
 10
179.554604
 20
-20.800758
 30
0.0
 10
179.554604
 20
-29.304702
 30
0.0
 10
188.058548
 20
-29.304702
 30
0.0
 10
188.058548
 20
-20.800758
 30
0.0
 10
196.562492
 20
-20.800758
 30
0.0
 10
196.562492
 20
-29.304702
 30
0.0
 10
205.066436
 20
-29.304702
 30
0.0
 10
205.066436
 20
-20.800758
 30
0.0
 10
213.570380
 20
-20.800758
 30
0.0
 10
213.570380
 20
-29.304702
 30
0.0
 10
222.074332
 20
-29.304702
 30
0.0
 10
222.074332
 20
-20.800758
 30
0.0
 10
230.578276
 20
-20.800758
 30
0.0
 10
230.578276
 20
-29.304702
 30
0.0
 10
239.082220
 20
-29.304702
 30
0.0
 10
239.082220
 20
-20.800758
 30
0.0
 10
247.586156
 20
-20.800758
 30
0.0
 10
247.586156
 20
-29.304702
 30
0.0
 10
256.090100
 20
-29.304702
 30
0.0
 10
256.090100
 20
-20.800758
 30
0.0
 10
264.594044
 20
-20.800758
 30
0.0
 10
264.594044
 20
-29.304702
 30
0.0
 10
273.097988
 20
-29.304702
 30
0.0
 10
273.097988
 20
-20.800758
 30
0.0
 10
281.601932
 20
-20.800758
 30
0.0
 10
281.601932
 20
-29.304702
 30
0.0
 10
290.105876
 20
-29.304702
 30
0.0
 10
290.105876
 20
-20.800758
 30
0.0
 10
298.609820
 20
-20.800758
 30
0.0
 10
298.609820
 20
-29.304702
 30
0.0
 10
307.113764
 20
-29.304702
 30
0.0
 10
307.113764
 20
-20.800758
 30
0.0
 10
315.617708
 20
-20.800758
 30
0.0
 10
315.617708
 20
-29.304702
 30
0.0
 10
324.121652
 20
-29.304702
 30
0.0
 10
324.121652
 20
-20.800758
 30
0.0
 10
332.625596
 20
-20.800758
 30
0.0
 10
332.625596
 20
-29.304702
 30
0.0
 10
341.129540
 20
-29.304702
 30
0.0
 10
341.129540
 20
-20.800758
 30
0.0
 10
349.633484
 20
-20.800758
 30
0.0
 10
349.633484
 20
-29.304702
 30
0.0
 10
358.137428
 20
-29.304702
 30
0.0
 10
358.137428
 20
-20.800758
 30
0.0
 10
366.641380
 20
-20.800758
 30
0.0
 10
366.641380
 20
-29.304702
 30
0.0
 10
375.145324
 20
-29.304702
 30
0.0
 10
375.145324
 20
-20.800758
 30
0.0
 10
383.649268
 20
-20.800758
 30
0.0
 10
383.649268
 20
-29.304702
 30
0.0
 10
392.153212
 20
-29.304702
 30
0.0
 10
392.153212
 20
-20.800758
 30
0.0
 10
400.657156
 20
-20.800758
 30
0.0
 10
400.657156
 20
-29.304702
 30
0.0
 10
409.161100
 20
-29.304702
 30
0.0
 10
409.161100
 20
-20.800758
 30
0.0
 10
417.665044
 20
-20.800758
 30
0.0
 10
417.665044
 20
-29.304702
 30
0.0
 10
426.168988
 20
-29.304702
 30
0.0
 10
426.168988
 20
-20.800758
 30
0.0
 10
434.672932
 20
-20.800758
 30
0.0
 10
434.672932
 20
-29.304702
 30
0.0
 10
443.176876
 20
-29.304702
 30
0.0
 10
443.176876
 20
-20.800758
 30
0.0
 10
451.680820
 20
-20.800758
 30
0.0
 10
451.680820
 20
-29.304702
 30
0.0
 10
460.184764
 20
-29.304702
 30
0.0
 10
460.184764
 20
-20.800758
 30
0.0
 10
468.688708
 20
-20.800758
 30
0.0
 10
468.688708
 20
-29.304702
 30
0.0
 10
477.192652
 20
-29.304702
 30
0.0
 10
477.192652
 20
-20.800758
 30
0.0
 10
485.696596
 20
-20.800758
 30
0.0
 10
485.696596
 20
-29.304702
 30
0.0
 10
494.200540
 20
-29.304702
 30
0.0
 10
494.200540
 20
-20.800758
 30
0.0
 10
502.704484
 20
-20.800758
 30
0.0
 10
502.704484
 20
-29.304702
 30
0.0
 10
511.208428
 20
-29.304702
 30
0.0
 10
511.208428
 20
-20.800758
 30
0.0
 10
519.712372
 20
-20.800758
 30
0.0
 10
519.712372
 20
-29.304702
 30
0.0
 10
528.216316
 20
-29.304702
 30
0.0
 10
528.216316
 20
-20.800758
 30
0.0
 10
536.720260
 20
-20.800758
 30
0.0
 10
536.720260
 20
-29.304702
 30
0.0
 10
545.224204
 20
-29.304702
 30
0.0
 10
545.224204
 20
-20.800758
 30
0.0
 10
553.728148
 20
-20.800758
 30
0.0
 10
553.728148
 20
-29.304702
 30
0.0
 10
562.232092
 20
-29.304702
 30
0.0
 10
562.232092
 20
-20.800758
 30
0.0
 10
570.736036
 20
-20.800758
 30
0.0
 10
570.736036
 20
-29.304702
 30
0.0
 10
579.239980
 20
-29.304702
 30
0.0
 10
579.239980
 20
-20.800758
 30
0.0
 10
587.743924
 20
-20.800758
 30
0.0
 10
587.743924
 20
-29.304702
 30
0.0
 10
596.247860
 20
-29.304702
 30
0.0
 10
596.247860
 20
-20.800758
 30
0.0
 10
604.751812
 20
-20.800758
 30
0.0
 10
604.751812
 20
-29.304702
 30
0.0
 10
613.255748
 20
-29.304702
 30
0.0
 10
613.255748
 20
-20.800758
 30
0.0
 10
621.759700
 20
-20.800758
 30
0.0
 10
621.759700
 20
-29.304702
 30
0.0
 10
630.263636
 20
-29.304702
 30
0.0
 10
630.263636
 20
-20.800758
 30
0.0
 10
638.767588
 20
-20.800758
 30
0.0
 10
638.767588
 20
-29.304702
 30
0.0
 10
647.271524
 20
-29.304702
 30
0.0
 10
647.271524
 20
-20.800758
 30
0.0
 10
655.775476
 20
-20.800758
 30
0.0
 10
655.775476
 20
-29.304702
 30
0.0
 10
664.279420
 20
-29.304702
 30
0.0
 10
664.279420
 20
-20.800758
 30
0.0
 10
672.783364
 20
-20.800758
 30
0.0
 10
672.783364
 20
-29.304702
 30
0.0
 10
681.287308
 20
-29.304702
 30
0.0
 10
681.287308
 20
-20.800758
 30
0.0
 10
689.791252
 20
-20.800758
 30
0.0
 10
689.791252
 20
-29.304702
 30
0.0
 10
698.295196
 20
-29.304702
 30
0.0
 10
698.295196
 20
-20.800758
 30
0.0
 10
706.799140
 20
-20.800758
 30
0.0
 10
706.799140
 20
-29.304702
 30
0.0
 10
715.303084
 20
-29.304702
 30
0.0
 10
715.303084
 20
-20.800758
 30
0.0
 10
723.807028
 20
-20.800758
 30
0.0
 10
723.807028
 20
-29.304702
 30
0.0
 10
732.310972
 20
-29.304702
 30
0.0
 10
732.310972
 20
-20.800758
 30
0.0
 10
740.814916
 20
-20.800758
 30
0.0
 10
740.814916
 20
-29.304702
 30
0.0
 10
749.318860
 20
-29.304702
 30
0.0
 10
749.318860
 20
-20.800758
 30
0.0
 10
757.822804
 20
-20.800758
 30
0.0
 10
757.822804
 20
-29.304702
 30
0.0
 10
766.326748
 20
-29.304702
 30
0.0
 10
766.326748
 20
-20.800758
 30
0.0
 10
774.830692
 20
-20.800758
 30
0.0
 10
774.830692
 20
-29.304702
 30
0.0
 10
783.334636
 20
-29.304702
 30
0.0
 10
783.334636
 20
-20.800758
 30
0.0
 10
791.838580
 20
-20.800758
 30
0.0
 10
791.838580
 20
-29.304702
 30
0.0
 10
800.342524
 20
-29.304702
 30
0.0
 10
800.342524
 20
-20.800758
 30
0.0
 10
808.846468
 20
-20.800758
 30
0.0
 10
808.846468
 20
-29.304702
 30
0.0
 10
817.350412
 20
-29.304702
 30
0.0
 10
817.350412
 20
-20.800758
 30
0.0
 10
825.854356
 20
-20.800758
 30
0.0
 10
825.854356
 20
-29.304702
 30
0.0
 10
834.358276
 20
-29.304702
 30
0.0
 10
834.358276
 20
-20.800758
 30
0.0
 10
842.862276
 20
-20.800758
 30
0.0
 10
842.862276
 20
-29.304702
 30
0.0
 10
851.366196
 20
-29.304702
 30
0.0
 10
851.366196
 20
-20.800758
 30
0.0
 10
859.870116
 20
-20.800758
 30
0.0
 10
859.870116
 20
-29.304702
 30
0.0
 10
868.374036
 20
-29.304702
 30
0.0
 10
868.374036
 20
-20.800758
 30
0.0
 10
876.878036
 20
-20.800758
 30
0.0
 10
876.878036
 20
-29.304702
 30
0.0
 10
885.381956
 20
-29.304702
 30
0.0
 10
885.381956
 20
-20.800758
 30
0.0
 10
893.885876
 20
-20.800758
 30
0.0
 10
893.885876
 20
-29.304702
 30
0.0
 10
902.389876
 20
-29.304702
 30
0.0
 10
902.389876
 20
-20.800758
 30
0.0
 10
910.893796
 20
-20.800758
 30
0.0
 10
910.893796
 20
-29.304702
 30
0.0
 10
919.397716
 20
-29.304702
 30
0.0
 10
919.397716
 20
-20.800758
 30
0.0
 10
927.901716
 20
-20.800758
 30
0.0
 10
927.901716
 20
-29.304702
 30
0.0
 10
936.405636
 20
-29.304702
 30
0.0
 10
936.405636
 20
-20.800758
 30
0.0
 10
944.909556
 20
-20.800758
 30
0.0
 10
944.909556
 20
-29.304702
 30
0.0
 10
953.413476
 20
-29.304702
 30
0.0
 10
953.413476
 20
-20.800758
 30
0.0
 10
961.917476
 20
-20.800758
 30
0.0
 10
961.917476
 20
-29.304702
 30
0.0
 10
970.421396
 20
-29.304702
 30
0.0
 10
970.421396
 20
-20.800758
 30
0.0
 10
978.925316
 20
-20.800758
 30
0.0
 10
978.925316
 20
-29.304702
 30
0.0
 10
987.429316
 20
-29.304702
 30
0.0
 10
987.429316
 20
-20.800758
 30
0.0
 10
999.476516
 20
-20.800758
 30
0.0
 10
999.476516
 20
-29.304702
 30
0.0
 10
1003.019876
 20
-29.304702
 30
0.0
 10
1003.019876
 20
-33.556674
 30
0.0
 10
1011.523796
 20
-33.556674
 30
0.0
 10
1011.523796
 20
-46.312590
 30
0.0
 10
1003.019876
 20
-46.312590
 30
0.0
 10
1003.019876
 20
-54.816534
 30
0.0
 10
1011.523796
 20
-54.816534
 30
0.0
 10
1011.523796
 20
-63.320478
 30
0.0
 10
1003.019876
 20
-63.320478
 30
0.0
 10
1003.019876
 20
-71.824422
 30
0.0
 10
1011.523796
 20
-71.824422
 30
0.0
 10
1011.523796
 20
-80.328366
 30
0.0
 10
1003.019876
 20
-80.328366
 30
0.0
 10
1003.019876
 20
-88.832310
 30
0.0
 10
1011.523796
 20
-88.832310
 30
0.0
 10
1011.523796
 20
-97.336254
 30
0.0
 10
1003.019876
 20
-97.336254
 30
0.0
 10
1003.019876
 20
-105.840198
 30
0.0
 10
1011.523796
 20
-105.840198
 30
0.0
 10
1011.523796
 20
-114.344142
 30
0.0
 10
1003.019876
 20
-114.344142
 30
0.0
 10
1003.019876
 20
-122.848086
 30
0.0
 10
1011.523796
 20
-122.848086
 30
0.0
 10
1011.523796
 20
-131.352030
 30
0.0
 10
1003.019876
 20
-131.352030
 30
0.0
 10
1003.019876
 20
-139.855974
 30
0.0
 10
1011.523796
 20
-139.855974
 30
0.0
 10
1011.523796
 20
-148.359918
 30
0.0
 10
1003.019876
 20
-148.359918
 30
0.0
 10
1003.019876
 20
-156.863862
 30
0.0
 10
1011.523796
 20
-156.863862
 30
0.0
 10
1011.523796
 20
-165.367806
 30
0.0
 10
1003.019876
 20
-165.367806
 30
0.0
 10
1003.019876
 20
-173.871750
 30
0.0
 10
1011.523796
 20
-173.871750
 30
0.0
 10
1011.523796
 20
-182.375694
 30
0.0
 10
1003.019876
 20
-182.375694
 30
0.0
 10
1003.019876
 20
-190.879638
 30
0.0
 10
1011.523796
 20
-190.879638
 30
0.0
 10
1011.523796
 20
-199.383582
 30
0.0
 10
1003.019876
 20
-199.383582
 30
0.0
 10
1003.019876
 20
-207.887526
 30
0.0
 10
1011.523796
 20
-207.887526
 30
0.0
 10
1011.523796
 20
-220.643446
 30
0.0
 10
1003.019876
 20
-220.643446
 30
0.0
 10
1003.019876
 20
-224.895414
 30
0.0
 10
999.476516
 20
-224.895414
 30
0.0
 10
999.476516
 20
-233.399358
 30
0.0
 10
987.429316
 20
-233.399358
 30
0.0
 10
987.429316
 20
-224.895414
 30
0.0
 10
978.925316
 20
-224.895414
 30
0.0
 10
978.925316
 20
-233.399358
 30
0.0
 10
970.421396
 20
-233.399358
 30
0.0
 10
970.421396
 20
-224.895414
 30
0.0
 10
961.917476
 20
-224.895414
 30
0.0
 10
961.917476
 20
-233.399358
 30
0.0
 10
953.413476
 20
-233.399358
 30
0.0
 10
953.413476
 20
-224.895414
 30
0.0
 10
944.909556
 20
-224.895414
 30
0.0
 10
944.909556
 20
-233.399358
 30
0.0
 10
936.405636
 20
-233.399358
 30
0.0
 10
936.405636
 20
-224.895414
 30
0.0
 10
927.901716
 20
-224.895414
 30
0.0
 10
927.901716
 20
-233.399358
 30
0.0
 10
919.397716
 20
-233.399358
 30
0.0
 10
919.397716
 20
-224.895414
 30
0.0
 10
910.893796
 20
-224.895414
 30
0.0
 10
910.893796
 20
-233.399358
 30
0.0
 10
902.389876
 20
-233.399358
 30
0.0
 10
902.389876
 20
-224.895414
 30
0.0
 10
893.885876
 20
-224.895414
 30
0.0
 10
893.885876
 20
-233.399358
 30
0.0
 10
885.381956
 20
-233.399358
 30
0.0
 10
885.381956
 20
-224.895414
 30
0.0
 10
876.878036
 20
-224.895414
 30
0.0
 10
876.878036
 20
-233.399358
 30
0.0
 10
868.374036
 20
-233.399358
 30
0.0
 10
868.374036
 20
-224.895414
 30
0.0
 10
859.870116
 20
-224.895414
 30
0.0
 10
859.870116
 20
-233.399358
 30
0.0
 10
851.366196
 20
-233.399358
 30
0.0
 10
851.366196
 20
-224.895414
 30
0.0
 10
842.862276
 20
-224.895414
 30
0.0
 10
842.862276
 20
-233.399358
 30
0.0
 10
834.358276
 20
-233.399358
 30
0.0
 10
834.358276
 20
-224.895414
 30
0.0
 10
825.854356
 20
-224.895414
 30
0.0
 10
825.854356
 20
-233.399358
 30
0.0
 10
817.350412
 20
-233.399358
 30
0.0
 10
817.350412
 20
-224.895414
 30
0.0
 10
808.846468
 20
-224.895414
 30
0.0
 10
808.846468
 20
-233.399358
 30
0.0
 10
800.342524
 20
-233.399358
 30
0.0
 10
800.342524
 20
-224.895414
 30
0.0
 10
791.838580
 20
-224.895414
 30
0.0
 10
791.838580
 20
-233.399358
 30
0.0
 10
783.334636
 20
-233.399358
 30
0.0
 10
783.334636
 20
-224.895414
 30
0.0
 10
774.830692
 20
-224.895414
 30
0.0
 10
774.830692
 20
-233.399358
 30
0.0
 10
766.326748
 20
-233.399358
 30
0.0
 10
766.326748
 20
-224.895414
 30
0.0
 10
757.822804
 20
-224.895414
 30
0.0
 10
757.822804
 20
-233.399358
 30
0.0
 10
749.318860
 20
-233.399358
 30
0.0
 10
749.318860
 20
-224.895414
 30
0.0
 10
740.814916
 20
-224.895414
 30
0.0
 10
740.814916
 20
-233.399358
 30
0.0
 10
732.310972
 20
-233.399358
 30
0.0
 10
732.310972
 20
-224.895414
 30
0.0
 10
723.807028
 20
-224.895414
 30
0.0
 10
723.807028
 20
-233.399358
 30
0.0
 10
715.303084
 20
-233.399358
 30
0.0
 10
715.303084
 20
-224.895414
 30
0.0
 10
706.799140
 20
-224.895414
 30
0.0
 10
706.799140
 20
-233.399358
 30
0.0
 10
698.295196
 20
-233.399358
 30
0.0
 10
698.295196
 20
-224.895414
 30
0.0
 10
689.791252
 20
-224.895414
 30
0.0
 10
689.791252
 20
-233.399358
 30
0.0
 10
681.287308
 20
-233.399358
 30
0.0
 10
681.287308
 20
-224.895414
 30
0.0
 10
672.783364
 20
-224.895414
 30
0.0
 10
672.783364
 20
-233.399358
 30
0.0
 10
664.279420
 20
-233.399358
 30
0.0
 10
664.279420
 20
-224.895414
 30
0.0
 10
655.775476
 20
-224.895414
 30
0.0
 10
655.775476
 20
-233.399358
 30
0.0
 10
647.271524
 20
-233.399358
 30
0.0
 10
647.271524
 20
-224.895414
 30
0.0
 10
638.767588
 20
-224.895414
 30
0.0
 10
638.767588
 20
-233.399358
 30
0.0
 10
630.263636
 20
-233.399358
 30
0.0
 10
630.263636
 20
-224.895414
 30
0.0
 10
621.759700
 20
-224.895414
 30
0.0
 10
621.759700
 20
-233.399358
 30
0.0
 10
613.255748
 20
-233.399358
 30
0.0
 10
613.255748
 20
-224.895414
 30
0.0
 10
604.751812
 20
-224.895414
 30
0.0
 10
604.751812
 20
-233.399358
 30
0.0
 10
596.247860
 20
-233.399358
 30
0.0
 10
596.247860
 20
-224.895414
 30
0.0
 10
587.743924
 20
-224.895414
 30
0.0
 10
587.743924
 20
-233.399358
 30
0.0
 10
579.239980
 20
-233.399358
 30
0.0
 10
579.239980
 20
-224.895414
 30
0.0
 10
570.736036
 20
-224.895414
 30
0.0
 10
570.736036
 20
-233.399358
 30
0.0
 10
562.232092
 20
-233.399358
 30
0.0
 10
562.232092
 20
-224.895414
 30
0.0
 10
553.728148
 20
-224.895414
 30
0.0
 10
553.728148
 20
-233.399358
 30
0.0
 10
545.224204
 20
-233.399358
 30
0.0
 10
545.224204
 20
-224.895414
 30
0.0
 10
536.720260
 20
-224.895414
 30
0.0
 10
536.720260
 20
-233.399358
 30
0.0
 10
528.216316
 20
-233.399358
 30
0.0
 10
528.216316
 20
-224.895414
 30
0.0
 10
519.712372
 20
-224.895414
 30
0.0
 10
519.712372
 20
-233.399358
 30
0.0
 10
511.208428
 20
-233.399358
 30
0.0
 10
511.208428
 20
-224.895414
 30
0.0
 10
502.704484
 20
-224.895414
 30
0.0
 10
502.704484
 20
-233.399358
 30
0.0
 10
494.200540
 20
-233.399358
 30
0.0
 10
494.200540
 20
-224.895414
 30
0.0
 10
485.696596
 20
-224.895414
 30
0.0
 10
485.696596
 20
-233.399358
 30
0.0
 10
477.192652
 20
-233.399358
 30
0.0
 10
477.192652
 20
-224.895414
 30
0.0
 10
468.688708
 20
-224.895414
 30
0.0
 10
468.688708
 20
-233.399358
 30
0.0
 10
460.184764
 20
-233.399358
 30
0.0
 10
460.184764
 20
-224.895414
 30
0.0
 10
451.680820
 20
-224.895414
 30
0.0
 10
451.680820
 20
-233.399358
 30
0.0
 10
443.176876
 20
-233.399358
 30
0.0
 10
443.176876
 20
-224.895414
 30
0.0
 10
434.672932
 20
-224.895414
 30
0.0
 10
434.672932
 20
-233.399358
 30
0.0
 10
426.168988
 20
-233.399358
 30
0.0
 10
426.168988
 20
-224.895414
 30
0.0
 10
417.665044
 20
-224.895414
 30
0.0
 10
417.665044
 20
-233.399358
 30
0.0
 10
409.161100
 20
-233.399358
 30
0.0
 10
409.161100
 20
-224.895414
 30
0.0
 10
400.657156
 20
-224.895414
 30
0.0
 10
400.657156
 20
-233.399358
 30
0.0
 10
392.153212
 20
-233.399358
 30
0.0
 10
392.153212
 20
-224.895414
 30
0.0
 10
383.649268
 20
-224.895414
 30
0.0
 10
383.649268
 20
-233.399358
 30
0.0
 10
375.145324
 20
-233.399358
 30
0.0
 10
375.145324
 20
-224.895414
 30
0.0
 10
366.641380
 20
-224.895414
 30
0.0
 10
366.641380
 20
-233.399358
 30
0.0
 10
358.137428
 20
-233.399358
 30
0.0
 10
358.137428
 20
-224.895414
 30
0.0
 10
349.633484
 20
-224.895414
 30
0.0
 10
349.633484
 20
-233.399358
 30
0.0
 10
341.129540
 20
-233.399358
 30
0.0
 10
341.129540
 20
-224.895414
 30
0.0
 10
332.625596
 20
-224.895414
 30
0.0
 10
332.625596
 20
-233.399358
 30
0.0
 10
324.121652
 20
-233.399358
 30
0.0
 10
324.121652
 20
-224.895414
 30
0.0
 10
315.617708
 20
-224.895414
 30
0.0
 10
315.617708
 20
-233.399358
 30
0.0
 10
307.113764
 20
-233.399358
 30
0.0
 10
307.113764
 20
-224.895414
 30
0.0
 10
298.609820
 20
-224.895414
 30
0.0
 10
298.609820
 20
-233.399358
 30
0.0
 10
290.105876
 20
-233.399358
 30
0.0
 10
290.105876
 20
-224.895414
 30
0.0
 10
281.601932
 20
-224.895414
 30
0.0
 10
281.601932
 20
-233.399358
 30
0.0
 10
273.097988
 20
-233.399358
 30
0.0
 10
273.097988
 20
-224.895414
 30
0.0
 10
264.594044
 20
-224.895414
 30
0.0
 10
264.594044
 20
-233.399358
 30
0.0
 10
256.090100
 20
-233.399358
 30
0.0
 10
256.090100
 20
-224.895414
 30
0.0
 10
247.586156
 20
-224.895414
 30
0.0
 10
247.586156
 20
-233.399358
 30
0.0
 10
239.082220
 20
-233.399358
 30
0.0
 10
239.082220
 20
-224.895414
 30
0.0
 10
230.578276
 20
-224.895414
 30
0.0
 10
230.578276
 20
-233.399358
 30
0.0
 10
222.074332
 20
-233.399358
 30
0.0
 10
222.074332
 20
-224.895414
 30
0.0
 10
213.570380
 20
-224.895414
 30
0.0
 10
213.570380
 20
-233.399358
 30
0.0
 10
205.066436
 20
-233.399358
 30
0.0
 10
205.066436
 20
-224.895414
 30
0.0
 10
196.562492
 20
-224.895414
 30
0.0
 10
196.562492
 20
-233.399358
 30
0.0
 10
188.058548
 20
-233.399358
 30
0.0
 10
188.058548
 20
-224.895414
 30
0.0
 10
179.554604
 20
-224.895414
 30
0.0
 10
179.554604
 20
-233.399358
 30
0.0
 10
171.050660
 20
-233.399358
 30
0.0
 10
171.050660
 20
-224.895414
 30
0.0
 10
162.546716
 20
-224.895414
 30
0.0
 10
162.546716
 20
-233.399358
 30
0.0
 10
154.042772
 20
-233.399358
 30
0.0
 10
154.042772
 20
-224.895414
 30
0.0
 10
145.538828
 20
-224.895414
 30
0.0
 10
145.538828
 20
-233.399358
 30
0.0
 10
137.034892
 20
-233.399358
 30
0.0
 10
137.034892
 20
-224.895414
 30
0.0
 10
128.530948
 20
-224.895414
 30
0.0
 10
128.530948
 20
-233.399358
 30
0.0
 10
120.026996
 20
-233.399358
 30
0.0
 10
120.026996
 20
-224.895414
 30
0.0
 10
111.523052
 20
-224.895414
 30
0.0
 10
111.523052
 20
-233.399358
 30
0.0
 10
103.019108
 20
-233.399358
 30
0.0
 10
103.019108
 20
-224.895414
 30
0.0
 10
94.515168
 20
-224.895414
 30
0.0
 10
94.515168
 20
-233.399358
 30
0.0
 10
86.011224
 20
-233.399358
 30
0.0
 10
86.011224
 20
-224.895414
 30
0.0
 10
77.507280
 20
-224.895414
 30
0.0
 10
77.507280
 20
-233.399358
 30
0.0
 10
69.003336
 20
-233.399358
 30
0.0
 10
69.003336
 20
-224.895414
 30
0.0
 10
60.499392
 20
-224.895414
 30
0.0
 10
60.499392
 20
-233.399358
 30
0.0
 10
51.995448
 20
-233.399358
 30
0.0
 10
51.995448
 20
-224.895414
 30
0.0
 10
43.491504
 20
-224.895414
 30
0.0
 10
43.491504
 20
-233.399358
 30
0.0
 10
31.444250
 20
-233.399358
 30
0.0
 10
31.444250
 20
-224.895414
 30
0.0
 10
27.900940
 20
-224.895414
 30
0.0
 10
27.900940
 20
-220.643446
 30
0.0
 10
19.396996
 20
-220.643446
 30
0.0
 10
19.396996
 20
-207.887526
 30
0.0
 10
27.900940
 20
-207.887526
 30
0.0
 10
27.900940
 20
-199.383582
 30
0.0
 10
19.396996
 20
-199.383582
 30
0.0
 10
19.396996
 20
-190.879638
 30
0.0
 10
27.900940
 20
-190.879638
 30
0.0
 10
27.900940
 20
-182.375694
 30
0.0
 10
19.396996
 20
-182.375694
 30
0.0
 10
19.396996
 20
-173.871750
 30
0.0
 10
27.900940
 20
-173.871750
 30
0.0
 10
27.900940
 20
-165.367806
 30
0.0
 10
19.396996
 20
-165.367806
 30
0.0
 10
19.396996
 20
-156.863862
 30
0.0
 10
27.900940
 20
-156.863862
 30
0.0
 10
27.900940
 20
-148.359918
 30
0.0
 10
19.396996
 20
-148.359918
 30
0.0
 10
19.396996
 20
-139.855974
 30
0.0
 10
27.900940
 20
-139.855974
 30
0.0
 10
27.900940
 20
-131.352030
 30
0.0
 10
19.396996
 20
-131.352030
 30
0.0
 10
19.396996
 20
-122.848086
 30
0.0
 10
27.900940
 20
-122.848086
 30
0.0
 10
27.900940
 20
-114.344142
 30
0.0
 10
19.396996
 20
-114.344142
 30
0.0
 10
19.396996
 20
-105.840198
 30
0.0
 10
27.900940
 20
-105.840198
 30
0.0
 10
27.900940
 20
-97.336254
 30
0.0
 10
19.396996
 20
-97.336254
 30
0.0
 10
19.396996
 20
-88.832310
 30
0.0
 10
27.900940
 20
-88.832310
 30
0.0
 10
27.900940
 20
-80.328366
 30
0.0
 10
19.396996
 20
-80.328366
 30
0.0
 10
19.396996
 20
-71.824422
 30
0.0
 10
27.900940
 20
-71.824422
 30
0.0
 10
27.900940
 20
-63.320478
 30
0.0
 10
19.396996
 20
-63.320478
 30
0.0
 10
19.396996
 20
-54.816534
 30
0.0
 10
27.900940
 20
-54.816534
 30
0.0
 10
27.900940
 20
-46.312590
 30
0.0
 10
19.396996
 20
-46.312590
 30
0.0
 10
19.396996
 20
-33.556674
 30
0.0
 10
27.900940
 20
-33.556674
 30
0.0
 10
27.900940
 20
-29.304702
 30
0.0
 10
31.444250
 20
-29.304702
 30
0.0
 10
31.444250
 20
-20.800758
 30
0.0
 10
43.491504
 20
-20.800758
 30
0.0
 10
43.491504
 20
-29.304702
 30
0.0
 10
51.995448
 20
-29.304702
 30
0.0
 10
51.995448
 20
-20.800758
 30
0.0
  0
SPLINE
  5
14d
100
AcDbEntity
  8
0
 62
7
100
AcDbSpline
 70
0
 71
3
 72
10
 73
6
 74
4
 40
0.000000
 40
0.000000
 40
0.000000
 40
0.000000
 40
0.663785
 40
1.306418
 40
1.970214
 40
1.970214
 40
1.970214
 40
1.970214
 10
880.391200
 20
205.381334
 30
0.0
 10
880.425802
 20
205.603869
 30
0.0
 10
880.493904
 20
206.041847
 30
0.0
 10
880.998680
 20
206.546618
 30
0.0
 10
881.436662
 20
206.614718
 30
0.0
 10
881.659200
 20
206.649319
 30
0.0
 11
880.391200
 21
205.381334
 31
0.0
 11
880.563834
 21
206.022277
 31
0.0
 11
881.018246
 21
206.476686
 31
0.0
 11
881.659200
 21
206.649319
 31
0.0
  0
LWPOLYLINE
  5
14e
100
AcDbEntity
  8
0
 62
7
100
AcDbPolyline
 90
2
 70
1
 10
58.417282
 20
-49.002094
 30
0.0
 10
146.131488
 20
-49.002094
 30
0.0
  0
SPLINE
  5
14f
100
AcDbEntity
  8
0
 62
7
100
AcDbSpline
 70
0
 71
3
 72
10
 73
6
 74
4
 40
0.000000
 40
0.000000
 40
0.000000
 40
0.000000
 40
0.663785
 40
1.306414
 40
1.970199
 40
1.970199
 40
1.970199
 40
1.970199
 10
146.131488
 20
-49.002094
 30
0.0
 10
146.354022
 20
-49.036696
 30
0.0
 10
146.791999
 20
-49.104797
 30
0.0
 10
147.296769
 20
-49.609567
 30
0.0
 10
147.364870
 20
-50.047544
 30
0.0
 10
147.399472
 20
-50.270078
 30
0.0
 11
146.131488
 21
-49.002094
 31
0.0
 11
146.772431
 21
-49.174728
 31
0.0
 11
147.226839
 21
-49.629135
 31
0.0
 11
147.399472
 21
-50.270078
 31
0.0
  0
LWPOLYLINE
  5
150
100
AcDbEntity
  8
0
 62
7
100
AcDbPolyline
 90
2
 70
1
 10
147.399472
 20
-50.270078
 30
0.0
 10
147.399472
 20
-204.950406
 30
0.0
  0
SPLINE
  5
151
100
AcDbEntity
  8
0
 62
7
100
AcDbSpline
 70
0
 71
3
 72
10
 73
6
 74
4
 40
0.000000
 40
0.000000
 40
0.000000
 40
0.000000
 40
0.663785
 40
1.306414
 40
1.970199
 40
1.970199
 40
1.970199
 40
1.970199
 10
147.399472
 20
-204.950406
 30
0.0
 10
147.364870
 20
-205.172941
 30
0.0
 10
147.296769
 20
-205.610917
 30
0.0
 10
146.791999
 20
-206.115687
 30
0.0
 10
146.354022
 20
-206.183788
 30
0.0
 10
146.131488
 20
-206.218390
 30
0.0
 11
147.399472
 21
-204.950406
 31
0.0
 11
147.226839
 21
-205.591349
 31
0.0
 11
146.772431
 21
-206.045757
 31
0.0
 11
146.131488
 21
-206.218390
 31
0.0
  0
LWPOLYLINE
  5
152
100
AcDbEntity
  8
0
 62
7
100
AcDbPolyline
 90
2
 70
1
 10
146.131488
 20
-206.218390
 30
0.0
 10
58.417282
 20
-206.218390
 30
0.0
  0
SPLINE
  5
153
100
AcDbEntity
  8
0
 62
7
100
AcDbSpline
 70
0
 71
3
 72
10
 73
6
 74
4
 40
0.000000
 40
0.000000
 40
0.000000
 40
0.000000
 40
0.663784
 40
1.306414
 40
1.970199
 40
1.970199
 40
1.970199
 40
1.970199
 10
58.417282
 20
-206.218390
 30
0.0
 10
58.194748
 20
-206.183788
 30
0.0
 10
57.756772
 20
-206.115687
 30
0.0
 10
57.252002
 20
-205.610917
 30
0.0
 10
57.183901
 20
-205.172941
 30
0.0
 10
57.149298
 20
-204.950406
 30
0.0
 11
58.417282
 21
-206.218390
 31
0.0
 11
57.776340
 21
-206.045757
 31
0.0
 11
57.321932
 21
-205.591349
 31
0.0
 11
57.149298
 21
-204.950406
 31
0.0
  0
LWPOLYLINE
  5
154
100
AcDbEntity
  8
0
 62
7
100
AcDbPolyline
 90
2
 70
1
 10
57.149298
 20
-204.950406
 30
0.0
 10
57.149298
 20
-50.270078
 30
0.0
  0
LWPOLYLINE
  5
155
100
AcDbEntity
  8
0
 62
7
100
AcDbPolyline
 90
2
 70
1
 10
58.417282
 20
-49.002094
 30
0.0
 10
58.417282
 20
-49.002094
 30
0.0
  0
SPLINE
  5
156
100
AcDbEntity
  8
0
 62
7
100
AcDbSpline
 70
0
 71
3
 72
10
 73
6
 74
4
 40
0.000000
 40
0.000000
 40
0.000000
 40
0.000000
 40
0.663785
 40
1.306414
 40
1.970199
 40
1.970199
 40
1.970199
 40
1.970199
 10
57.149298
 20
-50.270078
 30
0.0
 10
57.183901
 20
-50.047544
 30
0.0
 10
57.252002
 20
-49.609567
 30
0.0
 10
57.756772
 20
-49.104798
 30
0.0
 10
58.194748
 20
-49.036696
 30
0.0
 10
58.417282
 20
-49.002094
 30
0.0
 11
57.149298
 21
-50.270078
 31
0.0
 11
57.321932
 21
-49.629135
 31
0.0
 11
57.776340
 21
-49.174728
 31
0.0
 11
58.417282
 21
-49.002094
 31
0.0
  0
LWPOLYLINE
  5
157
100
AcDbEntity
  8
0
 62
7
100
AcDbPolyline
 90
2
 70
1
 10
175.211784
 20
-48.057214
 30
0.0
 10
262.926064
 20
-48.057214
 30
0.0
  0
SPLINE
  5
158
100
AcDbEntity
  8
0
 62
7
100
AcDbSpline
 70
0
 71
3
 72
10
 73
6
 74
4
 40
0.000000
 40
0.000000
 40
0.000000
 40
0.000000
 40
0.663785
 40
1.306417
 40
1.970204
 40
1.970204
 40
1.970204
 40
1.970204
 10
262.926064
 20
-48.057214
 30
0.0
 10
263.148599
 20
-48.091817
 30
0.0
 10
263.586576
 20
-48.159920
 30
0.0
 10
264.091344
 20
-48.664693
 30
0.0
 10
264.159446
 20
-49.102671
 30
0.0
 10
264.194048
 20
-49.325206
 30
0.0
 11
262.926064
 21
-48.057214
 31
0.0
 11
263.567007
 21
-48.229850
 31
0.0
 11
264.021415
 21
-48.684261
 31
0.0
 11
264.194048
 21
-49.325206
 31
0.0
  0
LWPOLYLINE
  5
159
100
AcDbEntity
  8
0
 62
7
100
AcDbPolyline
 90
2
 70
1
 10
264.194048
 20
-49.325206
 30
0.0
 10
264.194048
 20
-204.005662
 30
0.0
  0
SPLINE
  5
15a
100
AcDbEntity
  8
0
 62
7
100
AcDbSpline
 70
0
 71
3
 72
10
 73
6
 74
4
 40
0.000000
 40
0.000000
 40
0.000000
 40
0.000000
 40
0.663785
 40
1.306414
 40
1.970199
 40
1.970199
 40
1.970199
 40
1.970199
 10
264.194048
 20
-204.005662
 30
0.0
 10
264.159446
 20
-204.228197
 30
0.0
 10
264.091345
 20
-204.666173
 30
0.0
 10
263.586575
 20
-205.170943
 30
0.0
 10
263.148598
 20
-205.239044
 30
0.0
 10
262.926064
 20
-205.273646
 30
0.0
 11
264.194048
 21
-204.005662
 31
0.0
 11
264.021415
 21
-204.646605
 31
0.0
 11
263.567007
 21
-205.101013
 31
0.0
 11
262.926064
 21
-205.273646
 31
0.0
  0
LWPOLYLINE
  5
15b
100
AcDbEntity
  8
0
 62
7
100
AcDbPolyline
 90
2
 70
1
 10
262.926064
 20
-205.273646
 30
0.0
 10
175.211784
 20
-205.273646
 30
0.0
  0
SPLINE
  5
15c
100
AcDbEntity
  8
0
 62
7
100
AcDbSpline
 70
0
 71
3
 72
10
 73
6
 74
4
 40
0.000000
 40
0.000000
 40
0.000000
 40
0.000000
 40
0.663785
 40
1.306414
 40
1.970199
 40
1.970199
 40
1.970199
 40
1.970199
 10
175.211784
 20
-205.273646
 30
0.0
 10
174.989250
 20
-205.239044
 30
0.0
 10
174.551273
 20
-205.170943
 30
0.0
 10
174.046503
 20
-204.666173
 30
0.0
 10
173.978402
 20
-204.228197
 30
0.0
 10
173.943800
 20
-204.005662
 30
0.0
 11
175.211784
 21
-205.273646
 31
0.0
 11
174.570841
 21
-205.101013
 31
0.0
 11
174.116433
 21
-204.646605
 31
0.0
 11
173.943800
 21
-204.005662
 31
0.0
  0
LWPOLYLINE
  5
15d
100
AcDbEntity
  8
0
 62
7
100
AcDbPolyline
 90
2
 70
1
 10
173.943800
 20
-204.005662
 30
0.0
 10
173.943800
 20
-49.325206
 30
0.0
  0
LWPOLYLINE
  5
15e
100
AcDbEntity
  8
0
 62
7
100
AcDbPolyline
 90
2
 70
1
 10
175.211784
 20
-48.057214
 30
0.0
 10
175.211784
 20
-48.057214
 30
0.0
  0
SPLINE
  5
15f
100
AcDbEntity
  8
0
 62
7
100
AcDbSpline
 70
0
 71
3
 72
10
 73
6
 74
4
 40
0.000000
 40
0.000000
 40
0.000000
 40
0.000000
 40
0.663787
 40
1.306419
 40
1.970204
 40
1.970204
 40
1.970204
 40
1.970204
 10
173.943800
 20
-49.325206
 30
0.0
 10
173.978402
 20
-49.102671
 30
0.0
 10
174.046504
 20
-48.664693
 30
0.0
 10
174.551272
 20
-48.159920
 30
0.0
 10
174.989249
 20
-48.091817
 30
0.0
 10
175.211784
 20
-48.057214
 30
0.0
 11
173.943800
 21
-49.325206
 31
0.0
 11
174.116433
 21
-48.684261
 31
0.0
 11
174.570841
 21
-48.229850
 31
0.0
 11
175.211784
 21
-48.057214
 31
0.0
  0
LWPOLYLINE
  5
160
100
AcDbEntity
  8
0
 62
7
100
AcDbPolyline
 90
2
 70
1
 10
297.314912
 20
-47.584710
 30
0.0
 10
385.029192
 20
-47.584710
 30
0.0
  0
SPLINE
  5
161
100
AcDbEntity
  8
0
 62
7
100
AcDbSpline
 70
0
 71
3
 72
10
 73
6
 74
4
 40
0.000000
 40
0.000000
 40
0.000000
 40
0.000000
 40
0.663785
 40
1.306414
 40
1.970199
 40
1.970199
 40
1.970199
 40
1.970199
 10
385.029192
 20
-47.584710
 30
0.0
 10
385.251726
 20
-47.619312
 30
0.0
 10
385.689703
 20
-47.687413
 30
0.0
 10
386.194473
 20
-48.192183
 30
0.0
 10
386.262574
 20
-48.630160
 30
0.0
 10
386.297176
 20
-48.852694
 30
0.0
 11
385.029192
 21
-47.584710
 31
0.0
 11
385.670135
 21
-47.757344
 31
0.0
 11
386.124543
 21
-48.211751
 31
0.0
 11
386.297176
 21
-48.852694
 31
0.0
  0
LWPOLYLINE
  5
162
100
AcDbEntity
  8
0
 62
7
100
AcDbPolyline
 90
2
 70
1
 10
386.297176
 20
-48.852694
 30
0.0
 10
386.297176
 20
-203.533150
 30
0.0
  0
SPLINE
  5
163
100
AcDbEntity
  8
0
 62
7
100
AcDbSpline
 70
0
 71
3
 72
10
 73
6
 74
4
 40
0.000000
 40
0.000000
 40
0.000000
 40
0.000000
 40
0.663787
 40
1.306419
 40
1.970204
 40
1.970204
 40
1.970204
 40
1.970204
 10
386.297176
 20
-203.533150
 30
0.0
 10
386.262574
 20
-203.755685
 30
0.0
 10
386.194472
 20
-204.193663
 30
0.0
 10
385.689704
 20
-204.698437
 30
0.0
 10
385.251727
 20
-204.766539
 30
0.0
 10
385.029192
 20
-204.801142
 30
0.0
 11
386.297176
 21
-203.533150
 31
0.0
 11
386.124543
 21
-204.174095
 31
0.0
 11
385.670135
 21
-204.628507
 31
0.0
 11
385.029192
 21
-204.801142
 31
0.0
  0
LWPOLYLINE
  5
164
100
AcDbEntity
  8
0
 62
7
100
AcDbPolyline
 90
2
 70
1
 10
385.029192
 20
-204.801142
 30
0.0
 10
297.314912
 20
-204.801142
 30
0.0
  0
SPLINE
  5
165
100
AcDbEntity
  8
0
 62
7
100
AcDbSpline
 70
0
 71
3
 72
10
 73
6
 74
4
 40
0.000000
 40
0.000000
 40
0.000000
 40
0.000000
 40
0.663787
 40
1.306422
 40
1.970209
 40
1.970209
 40
1.970209
 40
1.970209
 10
297.314912
 20
-204.801142
 30
0.0
 10
297.092377
 20
-204.766539
 30
0.0
 10
296.654398
 20
-204.698436
 30
0.0
 10
296.149626
 20
-204.193664
 30
0.0
 10
296.081523
 20
-203.755685
 30
0.0
 10
296.046920
 20
-203.533150
 30
0.0
 11
297.314912
 21
-204.801142
 31
0.0
 11
296.673967
 21
-204.628507
 31
0.0
 11
296.219556
 21
-204.174095
 31
0.0
 11
296.046920
 21
-203.533150
 31
0.0
  0
LWPOLYLINE
  5
166
100
AcDbEntity
  8
0
 62
7
100
AcDbPolyline
 90
2
 70
1
 10
296.046920
 20
-203.533150
 30
0.0
 10
296.046920
 20
-48.852694
 30
0.0
  0
LWPOLYLINE
  5
167
100
AcDbEntity
  8
0
 62
7
100
AcDbPolyline
 90
2
 70
1
 10
297.314912
 20
-47.584710
 30
0.0
 10
297.314912
 20
-47.584710
 30
0.0
  0
SPLINE
  5
168
100
AcDbEntity
  8
0
 62
7
100
AcDbSpline
 70
0
 71
3
 72
10
 73
6
 74
4
 40
0.000000
 40
0.000000
 40
0.000000
 40
0.000000
 40
0.663785
 40
1.306417
 40
1.970204
 40
1.970204
 40
1.970204
 40
1.970204
 10
296.046920
 20
-48.852694
 30
0.0
 10
296.081523
 20
-48.630160
 30
0.0
 10
296.149625
 20
-48.192182
 30
0.0
 10
296.654399
 20
-47.687414
 30
0.0
 10
297.092377
 20
-47.619312
 30
0.0
 10
297.314912
 20
-47.584710
 30
0.0
 11
296.046920
 21
-48.852694
 31
0.0
 11
296.219556
 21
-48.211751
 31
0.0
 11
296.673967
 21
-47.757344
 31
0.0
 11
297.314912
 21
-47.584710
 31
0.0
  0
LWPOLYLINE
  5
169
100
AcDbEntity
  8
0
 62
7
100
AcDbPolyline
 90
2
 70
1
 10
414.109536
 20
-46.639814
 30
0.0
 10
501.823896
 20
-46.639814
 30
0.0
  0
SPLINE
  5
16a
100
AcDbEntity
  8
0
 62
7
100
AcDbSpline
 70
0
 71
3
 72
10
 73
6
 74
4
 40
0.000000
 40
0.000000
 40
0.000000
 40
0.000000
 40
0.663785
 40
1.306414
 40
1.970199
 40
1.970199
 40
1.970199
 40
1.970199
 10
501.823896
 20
-46.639814
 30
0.0
 10
502.046430
 20
-46.674416
 30
0.0
 10
502.484407
 20
-46.742517
 30
0.0
 10
502.989177
 20
-47.247287
 30
0.0
 10
503.057278
 20
-47.685264
 30
0.0
 10
503.091880
 20
-47.907798
 30
0.0
 11
501.823896
 21
-46.639814
 31
0.0
 11
502.464839
 21
-46.812448
 31
0.0
 11
502.919247
 21
-47.266855
 31
0.0
 11
503.091880
 21
-47.907798
 31
0.0
  0
LWPOLYLINE
  5
16b
100
AcDbEntity
  8
0
 62
7
100
AcDbPolyline
 90
2
 70
1
 10
503.091880
 20
-47.907798
 30
0.0
 10
503.091880
 20
-202.588390
 30
0.0
  0
SPLINE
  5
16c
100
AcDbEntity
  8
0
 62
7
100
AcDbSpline
 70
0
 71
3
 72
10
 73
6
 74
4
 40
0.000000
 40
0.000000
 40
0.000000
 40
0.000000
 40
0.663785
 40
1.306414
 40
1.970199
 40
1.970199
 40
1.970199
 40
1.970199
 10
503.091880
 20
-202.588390
 30
0.0
 10
503.057278
 20
-202.810925
 30
0.0
 10
502.989177
 20
-203.248901
 30
0.0
 10
502.484407
 20
-203.753671
 30
0.0
 10
502.046430
 20
-203.821772
 30
0.0
 10
501.823896
 20
-203.856374
 30
0.0
 11
503.091880
 21
-202.588390
 31
0.0
 11
502.919247
 21
-203.229333
 31
0.0
 11
502.464839
 21
-203.683741
 31
0.0
 11
501.823896
 21
-203.856374
 31
0.0
  0
LWPOLYLINE
  5
16d
100
AcDbEntity
  8
0
 62
7
100
AcDbPolyline
 90
2
 70
1
 10
501.823896
 20
-203.856374
 30
0.0
 10
414.109536
 20
-203.856374
 30
0.0
  0
SPLINE
  5
16e
100
AcDbEntity
  8
0
 62
7
100
AcDbSpline
 70
0
 71
3
 72
10
 73
6
 74
4
 40
0.000000
 40
0.000000
 40
0.000000
 40
0.000000
 40
0.663785
 40
1.306414
 40
1.970199
 40
1.970199
 40
1.970199
 40
1.970199
 10
414.109536
 20
-203.856374
 30
0.0
 10
413.887002
 20
-203.821772
 30
0.0
 10
413.449025
 20
-203.753671
 30
0.0
 10
412.944255
 20
-203.248901
 30
0.0
 10
412.876154
 20
-202.810925
 30
0.0
 10
412.841552
 20
-202.588390
 30
0.0
 11
414.109536
 21
-203.856374
 31
0.0
 11
413.468593
 21
-203.683741
 31
0.0
 11
413.014185
 21
-203.229333
 31
0.0
 11
412.841552
 21
-202.588390
 31
0.0
  0
LWPOLYLINE
  5
16f
100
AcDbEntity
  8
0
 62
7
100
AcDbPolyline
 90
2
 70
1
 10
412.841552
 20
-202.588390
 30
0.0
 10
412.841552
 20
-47.907798
 30
0.0
  0
LWPOLYLINE
  5
170
100
AcDbEntity
  8
0
 62
7
100
AcDbPolyline
 90
2
 70
1
 10
414.109536
 20
-46.639814
 30
0.0
 10
414.109536
 20
-46.639814
 30
0.0
  0
SPLINE
  5
171
100
AcDbEntity
  8
0
 62
7
100
AcDbSpline
 70
0
 71
3
 72
10
 73
6
 74
4
 40
0.000000
 40
0.000000
 40
0.000000
 40
0.000000
 40
0.663785
 40
1.306414
 40
1.970199
 40
1.970199
 40
1.970199
 40
1.970199
 10
412.841552
 20
-47.907798
 30
0.0
 10
412.876154
 20
-47.685264
 30
0.0
 10
412.944255
 20
-47.247287
 30
0.0
 10
413.449025
 20
-46.742517
 30
0.0
 10
413.887002
 20
-46.674416
 30
0.0
 10
414.109536
 20
-46.639814
 30
0.0
 11
412.841552
 21
-47.907798
 31
0.0
 11
413.014185
 21
-47.266855
 31
0.0
 11
413.468593
 21
-46.812448
 31
0.0
 11
414.109536
 21
-46.639814
 31
0.0
  0
LWPOLYLINE
  5
172
100
AcDbEntity
  8
0
 62
7
100
AcDbPolyline
 90
2
 70
1
 10
533.558216
 20
-46.639758
 30
0.0
 10
621.272496
 20
-46.639758
 30
0.0
  0
SPLINE
  5
173
100
AcDbEntity
  8
0
 62
7
100
AcDbSpline
 70
0
 71
3
 72
10
 73
6
 74
4
 40
0.000000
 40
0.000000
 40
0.000000
 40
0.000000
 40
0.663787
 40
1.306422
 40
1.970209
 40
1.970209
 40
1.970209
 40
1.970209
 10
621.272496
 20
-46.639758
 30
0.0
 10
621.495031
 20
-46.674361
 30
0.0
 10
621.933010
 20
-46.742464
 30
0.0
 10
622.437782
 20
-47.247236
 30
0.0
 10
622.505885
 20
-47.685215
 30
0.0
 10
622.540488
 20
-47.907750
 30
0.0
 11
621.272496
 21
-46.639758
 31
0.0
 11
621.913441
 21
-46.812394
 31
0.0
 11
622.367852
 21
-47.266805
 31
0.0
 11
622.540488
 21
-47.907750
 31
0.0
  0
LWPOLYLINE
  5
174
100
AcDbEntity
  8
0
 62
7
100
AcDbPolyline
 90
2
 70
1
 10
622.540488
 20
-47.907750
 30
0.0
 10
622.540488
 20
-202.588206
 30
0.0
  0
SPLINE
  5
175
100
AcDbEntity
  8
0
 62
7
100
AcDbSpline
 70
0
 71
3
 72
10
 73
6
 74
4
 40
0.000000
 40
0.000000
 40
0.000000
 40
0.000000
 40
0.663785
 40
1.306417
 40
1.970204
 40
1.970204
 40
1.970204
 40
1.970204
 10
622.540488
 20
-202.588206
 30
0.0
 10
622.505885
 20
-202.810741
 30
0.0
 10
622.437783
 20
-203.248718
 30
0.0
 10
621.933009
 20
-203.753486
 30
0.0
 10
621.495031
 20
-203.821588
 30
0.0
 10
621.272496
 20
-203.856190
 30
0.0
 11
622.540488
 21
-202.588206
 31
0.0
 11
622.367852
 21
-203.229149
 31
0.0
 11
621.913441
 21
-203.683557
 31
0.0
 11
621.272496
 21
-203.856190
 31
0.0
  0
LWPOLYLINE
  5
176
100
AcDbEntity
  8
0
 62
7
100
AcDbPolyline
 90
2
 70
1
 10
621.272496
 20
-203.856190
 30
0.0
 10
533.558216
 20
-203.856190
 30
0.0
  0
SPLINE
  5
177
100
AcDbEntity
  8
0
 62
7
100
AcDbSpline
 70
0
 71
3
 72
10
 73
6
 74
4
 40
0.000000
 40
0.000000
 40
0.000000
 40
0.000000
 40
0.663785
 40
1.306414
 40
1.970199
 40
1.970199
 40
1.970199
 40
1.970199
 10
533.558216
 20
-203.856190
 30
0.0
 10
533.335682
 20
-203.821588
 30
0.0
 10
532.897705
 20
-203.753487
 30
0.0
 10
532.392935
 20
-203.248717
 30
0.0
 10
532.324834
 20
-202.810741
 30
0.0
 10
532.290232
 20
-202.588206
 30
0.0
 11
533.558216
 21
-203.856190
 31
0.0
 11
532.917273
 21
-203.683557
 31
0.0
 11
532.462865
 21
-203.229149
 31
0.0
 11
532.290232
 21
-202.588206
 31
0.0
  0
LWPOLYLINE
  5
178
100
AcDbEntity
  8
0
 62
7
100
AcDbPolyline
 90
2
 70
1
 10
532.290232
 20
-202.588206
 30
0.0
 10
532.290232
 20
-47.907750
 30
0.0
  0
LWPOLYLINE
  5
179
100
AcDbEntity
  8
0
 62
7
100
AcDbPolyline
 90
2
 70
1
 10
533.558216
 20
-46.639758
 30
0.0
 10
533.558216
 20
-46.639758
 30
0.0
  0
SPLINE
  5
17a
100
AcDbEntity
  8
0
 62
7
100
AcDbSpline
 70
0
 71
3
 72
10
 73
6
 74
4
 40
0.000000
 40
0.000000
 40
0.000000
 40
0.000000
 40
0.663787
 40
1.306419
 40
1.970204
 40
1.970204
 40
1.970204
 40
1.970204
 10
532.290232
 20
-47.907750
 30
0.0
 10
532.324834
 20
-47.685215
 30
0.0
 10
532.392936
 20
-47.247237
 30
0.0
 10
532.897704
 20
-46.742464
 30
0.0
 10
533.335681
 20
-46.674361
 30
0.0
 10
533.558216
 20
-46.639758
 30
0.0
 11
532.290232
 21
-47.907750
 31
0.0
 11
532.462865
 21
-47.266805
 31
0.0
 11
532.917273
 21
-46.812394
 31
0.0
 11
533.558216
 21
-46.639758
 31
0.0
  0
LWPOLYLINE
  5
17b
100
AcDbEntity
  8
0
 62
7
100
AcDbPolyline
 90
2
 70
1
 10
650.352848
 20
-45.694862
 30
0.0
 10
738.067208
 20
-45.694862
 30
0.0
  0
SPLINE
  5
17c
100
AcDbEntity
  8
0
 62
7
100
AcDbSpline
 70
0
 71
3
 72
10
 73
6
 74
4
 40
0.000000
 40
0.000000
 40
0.000000
 40
0.000000
 40
0.663785
 40
1.306416
 40
1.970206
 40
1.970206
 40
1.970206
 40
1.970206
 10
738.067208
 20
-45.694862
 30
0.0
 10
738.289743
 20
-45.729464
 30
0.0
 10
738.727720
 20
-45.797566
 30
0.0
 10
739.232490
 20
-46.302339
 30
0.0
 10
739.300590
 20
-46.740318
 30
0.0
 10
739.335192
 20
-46.962854
 30
0.0
 11
738.067208
 21
-45.694862
 31
0.0
 11
738.708151
 21
-45.867496
 31
0.0
 11
739.162559
 21
-46.321906
 31
0.0
 11
739.335192
 21
-46.962854
 31
0.0
  0
LWPOLYLINE
  5
17d
100
AcDbEntity
  8
0
 62
7
100
AcDbPolyline
 90
2
 70
1
 10
739.335192
 20
-46.962854
 30
0.0
 10
739.335192
 20
-201.643446
 30
0.0
  0
SPLINE
  5
17e
100
AcDbEntity
  8
0
 62
7
100
AcDbSpline
 70
0
 71
3
 72
10
 73
6
 74
4
 40
0.000000
 40
0.000000
 40
0.000000
 40
0.000000
 40
0.663785
 40
1.306414
 40
1.970199
 40
1.970199
 40
1.970199
 40
1.970199
 10
739.335192
 20
-201.643446
 30
0.0
 10
739.300590
 20
-201.865981
 30
0.0
 10
739.232489
 20
-202.303957
 30
0.0
 10
738.727719
 20
-202.808727
 30
0.0
 10
738.289742
 20
-202.876828
 30
0.0
 10
738.067208
 20
-202.911430
 30
0.0
 11
739.335192
 21
-201.643446
 31
0.0
 11
739.162559
 21
-202.284389
 31
0.0
 11
738.708151
 21
-202.738797
 31
0.0
 11
738.067208
 21
-202.911430
 31
0.0
  0
LWPOLYLINE
  5
17f
100
AcDbEntity
  8
0
 62
7
100
AcDbPolyline
 90
2
 70
1
 10
738.067208
 20
-202.911430
 30
0.0
 10
650.352848
 20
-202.911430
 30
0.0
  0
SPLINE
  5
180
100
AcDbEntity
  8
0
 62
7
100
AcDbSpline
 70
0
 71
3
 72
10
 73
6
 74
4
 40
0.000000
 40
0.000000
 40
0.000000
 40
0.000000
 40
0.663785
 40
1.306414
 40
1.970199
 40
1.970199
 40
1.970199
 40
1.970199
 10
650.352848
 20
-202.911430
 30
0.0
 10
650.130314
 20
-202.876828
 30
0.0
 10
649.692337
 20
-202.808727
 30
0.0
 10
649.187567
 20
-202.303957
 30
0.0
 10
649.119466
 20
-201.865981
 30
0.0
 10
649.084864
 20
-201.643446
 30
0.0
 11
650.352848
 21
-202.911430
 31
0.0
 11
649.711905
 21
-202.738797
 31
0.0
 11
649.257497
 21
-202.284389
 31
0.0
 11
649.084864
 21
-201.643446
 31
0.0
  0
LWPOLYLINE
  5
181
100
AcDbEntity
  8
0
 62
7
100
AcDbPolyline
 90
2
 70
1
 10
649.084864
 20
-201.643446
 30
0.0
 10
649.084864
 20
-46.962854
 30
0.0
  0
LWPOLYLINE
  5
182
100
AcDbEntity
  8
0
 62
7
100
AcDbPolyline
 90
2
 70
1
 10
650.352848
 20
-45.694862
 30
0.0
 10
650.352848
 20
-45.694862
 30
0.0
  0
SPLINE
  5
183
100
AcDbEntity
  8
0
 62
7
100
AcDbSpline
 70
0
 71
3
 72
10
 73
6
 74
4
 40
0.000000
 40
0.000000
 40
0.000000
 40
0.000000
 40
0.663790
 40
1.306421
 40
1.970206
 40
1.970206
 40
1.970206
 40
1.970206
 10
649.084864
 20
-46.962854
 30
0.0
 10
649.119466
 20
-46.740318
 30
0.0
 10
649.187566
 20
-46.302339
 30
0.0
 10
649.692336
 20
-45.797566
 30
0.0
 10
650.130313
 20
-45.729464
 30
0.0
 10
650.352848
 20
-45.694862
 30
0.0
 11
649.084864
 21
-46.962854
 31
0.0
 11
649.257497
 21
-46.321906
 31
0.0
 11
649.711905
 21
-45.867496
 31
0.0
 11
650.352848
 21
-45.694862
 31
0.0
  0
LWPOLYLINE
  5
184
100
AcDbEntity
  8
0
 62
7
100
AcDbPolyline
 90
2
 70
1
 10
766.262272
 20
-45.694790
 30
0.0
 10
853.976560
 20
-45.694790
 30
0.0
  0
SPLINE
  5
185
100
AcDbEntity
  8
0
 62
7
100
AcDbSpline
 70
0
 71
3
 72
10
 73
6
 74
4
 40
0.000000
 40
0.000000
 40
0.000000
 40
0.000000
 40
0.663795
 40
1.306428
 40
1.970213
 40
1.970213
 40
1.970213
 40
1.970213
 10
853.976560
 20
-45.694790
 30
0.0
 10
854.199098
 20
-45.729392
 30
0.0
 10
854.637080
 20
-45.797492
 30
0.0
 10
855.141856
 20
-46.302262
 30
0.0
 10
855.209958
 20
-46.740240
 30
0.0
 10
855.244560
 20
-46.962774
 30
0.0
 11
853.976560
 21
-45.694790
 31
0.0
 11
854.617514
 21
-45.867424
 31
0.0
 11
855.071926
 21
-46.321831
 31
0.0
 11
855.244560
 21
-46.962774
 31
0.0
  0
LWPOLYLINE
  5
186
100
AcDbEntity
  8
0
 62
7
100
AcDbPolyline
 90
2
 70
1
 10
855.244560
 20
-46.962774
 30
0.0
 10
855.244560
 20
-201.643238
 30
0.0
  0
SPLINE
  5
187
100
AcDbEntity
  8
0
 62
7
100
AcDbSpline
 70
0
 71
3
 72
10
 73
6
 74
4
 40
0.000000
 40
0.000000
 40
0.000000
 40
0.000000
 40
0.663785
 40
1.306417
 40
1.970213
 40
1.970213
 40
1.970213
 40
1.970213
 10
855.244560
 20
-201.643238
 30
0.0
 10
855.209958
 20
-201.865773
 30
0.0
 10
855.141856
 20
-202.303751
 30
0.0
 10
854.637080
 20
-202.808521
 30
0.0
 10
854.199098
 20
-202.876621
 30
0.0
 10
853.976560
 20
-202.911222
 30
0.0
 11
855.244560
 21
-201.643238
 31
0.0
 11
855.071926
 21
-202.284181
 31
0.0
 11
854.617514
 21
-202.738589
 31
0.0
 11
853.976560
 21
-202.911222
 31
0.0
  0
LWPOLYLINE
  5
188
100
AcDbEntity
  8
0
 62
7
100
AcDbPolyline
 90
2
 70
1
 10
853.976560
 20
-202.911222
 30
0.0
 10
766.262272
 20
-202.911222
 30
0.0
  0
SPLINE
  5
189
100
AcDbEntity
  8
0
 62
7
100
AcDbSpline
 70
0
 71
3
 72
10
 73
6
 74
4
 40
0.000000
 40
0.000000
 40
0.000000
 40
0.000000
 40
0.663785
 40
1.306414
 40
1.970199
 40
1.970199
 40
1.970199
 40
1.970199
 10
766.262272
 20
-202.911222
 30
0.0
 10
766.039738
 20
-202.876620
 30
0.0
 10
765.601761
 20
-202.808519
 30
0.0
 10
765.096991
 20
-202.303749
 30
0.0
 10
765.028890
 20
-201.865773
 30
0.0
 10
764.994288
 20
-201.643238
 30
0.0
 11
766.262272
 21
-202.911222
 31
0.0
 11
765.621329
 21
-202.738589
 31
0.0
 11
765.166921
 21
-202.284181
 31
0.0
 11
764.994288
 21
-201.643238
 31
0.0
  0
LWPOLYLINE
  5
18a
100
AcDbEntity
  8
0
 62
7
100
AcDbPolyline
 90
2
 70
1
 10
764.994288
 20
-201.643238
 30
0.0
 10
764.994288
 20
-46.962774
 30
0.0
  0
LWPOLYLINE
  5
18b
100
AcDbEntity
  8
0
 62
7
100
AcDbPolyline
 90
2
 70
1
 10
766.262272
 20
-45.694790
 30
0.0
 10
766.262272
 20
-45.694790
 30
0.0
  0
SPLINE
  5
18c
100
AcDbEntity
  8
0
 62
7
100
AcDbSpline
 70
0
 71
3
 72
10
 73
6
 74
4
 40
0.000000
 40
0.000000
 40
0.000000
 40
0.000000
 40
0.663785
 40
1.306414
 40
1.970199
 40
1.970199
 40
1.970199
 40
1.970199
 10
764.994288
 20
-46.962774
 30
0.0
 10
765.028890
 20
-46.740240
 30
0.0
 10
765.096991
 20
-46.302263
 30
0.0
 10
765.601761
 20
-45.797493
 30
0.0
 10
766.039738
 20
-45.729392
 30
0.0
 10
766.262272
 20
-45.694790
 30
0.0
 11
764.994288
 21
-46.962774
 31
0.0
 11
765.166921
 21
-46.321831
 31
0.0
 11
765.621329
 21
-45.867424
 31
0.0
 11
766.262272
 21
-45.694790
 31
0.0
  0
LWPOLYLINE
  5
18d
100
AcDbEntity
  8
0
 62
7
100
AcDbPolyline
 90
2
 70
1
 10
883.056880
 20
-44.749894
 30
0.0
 10
970.771200
 20
-44.749894
 30
0.0
  0
SPLINE
  5
18e
100
AcDbEntity
  8
0
 62
7
100
AcDbSpline
 70
0
 71
3
 72
10
 73
6
 74
4
 40
0.000000
 40
0.000000
 40
0.000000
 40
0.000000
 40
0.663795
 40
1.306428
 40
1.970213
 40
1.970213
 40
1.970213
 40
1.970213
 10
970.771200
 20
-44.749894
 30
0.0
 10
970.993738
 20
-44.784496
 30
0.0
 10
971.431720
 20
-44.852596
 30
0.0
 10
971.936496
 20
-45.357366
 30
0.0
 10
972.004598
 20
-45.795344
 30
0.0
 10
972.039200
 20
-46.017878
 30
0.0
 11
970.771200
 21
-44.749894
 31
0.0
 11
971.412154
 21
-44.922528
 31
0.0
 11
971.866566
 21
-45.376935
 31
0.0
 11
972.039200
 21
-46.017878
 31
0.0
  0
LWPOLYLINE
  5
18f
100
AcDbEntity
  8
0
 62
7
100
AcDbPolyline
 90
2
 70
1
 10
972.039200
 20
-46.017878
 30
0.0
 10
972.039200
 20
-200.698470
 30
0.0
  0
SPLINE
  5
190
100
AcDbEntity
  8
0
 62
7
100
AcDbSpline
 70
0
 71
3
 72
10
 73
6
 74
4
 40
0.000000
 40
0.000000
 40
0.000000
 40
0.000000
 40
0.663787
 40
1.306422
 40
1.970218
 40
1.970218
 40
1.970218
 40
1.970218
 10
972.039200
 20
-200.698470
 30
0.0
 10
972.004598
 20
-200.921005
 30
0.0
 10
971.936496
 20
-201.358984
 30
0.0
 10
971.431721
 20
-201.863759
 30
0.0
 10
970.993738
 20
-201.931860
 30
0.0
 10
970.771200
 20
-201.966462
 30
0.0
 11
972.039200
 21
-200.698470
 31
0.0
 11
971.866566
 21
-201.339415
 31
0.0
 11
971.412154
 21
-201.793827
 31
0.0
 11
970.771200
 21
-201.966462
 31
0.0
  0
LWPOLYLINE
  5
191
100
AcDbEntity
  8
0
 62
7
100
AcDbPolyline
 90
2
 70
1
 10
970.771200
 20
-201.966462
 30
0.0
 10
883.056880
 20
-201.966462
 30
0.0
  0
SPLINE
  5
192
100
AcDbEntity
  8
0
 62
7
100
AcDbSpline
 70
0
 71
3
 72
10
 73
6
 74
4
 40
0.000000
 40
0.000000
 40
0.000000
 40
0.000000
 40
0.663796
 40
1.306431
 40
1.970218
 40
1.970218
 40
1.970218
 40
1.970218
 10
883.056880
 20
-201.966462
 30
0.0
 10
882.834342
 20
-201.931860
 30
0.0
 10
882.396359
 20
-201.863759
 30
0.0
 10
881.891584
 20
-201.358984
 30
0.0
 10
881.823482
 20
-200.921005
 30
0.0
 10
881.788880
 20
-200.698470
 30
0.0
 11
883.056880
 21
-201.966462
 31
0.0
 11
882.415926
 21
-201.793827
 31
0.0
 11
881.961514
 21
-201.339415
 31
0.0
 11
881.788880
 21
-200.698470
 31
0.0
  0
LWPOLYLINE
  5
193
100
AcDbEntity
  8
0
 62
7
100
AcDbPolyline
 90
2
 70
1
 10
881.788880
 20
-200.698470
 30
0.0
 10
881.788880
 20
-46.017878
 30
0.0
  0
SPLINE
  5
194
100
AcDbEntity
  8
0
 62
7
100
AcDbSpline
 70
0
 71
3
 72
10
 73
6
 74
4
 40
0.000000
 40
0.000000
 40
0.000000
 40
0.000000
 40
0.663785
 40
1.306417
 40
1.970213
 40
1.970213
 40
1.970213
 40
1.970213
 10
881.788880
 20
-46.017878
 30
0.0
 10
881.823482
 20
-45.795344
 30
0.0
 10
881.891584
 20
-45.357366
 30
0.0
 10
882.396360
 20
-44.852596
 30
0.0
 10
882.834342
 20
-44.784496
 30
0.0
 10
883.056880
 20
-44.749894
 30
0.0
 11
881.788880
 21
-46.017878
 31
0.0
 11
881.961514
 21
-45.376935
 31
0.0
 11
882.415926
 21
-44.922528
 31
0.0
 11
883.056880
 21
-44.749894
 31
0.0
  0
LWPOLYLINE
  5
195
100
AcDbEntity
  8
0
 62
7
100
AcDbPolyline
 90
2
 70
1
 10
883.056880
 20
-44.749894
 30
0.0
 10
883.056880
 20
-44.749894
 30
0.0
  0
ENDSEC
  0
SECTION
  2
OBJECTS
  0
DICTIONARY
  5
C
330
0
100
AcDbDictionary
  3
ACAD_GROUP
350
D
  3
ACAD_MLINESTYLE
350
17
  0
DICTIONARY
  5
D
330
C
100
AcDbDictionary
  0
DICTIONARY
  5
1A
330
C
100
AcDbDictionary
  0
DICTIONARY
  5
17
330
C
100
AcDbDictionary
  3
STANDARD
350
18
  0
DICTIONARY
  5
19
330
C
100
AcDbDictionary
  0
ENDSEC
  0
EOF
