  0
SECTION
  2
HEADER
  9
$ACADVER
  1
AC1014
  9
$HANDSEED
  5
FFFF
  9
$MEASUREMENT
 70
     1
  0
ENDSEC
  0
SECTION
  2
TABLES
  0
TABLE
  2
VPORT
  5
8
330
0
100
AcDbSymbolTable
 70
     4
  0
VPORT
  5
2E
330
8
100
AcDbSymbolTableRecord
100
AcDbViewportTableRecord
  2
*ACTIVE
 70
     0
 10
0.0
 20
0.0
 11
1.0
 21
1.0
 12
210.0
 22
148.5
 13
0.0
 23
0.0
 14
10.0
 24
10.0
 15
10.0
 25
10.0
 16
0.0
 26
0.0
 36
1.0
 17
0.0
 27
0.0
 37
0.0
 40
341.0
 41
1.24
 42
50.0
 43
0.0
 44
0.0
 50
0.0
 51
0.0
 71
     0
 72
   100
 73
     1
 74
     3
 75
     0
 76
     0
 77
     0
 78
     0
  0
ENDTAB
  0
TABLE
  2
LTYPE
  5
5
330
0
100
AcDbSymbolTable
 70
     1
  0
LTYPE
  5
14
330
5
100
AcDbSymbolTableRecord
100
AcDbLinetypeTableRecord
  2
BYBLOCK
 70
     0
  3

 72
    65
 73
     0
 40
0.0
  0
LTYPE
  5
15
330
5
100
AcDbSymbolTableRecord
100
AcDbLinetypeTableRecord
  2
BYLAYER
 70
     0
  3

 72
    65
 73
     0
 40
0.0
  0
LTYPE
  5
16
330
5
100
AcDbSymbolTableRecord
100
AcDbLinetypeTableRecord
  2
CONTINUOUS
 70
     0
  3
Solid line
 72
    65
 73
     0
 40
0.0
  0
ENDTAB
  0
TABLE
  2
LAYER
  5
2
100
AcDbSymbolTable
 70
2
  0
LAYER
  5
50
100
AcDbSymbolTableRecord
100
AcDbLayerTableRecord
  2
0
 70
0
  6
CONTINUOUS
  0
LAYER
  5
51
100
AcDbSymbolTableRecord
100
AcDbLayerTableRecord
  2
Calque_1
 70
0
  6
CONTINUOUS
  0
ENDTAB
  0
TABLE
  2
STYLE
  5
3
330
0
100
AcDbSymbolTable
 70
     1
  0
STYLE
  5
11
330
3
100
AcDbSymbolTableRecord
100
AcDbTextStyleTableRecord
  2
STANDARD
 70
     0
 40
0.0
 41
1.0
 50
0.0
 71
     0
 42
2.5
  3
txt
  4

  0
ENDTAB
  0
TABLE
  2
VIEW
  5
6
330
0
100
AcDbSymbolTable
 70
     0
  0
ENDTAB
  0
TABLE
  2
UCS
  5
7
330
0
100
AcDbSymbolTable
 70
     0
  0
ENDTAB
  0
TABLE
  2
APPID
  5
9
330
0
100
AcDbSymbolTable
 70
     2
  0
APPID
  5
12
330
9
100
AcDbSymbolTableRecord
100
AcDbRegAppTableRecord
  2
ACAD
 70
     0
  0
ENDTAB
  0
TABLE
  2
DIMSTYLE
  5
A
330
0
100
AcDbSymbolTable
 70
     1
  0
DIMSTYLE
105
27
330
A
100
AcDbSymbolTableRecord
100
AcDbDimStyleTableRecord
  2
ISO-25
 70
     0
  3

  4

  5

  6

  7

 40
1.0
 41
2.5
 42
0.625
 43
3.75
 44
1.25
 45
0.0
 46
0.0
 47
0.0
 48
0.0
140
2.5
141
2.5
142
0.0
143
0.03937007874016
144
1.0
145
0.0
146
1.0
147
0.625
 71
     0
 72
     0
 73
     0
 74
     0
 75
     0
 76
     0
 77
     1
 78
     8
170
     0
171
     3
172
     1
173
     0
174
     0
175
     0
176
     0
177
     0
178
     0
270
     2
271
     2
272
     2
273
     2
274
     3
340
11
275
     0
280
     0
281
     0
282
     0
283
     0
284
     8
285
     0
286
     0
287
     3
288
     0
  0
ENDTAB
  0
TABLE
  2
BLOCK_RECORD
  5
1
330
0
100
AcDbSymbolTable
 70
     1
  0
BLOCK_RECORD
  5
1F
330
1
100
AcDbSymbolTableRecord
100
AcDbBlockTableRecord
  2
*MODEL_SPACE
  0
BLOCK_RECORD
  5
1B
330
1
100
AcDbSymbolTableRecord
100
AcDbBlockTableRecord
  2
*PAPER_SPACE
  0
ENDTAB
  0
ENDSEC
  0
SECTION
  2
BLOCKS
  0
BLOCK
  5
20
330
1F
100
AcDbEntity
  8
0
100
AcDbBlockBegin
  2
*MODEL_SPACE
 70
     0
 10
0.0
 20
0.0
 30
0.0
  3
*MODEL_SPACE
  1

  0
ENDBLK
  5
21
330
1F
100
AcDbEntity
  8
0
100
AcDbBlockEnd
  0
BLOCK
  5
1C
330
1B
100
AcDbEntity
 67
     1
  8
0
100
AcDbBlockBegin
  2
*PAPER_SPACE
  1

  0
ENDBLK
  5
1D
330
1B
100
AcDbEntity
 67
     1
  8
0
100
AcDbBlockEnd
  0
ENDSEC
  0
SECTION
  2
ENTITIES
  0
SPLINE
  5
100
100
AcDbEntity
  8
Calque_1
 62
7
100
AcDbSpline
 70
8
 71
3
 72
8
 73
4
 74
0
 40
0
 40
0
 40
0
 40
0
 40
1
 40
1
 40
1
 40
1
 10
119.704934
 20
266.412730
 30
0.0
 10
119.139256
 20
266.412730
 30
0.0
 10
115.874298
 20
263.976625
 30
0.0
 10
115.365767
 20
263.537591
 30
0.0
  0
SPLINE
  5
101
100
AcDbEntity
  8
Calque_1
 62
7
100
AcDbSpline
 70
8
 71
3
 72
8
 73
4
 74
0
 40
0
 40
0
 40
0
 40
0
 40
1
 40
1
 40
1
 40
1
 10
115.365767
 20
263.537591
 30
0.0
 10
115.051442
 20
263.266130
 30
0.0
 10
114.698489
 20
263.017069
 30
0.0
 10
114.369170
 20
262.757072
 30
0.0
  0
SPLINE
  5
102
100
AcDbEntity
  8
Calque_1
 62
7
100
AcDbSpline
 70
8
 71
3
 72
8
 73
4
 74
0
 40
0
 40
0
 40
0
 40
0
 40
1
 40
1
 40
1
 40
1
 10
114.369170
 20
262.757072
 30
0.0
 10
113.823600
 20
262.326330
 30
0.0
 10
113.844589
 20
262.416463
 30
0.0
 10
113.169725
 20
262.148530
 30
0.0
  0
SPLINE
  5
103
100
AcDbEntity
  8
Calque_1
 62
7
100
AcDbSpline
 70
8
 71
3
 72
8
 73
4
 74
0
 40
0
 40
0
 40
0
 40
0
 40
1
 40
1
 40
1
 40
1
 10
113.169725
 20
262.148530
 30
0.0
 10
112.821359
 20
262.010241
 30
0.0
 10
110.675764
 20
261.220194
 30
0.0
 10
110.567989
 20
261.134294
 30
0.0
  0
SPLINE
  5
104
100
AcDbEntity
  8
Calque_1
 62
7
100
AcDbSpline
 70
8
 71
3
 72
8
 73
4
 74
0
 40
0
 40
0
 40
0
 40
0
 40
1
 40
1
 40
1
 40
1
 10
111.564587
 20
260.234708
 30
0.0
 10
112.025139
 20
260.272986
 30
0.0
 10
114.070367
 20
261.420925
 30
0.0
 10
114.413267
 20
261.420925
 30
0.0
  0
LWPOLYLINE
  5
105
100
AcDbEntity
  8
Calque_1
 62
7
100
AcDbPolyline
 90
3
 70
0
 10
110.567989
 20
261.134294
 30
0.0
 10
111.714517
 20
260.865300
 30
0.0
 10
111.564587
 20
260.234708
 30
0.0
  0
SPLINE
  5
106
100
AcDbEntity
  8
Calque_1
 62
7
100
AcDbSpline
 70
8
 71
3
 72
8
 73
4
 74
0
 40
0
 40
0
 40
0
 40
0
 40
1
 40
1
 40
1
 40
1
 10
116.856253
 20
261.310697
 30
0.0
 10
116.836498
 20
261.225678
 30
0.0
 10
116.786581
 20
260.953508
 30
0.0
 10
116.732781
 20
260.702153
 30
0.0
  0
SPLINE
  5
107
100
AcDbEntity
  8
Calque_1
 62
7
100
AcDbSpline
 70
8
 71
3
 72
8
 73
4
 74
0
 40
0
 40
0
 40
0
 40
0
 40
1
 40
1
 40
1
 40
1
 10
116.732781
 20
260.702153
 30
0.0
 10
116.237834
 20
260.523647
 30
0.0
 10
115.786809
 20
260.292930
 30
0.0
 10
115.458373
 20
260.045105
 30
0.0
  0
SPLINE
  5
108
100
AcDbEntity
  8
Calque_1
 62
7
100
AcDbSpline
 70
8
 71
3
 72
8
 73
4
 74
0
 40
0
 40
0
 40
0
 40
0
 40
1
 40
1
 40
1
 40
1
 10
115.458373
 20
260.045105
 30
0.0
 10
114.608884
 20
259.403930
 30
0.0
 10
115.598284
 20
256.822339
 30
0.0
 10
115.930212
 20
255.547189
 30
0.0
  0
SPLINE
  5
109
100
AcDbEntity
  8
Calque_1
 62
7
100
AcDbSpline
 70
8
 71
3
 72
8
 73
4
 74
0
 40
0
 40
0
 40
0
 40
0
 40
1
 40
1
 40
1
 40
1
 10
115.930212
 20
255.547189
 30
0.0
 10
118.588005
 20
248.004800
 30
0.0
 10
122.542856
 20
240.425225
 30
0.0
 10
124.255767
 20
234.609825
 30
0.0
  0
SPLINE
  5
10a
100
AcDbEntity
  8
Calque_1
 62
7
100
AcDbSpline
 70
8
 71
3
 72
8
 73
4
 74
0
 40
0
 40
0
 40
0
 40
0
 40
1
 40
1
 40
1
 40
1
 10
124.255767
 20
234.609825
 30
0.0
 10
125.999161
 20
228.691131
 30
0.0
 10
120.250963
 20
214.755491
 30
0.0
 10
119.563823
 20
216.446178
 30
0.0
  0
SPLINE
  5
10b
100
AcDbEntity
  8
Calque_1
 62
7
100
AcDbSpline
 70
8
 71
3
 72
8
 73
4
 74
0
 40
0
 40
0
 40
0
 40
0
 40
1
 40
1
 40
1
 40
1
 10
119.563823
 20
216.446178
 30
0.0
 10
118.876719
 20
218.136900
 30
0.0
 10
118.261333
 20
222.775646
 30
0.0
 10
117.394239
 20
225.631630
 30
0.0
  0
SPLINE
  5
10c
100
AcDbEntity
  8
Calque_1
 62
7
100
AcDbSpline
 70
8
 71
3
 72
8
 73
4
 74
0
 40
0
 40
0
 40
0
 40
0
 40
1
 40
1
 40
1
 40
1
 10
117.394239
 20
225.631630
 30
0.0
 10
116.532863
 20
228.468915
 30
0.0
 10
113.806842
 20
238.009934
 30
0.0
 10
110.973684
 20
236.942569
 30
0.0
  0
SPLINE
  5
10d
100
AcDbEntity
  8
Calque_1
 62
7
100
AcDbSpline
 70
8
 71
3
 72
8
 73
4
 74
0
 40
0
 40
0
 40
0
 40
0
 40
1
 40
1
 40
1
 40
1
 10
110.973684
 20
236.942569
 30
0.0
 10
107.865782
 20
235.298695
 30
0.0
 10
107.508771
 20
235.752825
 30
0.0
 10
109.399414
 20
231.179061
 30
0.0
  0
SPLINE
  5
10e
100
AcDbEntity
  8
Calque_1
 62
7
100
AcDbSpline
 70
8
 71
3
 72
8
 73
4
 74
0
 40
0
 40
0
 40
0
 40
0
 40
1
 40
1
 40
1
 40
1
 10
109.399414
 20
231.179061
 30
0.0
 10
110.013282
 20
229.001787
 30
0.0
 10
114.621019
 20
218.071425
 30
0.0
 10
110.413650
 20
219.166978
 30
0.0
  0
SPLINE
  5
10f
100
AcDbEntity
  8
Calque_1
 62
7
100
AcDbSpline
 70
8
 71
3
 72
8
 73
4
 74
0
 40
0
 40
0
 40
0
 40
0
 40
1
 40
1
 40
1
 40
1
 10
110.413650
 20
219.166978
 30
0.0
 10
109.846031
 20
219.174400
 30
0.0
 10
102.768214
 20
222.474975
 30
0.0
 10
101.413406
 20
221.213089
 30
0.0
  0
SPLINE
  5
110
100
AcDbEntity
  8
Calque_1
 62
7
100
AcDbSpline
 70
8
 71
3
 72
8
 73
4
 74
0
 40
0
 40
0
 40
0
 40
0
 40
1
 40
1
 40
1
 40
1
 10
101.413406
 20
221.213089
 30
0.0
 10
100.829559
 20
220.412636
 30
0.0
 10
100.010762
 20
217.731700
 30
0.0
 10
100.496184
 20
216.926839
 30
0.0
  0
SPLINE
  5
111
100
AcDbEntity
  8
Calque_1
 62
7
100
AcDbSpline
 70
8
 71
3
 72
8
 73
4
 74
0
 40
0
 40
0
 40
0
 40
0
 40
1
 40
1
 40
1
 40
1
 10
100.496184
 20
216.926839
 30
0.0
 10
102.862123
 20
215.721538
 30
0.0
 10
110.423068
 20
212.764975
 30
0.0
 10
110.638545
 20
212.618539
 30
0.0
  0
SPLINE
  5
112
100
AcDbEntity
  8
Calque_1
 62
7
100
AcDbSpline
 70
8
 71
3
 72
8
 73
4
 74
0
 40
0
 40
0
 40
0
 40
0
 40
1
 40
1
 40
1
 40
1
 10
110.638545
 20
212.618539
 30
0.0
 10
115.008581
 20
209.649420
 30
0.0
 10
114.232470
 20
203.263259
 30
0.0
 10
114.232470
 20
200.125831
 30
0.0
  0
SPLINE
  5
113
100
AcDbEntity
  8
Calque_1
 62
7
100
AcDbSpline
 70
8
 71
3
 72
8
 73
4
 74
0
 40
0
 40
0
 40
0
 40
0
 40
1
 40
1
 40
1
 40
1
 10
114.232470
 20
200.125831
 30
0.0
 10
114.228942
 20
196.860810
 30
0.0
 10
110.886725
 20
187.938462
 30
0.0
 10
108.865837
 20
188.237228
 30
0.0
  0
SPLINE
  5
114
100
AcDbEntity
  8
Calque_1
 62
7
100
AcDbSpline
 70
8
 71
3
 72
8
 73
4
 74
0
 40
0
 40
0
 40
0
 40
0
 40
1
 40
1
 40
1
 40
1
 10
108.865837
 20
188.237228
 30
0.0
 10
106.631695
 20
187.697478
 30
0.0
 10
104.395437
 20
190.307859
 30
0.0
 10
104.059239
 20
191.107959
 30
0.0
  0
SPLINE
  5
115
100
AcDbEntity
  8
Calque_1
 62
7
100
AcDbSpline
 70
8
 71
3
 72
8
 73
4
 74
0
 40
0
 40
0
 40
0
 40
0
 40
1
 40
1
 40
1
 40
1
 10
104.059239
 20
191.107959
 30
0.0
 10
103.169709
 20
193.224800
 30
0.0
 10
102.543175
 20
195.769212
 30
0.0
 10
101.400175
 20
197.868062
 30
0.0
  0
SPLINE
  5
116
100
AcDbEntity
  8
Calque_1
 62
7
100
AcDbSpline
 70
8
 71
3
 72
8
 73
4
 74
0
 40
0
 40
0
 40
0
 40
0
 40
1
 40
1
 40
1
 40
1
 10
101.400175
 20
197.868062
 30
0.0
 10
100.606603
 20
199.325034
 30
0.0
 10
98.994056
 20
202.778048
 30
0.0
 10
98.348648
 20
204.359164
 30
0.0
  0
SPLINE
  5
117
100
AcDbEntity
  8
Calque_1
 62
7
100
AcDbSpline
 70
8
 71
3
 72
8
 73
4
 74
0
 40
0
 40
0
 40
0
 40
0
 40
1
 40
1
 40
1
 40
1
 10
98.348648
 20
204.359164
 30
0.0
 10
98.013791
 20
205.179514
 30
0.0
 10
94.252968
 20
210.876203
 30
0.0
 10
94.159411
 20
214.920414
 30
0.0
  0
SPLINE
  5
118
100
AcDbEntity
  8
Calque_1
 62
7
100
AcDbSpline
 70
8
 71
3
 72
8
 73
4
 74
0
 40
0
 40
0
 40
0
 40
0
 40
1
 40
1
 40
1
 40
1
 10
94.159411
 20
214.920414
 30
0.0
 10
94.065855
 20
218.964658
 30
0.0
 10
94.783123
 20
223.736471
 30
0.0
 10
95.623439
 20
227.360241
 30
0.0
  0
SPLINE
  5
119
100
AcDbEntity
  8
Calque_1
 62
7
100
AcDbSpline
 70
8
 71
3
 72
8
 73
4
 74
0
 40
0
 40
0
 40
0
 40
0
 40
1
 40
1
 40
1
 40
1
 10
95.623439
 20
227.360241
 30
0.0
 10
96.921416
 20
233.951225
 30
0.0
 10
96.628997
 20
232.590491
 30
0.0
 10
97.043370
 20
236.113541
 30
0.0
  0
SPLINE
  5
11a
100
AcDbEntity
  8
Calque_1
 62
7
100
AcDbSpline
 70
8
 71
3
 72
8
 73
4
 74
0
 40
0
 40
0
 40
0
 40
0
 40
1
 40
1
 40
1
 40
1
 10
97.043370
 20
236.113541
 30
0.0
 10
97.314656
 20
238.419966
 30
0.0
 10
96.766194
 20
242.892237
 30
0.0
 10
96.333406
 20
245.488611
 30
0.0
  0
SPLINE
  5
11b
100
AcDbEntity
  8
Calque_1
 62
7
100
AcDbSpline
 70
8
 71
3
 72
8
 73
4
 74
0
 40
0
 40
0
 40
0
 40
0
 40
1
 40
1
 40
1
 40
1
 10
96.333406
 20
245.488611
 30
0.0
 10
95.695406
 20
249.316391
 30
0.0
 10
93.421367
 20
246.701390
 30
0.0
 10
91.174031
 20
245.748783
 30
0.0
  0
SPLINE
  5
11c
100
AcDbEntity
  8
Calque_1
 62
7
100
AcDbSpline
 70
8
 71
3
 72
8
 73
4
 74
0
 40
0
 40
0
 40
0
 40
0
 40
1
 40
1
 40
1
 40
1
 10
91.174031
 20
245.748783
 30
0.0
 10
88.981057
 20
243.673603
 30
0.0
 10
90.029832
 20
243.602906
 30
0.0
 10
89.983406
 20
239.222394
 30
0.0
  0
SPLINE
  5
11d
100
AcDbEntity
  8
Calque_1
 62
7
100
AcDbSpline
 70
8
 71
3
 72
8
 73
4
 74
0
 40
0
 40
0
 40
0
 40
0
 40
1
 40
1
 40
1
 40
1
 10
89.983406
 20
239.222394
 30
0.0
 10
90.118732
 20
234.669763
 30
0.0
 10
89.864413
 20
230.815559
 30
0.0
 10
89.701184
 20
230.085450
 30
0.0
  0
SPLINE
  5
11e
100
AcDbEntity
  8
Calque_1
 62
7
100
AcDbSpline
 70
8
 71
3
 72
8
 73
4
 74
0
 40
0
 40
0
 40
0
 40
0
 40
1
 40
1
 40
1
 40
1
 10
89.701184
 20
230.085450
 30
0.0
 10
89.207611
 20
226.939660
 30
0.0
 10
88.001074
 20
223.029152
 30
0.0
 10
86.173403
 20
221.596733
 30
0.0
  0
SPLINE
  5
11f
100
AcDbEntity
  8
Calque_1
 62
7
100
AcDbSpline
 70
8
 71
3
 72
8
 73
4
 74
0
 40
0
 40
0
 40
0
 40
0
 40
1
 40
1
 40
1
 40
1
 10
86.173403
 20
221.596733
 30
0.0
 10
83.714542
 20
221.428636
 30
0.0
 10
82.736820
 20
223.527486
 30
0.0
 10
81.000800
 20
225.076005
 30
0.0
  0
SPLINE
  5
120
100
AcDbEntity
  8
Calque_1
 62
7
100
AcDbSpline
 70
8
 71
3
 72
8
 73
4
 74
0
 40
0
 40
0
 40
0
 40
0
 40
1
 40
1
 40
1
 40
1
 10
81.000800
 20
225.076005
 30
0.0
 10
76.694970
 20
228.916697
 30
0.0
 10
71.911233
 20
235.392850
 30
0.0
 10
67.996528
 20
239.456111
 30
0.0
  0
SPLINE
  5
121
100
AcDbEntity
  8
Calque_1
 62
7
100
AcDbSpline
 70
8
 71
3
 72
8
 73
4
 74
0
 40
0
 40
0
 40
0
 40
0
 40
1
 40
1
 40
1
 40
1
 10
67.996528
 20
239.456111
 30
0.0
 10
67.035031
 20
240.478848
 30
0.0
 10
66.667295
 20
240.854909
 30
0.0
 10
66.289964
 20
240.633505
 30
0.0
  0
SPLINE
  5
122
100
AcDbEntity
  8
Calque_1
 62
7
100
AcDbSpline
 70
8
 71
3
 72
8
 73
4
 74
0
 40
0
 40
0
 40
0
 40
0
 40
1
 40
1
 40
1
 40
1
 10
66.289964
 20
240.633505
 30
0.0
 10
68.365181
 20
242.583661
 30
0.0
 10
67.151165
 20
241.509241
 30
0.0
 10
69.539931
 20
243.058853
 30
0.0
  0
SPLINE
  5
123
100
AcDbEntity
  8
Calque_1
 62
7
100
AcDbSpline
 70
8
 71
3
 72
8
 73
4
 74
0
 40
0
 40
0
 40
0
 40
0
 40
1
 40
1
 40
1
 40
1
 10
69.539931
 20
243.058853
 30
0.0
 10
69.703973
 20
243.168391
 30
0.0
 10
69.266528
 20
243.879061
 30
0.0
 10
69.266528
 20
243.879061
 30
0.0
  0
SPLINE
  5
124
100
AcDbEntity
  8
Calque_1
 62
7
100
AcDbSpline
 70
8
 71
3
 72
8
 73
4
 74
0
 40
0
 40
0
 40
0
 40
0
 40
1
 40
1
 40
1
 40
1
 10
69.266528
 20
243.879061
 30
0.0
 10
69.266528
 20
243.879061
 30
0.0
 10
69.487014
 20
244.043103
 30
0.0
 10
69.760417
 20
244.152464
 30
0.0
  0
SPLINE
  5
125
100
AcDbEntity
  8
Calque_1
 62
7
100
AcDbSpline
 70
8
 71
3
 72
8
 73
4
 74
0
 40
0
 40
0
 40
0
 40
0
 40
1
 40
1
 40
1
 40
1
 10
69.760417
 20
244.152464
 30
0.0
 10
70.033642
 20
244.261825
 30
0.0
 10
69.539931
 20
244.483194
 30
0.0
 10
69.539931
 20
244.483194
 30
0.0
  0
LWPOLYLINE
  5
126
100
AcDbEntity
  8
Calque_1
 62
7
100
AcDbPolyline
 90
3
 70
0
 10
114.413267
 20
261.420925
 30
0.0
 10
114.448545
 20
261.412119
 30
0.0
 10
116.856253
 20
261.310697
 30
0.0
  0
SPLINE
  5
127
100
AcDbEntity
  8
Calque_1
 62
7
100
AcDbSpline
 70
8
 71
3
 72
8
 73
4
 74
0
 40
0
 40
0
 40
0
 40
0
 40
1
 40
1
 40
1
 40
1
 10
66.779445
 20
242.820728
 30
0.0
 10
66.779445
 20
242.820728
 30
0.0
 10
62.733084
 20
243.147930
 30
0.0
 10
62.131598
 20
243.257291
 30
0.0
  0
SPLINE
  5
128
100
AcDbEntity
  8
Calque_1
 62
7
100
AcDbSpline
 70
8
 71
3
 72
8
 73
4
 74
0
 40
0
 40
0
 40
0
 40
0
 40
1
 40
1
 40
1
 40
1
 10
62.131598
 20
243.257291
 30
0.0
 10
61.530286
 20
243.366653
 30
0.0
 10
61.696623
 20
243.971841
 30
0.0
 10
60.821909
 20
244.245069
 30
0.0
  0
SPLINE
  5
129
100
AcDbEntity
  8
Calque_1
 62
7
100
AcDbSpline
 70
8
 71
3
 72
8
 73
4
 74
0
 40
0
 40
0
 40
0
 40
0
 40
1
 40
1
 40
1
 40
1
 10
60.821909
 20
244.245069
 30
0.0
 10
59.947373
 20
244.518472
 30
0.0
 10
59.400039
 20
243.807625
 30
0.0
 10
59.181492
 20
243.698264
 30
0.0
  0
SPLINE
  5
12a
100
AcDbEntity
  8
Calque_1
 62
7
100
AcDbSpline
 70
8
 71
3
 72
8
 73
4
 74
0
 40
0
 40
0
 40
0
 40
0
 40
1
 40
1
 40
1
 40
1
 10
59.181492
 20
243.698264
 30
0.0
 10
58.962770
 20
243.588903
 30
0.0
 10
58.414200
 20
243.424861
 30
0.0
 10
58.414200
 20
243.424861
 30
0.0
  0
SPLINE
  5
12b
100
AcDbEntity
  8
Calque_1
 62
7
100
AcDbSpline
 70
8
 71
3
 72
8
 73
4
 74
0
 40
0
 40
0
 40
0
 40
0
 40
1
 40
1
 40
1
 40
1
 10
58.414200
 20
243.424861
 30
0.0
 10
58.250159
 20
243.424861
 30
0.0
 10
59.291736
 20
243.094130
 30
0.0
 10
59.291736
 20
243.094130
 30
0.0
  0
LWPOLYLINE
  5
12c
100
AcDbEntity
  8
Calque_1
 62
7
100
AcDbPolyline
 90
2
 70
0
 10
69.539931
 20
244.483194
 30
0.0
 10
66.779445
 20
242.820728
 30
0.0
  0
SPLINE
  5
12d
100
AcDbEntity
  8
Calque_1
 62
7
100
AcDbSpline
 70
8
 71
3
 72
8
 73
4
 74
0
 40
0
 40
0
 40
0
 40
0
 40
1
 40
1
 40
1
 40
1
 10
59.838542
 20
242.714894
 30
0.0
 10
59.674500
 20
241.894864
 30
0.0
 10
61.749892
 20
239.979103
 30
0.0
 10
62.515242
 20
239.486978
 30
0.0
  0
SPLINE
  5
12e
100
AcDbEntity
  8
Calque_1
 62
7
100
AcDbSpline
 70
8
 71
3
 72
8
 73
4
 74
0
 40
0
 40
0
 40
0
 40
0
 40
1
 40
1
 40
1
 40
1
 10
62.515242
 20
239.486978
 30
0.0
 10
62.729556
 20
239.349394
 30
0.0
 10
63.020245
 20
239.274430
 30
0.0
 10
63.344273
 20
239.240033
 30
0.0
  0
SPLINE
  5
12f
100
AcDbEntity
  8
Calque_1
 62
7
100
AcDbSpline
 70
8
 71
3
 72
8
 73
4
 74
0
 40
0
 40
0
 40
0
 40
0
 40
1
 40
1
 40
1
 40
1
 10
63.344273
 20
239.240033
 30
0.0
 10
63.031534
 20
239.034541
 30
0.0
 10
62.445392
 20
238.293003
 30
0.0
 10
62.149236
 20
237.921528
 30
0.0
  0
SPLINE
  5
130
100
AcDbEntity
  8
Calque_1
 62
7
100
AcDbSpline
 70
8
 71
3
 72
8
 73
4
 74
0
 40
0
 40
0
 40
0
 40
0
 40
1
 40
1
 40
1
 40
1
 10
62.149236
 20
237.921528
 30
0.0
 10
61.512718
 20
237.080082
 30
0.0
 10
64.583333
 20
234.346407
 30
0.0
 10
66.836770
 20
231.351041
 30
0.0
  0
SPLINE
  5
131
100
AcDbEntity
  8
Calque_1
 62
7
100
AcDbSpline
 70
8
 71
3
 72
8
 73
4
 74
0
 40
0
 40
0
 40
0
 40
0
 40
1
 40
1
 40
1
 40
1
 10
66.836770
 20
231.351041
 30
0.0
 10
69.069537
 20
228.383226
 30
0.0
 10
71.631268
 20
225.832536
 30
0.0
 10
73.420486
 20
224.224928
 30
0.0
  0
SPLINE
  5
132
100
AcDbEntity
  8
Calque_1
 62
7
100
AcDbSpline
 70
8
 71
3
 72
8
 73
4
 74
0
 40
0
 40
0
 40
0
 40
0
 40
1
 40
1
 40
1
 40
1
 10
73.420486
 20
224.224928
 30
0.0
 10
73.757849
 20
223.921858
 30
0.0
 10
75.563436
 20
222.266836
 30
0.0
 10
75.872292
 20
221.865728
 30
0.0
  0
SPLINE
  5
133
100
AcDbEntity
  8
Calque_1
 62
7
100
AcDbSpline
 70
8
 71
3
 72
8
 73
4
 74
0
 40
0
 40
0
 40
0
 40
0
 40
1
 40
1
 40
1
 40
1
 10
75.872292
 20
221.865728
 30
0.0
 10
77.558570
 20
219.674800
 30
0.0
 10
73.507800
 20
219.338955
 30
0.0
 10
71.952050
 20
219.338955
 30
0.0
  0
SPLINE
  5
134
100
AcDbEntity
  8
Calque_1
 62
7
100
AcDbSpline
 70
8
 71
3
 72
8
 73
4
 74
0
 40
0
 40
0
 40
0
 40
0
 40
1
 40
1
 40
1
 40
1
 10
71.952050
 20
219.338955
 30
0.0
 10
66.900975
 20
219.338955
 30
0.0
 10
62.110431
 20
222.202100
 30
0.0
 10
57.254445
 20
222.950519
 30
0.0
  0
SPLINE
  5
135
100
AcDbEntity
  8
Calque_1
 62
7
100
AcDbSpline
 70
8
 71
3
 72
8
 73
4
 74
0
 40
0
 40
0
 40
0
 40
0
 40
1
 40
1
 40
1
 40
1
 10
57.254445
 20
222.950519
 30
0.0
 10
54.392711
 20
223.391666
 30
0.0
 10
54.662163
 20
220.428333
 30
0.0
 10
53.907464
 20
217.169372
 30
0.0
  0
SPLINE
  5
136
100
AcDbEntity
  8
Calque_1
 62
7
100
AcDbSpline
 70
8
 71
3
 72
8
 73
4
 74
0
 40
0
 40
0
 40
0
 40
0
 40
1
 40
1
 40
1
 40
1
 10
53.907464
 20
217.169372
 30
0.0
 10
55.931740
 20
215.473569
 30
0.0
 10
60.299270
 20
214.989736
 30
0.0
 10
62.497603
 20
214.342741
 30
0.0
  0
SPLINE
  5
137
100
AcDbEntity
  8
Calque_1
 62
7
100
AcDbSpline
 70
8
 71
3
 72
8
 73
4
 74
0
 40
0
 40
0
 40
0
 40
0
 40
1
 40
1
 40
1
 40
1
 10
62.497603
 20
214.342741
 30
0.0
 10
68.451081
 20
212.590669
 30
0.0
 10
75.233589
 20
212.674278
 30
0.0
 10
81.278611
 20
210.497461
 30
0.0
  0
SPLINE
  5
138
100
AcDbEntity
  8
Calque_1
 62
7
100
AcDbSpline
 70
8
 71
3
 72
8
 73
4
 74
0
 40
0
 40
0
 40
0
 40
0
 40
1
 40
1
 40
1
 40
1
 10
81.278611
 20
210.497461
 30
0.0
 10
82.637336
 20
210.008336
 30
0.0
 10
84.105950
 20
209.847116
 30
0.0
 10
85.282639
 20
208.914372
 30
0.0
  0
SPLINE
  5
139
100
AcDbEntity
  8
Calque_1
 62
7
100
AcDbSpline
 70
8
 71
3
 72
8
 73
4
 74
0
 40
0
 40
0
 40
0
 40
0
 40
1
 40
1
 40
1
 40
1
 10
85.282639
 20
208.914372
 30
0.0
 10
86.768892
 20
207.736094
 30
0.0
 10
87.787150
 20
206.380510
 30
0.0
 10
88.753092
 20
204.778086
 30
0.0
  0
SPLINE
  5
13a
100
AcDbEntity
  8
Calque_1
 62
7
100
AcDbSpline
 70
8
 71
3
 72
8
 73
4
 74
0
 40
0
 40
0
 40
0
 40
0
 40
1
 40
1
 40
1
 40
1
 10
88.753092
 20
204.778086
 30
0.0
 10
89.010549
 20
204.351014
 30
0.0
 10
90.549578
 20
201.497606
 30
0.0
 10
91.892814
 20
198.710320
 30
0.0
  0
SPLINE
  5
13b
100
AcDbEntity
  8
Calque_1
 62
7
100
AcDbSpline
 70
8
 71
3
 72
8
 73
4
 74
0
 40
0
 40
0
 40
0
 40
0
 40
1
 40
1
 40
1
 40
1
 10
91.892814
 20
198.710320
 30
0.0
 10
93.236051
 20
195.923023
 30
0.0
 10
95.188783
 20
191.968277
 30
0.0
 10
93.705212
 20
188.947195
 30
0.0
  0
SPLINE
  5
13c
100
AcDbEntity
  8
Calque_1
 62
7
100
AcDbSpline
 70
8
 71
3
 72
8
 73
4
 74
0
 40
0
 40
0
 40
0
 40
0
 40
1
 40
1
 40
1
 40
1
 10
93.705212
 20
188.947195
 30
0.0
 10
91.775128
 20
185.016790
 30
0.0
 10
89.195933
 20
184.012819
 30
0.0
 10
85.966148
 20
183.977437
 30
0.0
  0
SPLINE
  5
13d
100
AcDbEntity
  8
Calque_1
 62
7
100
AcDbSpline
 70
8
 71
3
 72
8
 73
4
 74
0
 40
0
 40
0
 40
0
 40
0
 40
1
 40
1
 40
1
 40
1
 10
85.966148
 20
183.977437
 30
0.0
 10
86.086267
 20
184.434002
 30
0.0
 10
86.138233
 20
184.957910
 30
0.0
 10
86.248370
 20
185.331220
 30
0.0
  0
SPLINE
  5
13e
100
AcDbEntity
  8
Calque_1
 62
7
100
AcDbSpline
 70
8
 71
3
 72
8
 73
4
 74
0
 40
0
 40
0
 40
0
 40
0
 40
1
 40
1
 40
1
 40
1
 10
86.248370
 20
185.331220
 30
0.0
 10
86.414951
 20
186.312402
 30
0.0
 10
86.000931
 20
187.167959
 30
0.0
 10
85.864723
 20
188.021153
 30
0.0
  0
SPLINE
  5
13f
100
AcDbEntity
  8
Calque_1
 62
7
100
AcDbSpline
 70
8
 71
3
 72
8
 73
4
 74
0
 40
0
 40
0
 40
0
 40
0
 40
1
 40
1
 40
1
 40
1
 10
85.864723
 20
188.021153
 30
0.0
 10
85.622613
 20
188.679154
 30
0.0
 10
86.101295
 20
189.619623
 30
0.0
 10
85.489898
 20
190.309798
 30
0.0
  0
SPLINE
  5
140
100
AcDbEntity
  8
Calque_1
 62
7
100
AcDbSpline
 70
8
 71
3
 72
8
 73
4
 74
0
 40
0
 40
0
 40
0
 40
0
 40
1
 40
1
 40
1
 40
1
 10
85.489898
 20
190.309798
 30
0.0
 10
85.376408
 20
191.021350
 30
0.0
 10
85.897178
 20
191.622907
 30
0.0
 10
85.935278
 20
192.003131
 30
0.0
  0
SPLINE
  5
141
100
AcDbEntity
  8
Calque_1
 62
7
100
AcDbSpline
 70
8
 71
3
 72
8
 73
4
 74
0
 40
0
 40
0
 40
0
 40
0
 40
1
 40
1
 40
1
 40
1
 10
85.935278
 20
192.003131
 30
0.0
 10
86.160810
 20
192.438459
 30
0.0
 10
86.298394
 20
192.859642
 30
0.0
 10
86.790764
 20
193.590631
 30
0.0
  0
SPLINE
  5
142
100
AcDbEntity
  8
Calque_1
 62
7
100
AcDbSpline
 70
8
 71
3
 72
8
 73
4
 74
0
 40
0
 40
0
 40
0
 40
0
 40
1
 40
1
 40
1
 40
1
 10
86.790764
 20
193.590631
 30
0.0
 10
87.283138
 20
194.321623
 30
0.0
 10
87.451729
 20
194.956093
 30
0.0
 10
87.716806
 20
195.821950
 30
0.0
  0
SPLINE
  5
143
100
AcDbEntity
  8
Calque_1
 62
7
100
AcDbSpline
 70
8
 71
3
 72
8
 73
4
 74
0
 40
0
 40
0
 40
0
 40
0
 40
1
 40
1
 40
1
 40
1
 10
87.716806
 20
195.821950
 30
0.0
 10
87.891538
 20
196.392533
 30
0.0
 10
88.001252
 20
197.309087
 30
0.0
 10
87.963750
 20
197.978306
 30
0.0
  0
SPLINE
  5
144
100
AcDbEntity
  8
Calque_1
 62
7
100
AcDbSpline
 70
8
 71
3
 72
8
 73
4
 74
0
 40
0
 40
0
 40
0
 40
0
 40
1
 40
1
 40
1
 40
1
 10
87.963750
 20
197.978306
 30
0.0
 10
87.790960
 20
198.424993
 30
0.0
 10
87.739172
 20
199.360137
 30
0.0
 10
87.227328
 20
199.742195
 30
0.0
  0
SPLINE
  5
145
100
AcDbEntity
  8
Calque_1
 62
7
100
AcDbSpline
 70
8
 71
3
 72
8
 73
4
 74
0
 40
0
 40
0
 40
0
 40
0
 40
1
 40
1
 40
1
 40
1
 10
87.227328
 20
199.742195
 30
0.0
 10
86.806746
 20
200.370269
 30
0.0
 10
85.586629
 20
200.481360
 30
0.0
 10
85.198856
 20
199.742195
 30
0.0
  0
SPLINE
  5
146
100
AcDbEntity
  8
Calque_1
 62
7
100
AcDbSpline
 70
8
 71
3
 72
8
 73
4
 74
0
 40
0
 40
0
 40
0
 40
0
 40
1
 40
1
 40
1
 40
1
 10
85.198856
 20
199.742195
 30
0.0
 10
84.750721
 20
199.344507
 30
0.0
 10
84.341959
 20
197.621047
 30
0.0
 10
85.489898
 20
198.181153
 30
0.0
  0
SPLINE
  5
147
100
AcDbEntity
  8
Calque_1
 62
7
100
AcDbSpline
 70
8
 71
3
 72
8
 73
4
 74
0
 40
0
 40
0
 40
0
 40
0
 40
1
 40
1
 40
1
 40
1
 10
85.489898
 20
198.181153
 30
0.0
 10
86.083481
 20
199.184947
 30
0.0
 10
86.324570
 20
197.954280
 30
0.0
 10
86.186634
 20
197.382992
 30
0.0
  0
SPLINE
  5
148
100
AcDbEntity
  8
Calque_1
 62
7
100
AcDbSpline
 70
8
 71
3
 72
8
 73
4
 74
0
 40
0
 40
0
 40
0
 40
0
 40
1
 40
1
 40
1
 40
1
 10
86.186634
 20
197.382992
 30
0.0
 10
85.939582
 20
196.287335
 30
0.0
 10
85.365155
 20
195.317408
 30
0.0
 10
84.987189
 20
194.375562
 30
0.0
  0
SPLINE
  5
149
100
AcDbEntity
  8
Calque_1
 62
7
100
AcDbSpline
 70
8
 71
3
 72
8
 73
4
 74
0
 40
0
 40
0
 40
0
 40
0
 40
1
 40
1
 40
1
 40
1
 10
84.987189
 20
194.375562
 30
0.0
 10
84.691384
 20
193.540607
 30
0.0
 10
83.807077
 20
192.915203
 30
0.0
 10
83.276217
 20
192.404417
 30
0.0
  0
SPLINE
  5
14a
100
AcDbEntity
  8
Calque_1
 62
7
100
AcDbSpline
 70
8
 71
3
 72
8
 73
4
 74
0
 40
0
 40
0
 40
0
 40
0
 40
1
 40
1
 40
1
 40
1
 10
83.276217
 20
192.404417
 30
0.0
 10
81.887506
 20
192.926669
 30
0.0
 10
80.413741
 20
193.186314
 30
0.0
 10
78.945870
 20
193.387784
 30
0.0
  0
SPLINE
  5
14b
100
AcDbEntity
  8
Calque_1
 62
7
100
AcDbSpline
 70
8
 71
3
 72
8
 73
4
 74
0
 40
0
 40
0
 40
0
 40
0
 40
1
 40
1
 40
1
 40
1
 10
78.945870
 20
193.387784
 30
0.0
 10
77.986630
 20
193.647324
 30
0.0
 10
76.965621
 20
193.639667
 30
0.0
 10
76.070731
 20
194.119798
 30
0.0
  0
SPLINE
  5
14c
100
AcDbEntity
  8
Calque_1
 62
7
100
AcDbSpline
 70
8
 71
3
 72
8
 73
4
 74
0
 40
0
 40
0
 40
0
 40
0
 40
1
 40
1
 40
1
 40
1
 10
76.070731
 20
194.119798
 30
0.0
 10
75.202296
 20
194.653517
 30
0.0
 10
74.137509
 20
194.700789
 30
0.0
 10
73.363161
 20
195.231048
 30
0.0
  0
SPLINE
  5
14d
100
AcDbEntity
  8
Calque_1
 62
7
100
AcDbSpline
 70
8
 71
3
 72
8
 73
4
 74
0
 40
0
 40
0
 40
0
 40
0
 40
1
 40
1
 40
1
 40
1
 10
73.363161
 20
195.231048
 30
0.0
 10
72.852373
 20
195.771785
 30
0.0
 10
71.845159
 20
195.930606
 30
0.0
 10
71.400834
 20
196.668617
 30
0.0
  0
SPLINE
  5
14e
100
AcDbEntity
  8
Calque_1
 62
7
100
AcDbSpline
 70
8
 71
3
 72
8
 73
4
 74
0
 40
0
 40
0
 40
0
 40
0
 40
1
 40
1
 40
1
 40
1
 10
71.400834
 20
196.668617
 30
0.0
 10
70.201671
 20
197.287497
 30
0.0
 10
71.920052
 20
199.272611
 30
0.0
 10
70.386598
 20
199.332089
 30
0.0
  0
SPLINE
  5
14f
100
AcDbEntity
  8
Calque_1
 62
7
100
AcDbSpline
 70
8
 71
3
 72
8
 73
4
 74
0
 40
0
 40
0
 40
0
 40
0
 40
1
 40
1
 40
1
 40
1
 10
70.386598
 20
199.332089
 30
0.0
 10
69.439070
 20
198.526415
 30
0.0
 10
68.677423
 20
199.513205
 30
0.0
 10
68.587431
 20
200.460970
 30
0.0
  0
SPLINE
  5
150
100
AcDbEntity
  8
Calque_1
 62
7
100
AcDbSpline
 70
8
 71
3
 72
8
 73
4
 74
0
 40
0
 40
0
 40
0
 40
0
 40
1
 40
1
 40
1
 40
1
 10
68.587431
 20
200.460970
 30
0.0
 10
68.551871
 20
201.365351
 30
0.0
 10
68.290533
 20
200.710736
 30
0.0
 10
68.115589
 20
200.311039
 30
0.0
  0
SPLINE
  5
151
100
AcDbEntity
  8
Calque_1
 62
7
100
AcDbSpline
 70
8
 71
3
 72
8
 73
4
 74
0
 40
0
 40
0
 40
0
 40
0
 40
1
 40
1
 40
1
 40
1
 10
68.115589
 20
200.311039
 30
0.0
 10
68.121234
 20
199.371143
 30
0.0
 10
66.606160
 20
199.829577
 30
0.0
 10
66.104756
 20
199.354139
 30
0.0
  0
SPLINE
  5
152
100
AcDbEntity
  8
Calque_1
 62
7
100
AcDbSpline
 70
8
 71
3
 72
8
 73
4
 74
0
 40
0
 40
0
 40
0
 40
0
 40
1
 40
1
 40
1
 40
1
 10
66.104756
 20
199.354139
 30
0.0
 10
66.051345
 20
198.900078
 30
0.0
 10
65.353729
 20
198.802536
 30
0.0
 10
64.852395
 20
198.697089
 30
0.0
  0
SPLINE
  5
153
100
AcDbEntity
  8
Calque_1
 62
7
100
AcDbSpline
 70
8
 71
3
 72
8
 73
4
 74
0
 40
0
 40
0
 40
0
 40
0
 40
1
 40
1
 40
1
 40
1
 10
64.852395
 20
198.697089
 30
0.0
 10
64.706415
 20
198.521194
 30
0.0
 10
64.435801
 20
198.422524
 30
0.0
 10
64.384964
 20
198.181153
 30
0.0
  0
SPLINE
  5
154
100
AcDbEntity
  8
Calque_1
 62
7
100
AcDbSpline
 70
8
 71
3
 72
8
 73
4
 74
0
 40
0
 40
0
 40
0
 40
0
 40
1
 40
1
 40
1
 40
1
 10
64.384964
 20
198.181153
 30
0.0
 10
64.615328
 20
197.070925
 30
0.0
 10
65.443264
 20
196.218792
 30
0.0
 10
66.184131
 20
195.407437
 30
0.0
  0
SPLINE
  5
155
100
AcDbEntity
  8
Calque_1
 62
7
100
AcDbSpline
 70
8
 71
3
 72
8
 73
4
 74
0
 40
0
 40
0
 40
0
 40
0
 40
1
 40
1
 40
1
 40
1
 10
66.184131
 20
195.407437
 30
0.0
 10
66.924366
 20
194.645084
 30
0.0
 10
67.165243
 20
193.599205
 30
0.0
 10
67.326250
 20
192.602853
 30
0.0
  0
SPLINE
  5
156
100
AcDbEntity
  8
Calque_1
 62
7
100
AcDbSpline
 70
8
 71
3
 72
8
 73
4
 74
0
 40
0
 40
0
 40
0
 40
0
 40
1
 40
1
 40
1
 40
1
 10
67.326250
 20
192.602853
 30
0.0
 10
67.643962
 20
191.626048
 30
0.0
 10
67.847408
 20
190.812331
 30
0.0
 10
68.644756
 20
190.120181
 30
0.0
  0
SPLINE
  5
157
100
AcDbEntity
  8
Calque_1
 62
7
100
AcDbSpline
 70
8
 71
3
 72
8
 73
4
 74
0
 40
0
 40
0
 40
0
 40
0
 40
1
 40
1
 40
1
 40
1
 10
68.644756
 20
190.120181
 30
0.0
 10
69.454875
 20
189.612181
 30
0.0
 10
69.467823
 20
188.900521
 30
0.0
 10
68.874061
 20
188.153445
 30
0.0
  0
SPLINE
  5
158
100
AcDbEntity
  8
Calque_1
 62
7
100
AcDbSpline
 70
8
 71
3
 72
8
 73
4
 74
0
 40
0
 40
0
 40
0
 40
0
 40
1
 40
1
 40
1
 40
1
 10
68.874061
 20
188.153445
 30
0.0
 10
68.494015
 20
187.534213
 30
0.0
 10
68.712173
 20
186.937911
 30
0.0
 10
69.046042
 20
186.376325
 30
0.0
  0
SPLINE
  5
159
100
AcDbEntity
  8
Calque_1
 62
7
100
AcDbSpline
 70
8
 71
3
 72
8
 73
4
 74
0
 40
0
 40
0
 40
0
 40
0
 40
1
 40
1
 40
1
 40
1
 10
69.046042
 20
186.376325
 30
0.0
 10
67.822891
 20
186.770412
 30
0.0
 10
66.587215
 20
187.181788
 30
0.0
 10
65.297778
 20
187.536084
 30
0.0
  0
SPLINE
  5
15a
100
AcDbEntity
  8
Calque_1
 62
7
100
AcDbSpline
 70
8
 71
3
 72
8
 73
4
 74
0
 40
0
 40
0
 40
0
 40
0
 40
1
 40
1
 40
1
 40
1
 10
65.297778
 20
187.536084
 30
0.0
 10
62.005797
 20
189.205956
 30
0.0
 10
61.057141
 20
191.406513
 30
0.0
 10
58.714061
 20
194.768028
 30
0.0
  0
SPLINE
  5
15b
100
AcDbEntity
  8
Calque_1
 62
7
100
AcDbSpline
 70
8
 71
3
 72
8
 73
4
 74
0
 40
0
 40
0
 40
0
 40
0
 40
1
 40
1
 40
1
 40
1
 10
58.714061
 20
194.768028
 30
0.0
 10
57.391498
 20
198.382730
 30
0.0
 10
54.327623
 20
205.889830
 30
0.0
 10
52.611006
 20
205.920169
 30
0.0
  0
SPLINE
  5
15c
100
AcDbEntity
  8
Calque_1
 62
7
100
AcDbSpline
 70
8
 71
3
 72
8
 73
4
 74
0
 40
0
 40
0
 40
0
 40
0
 40
1
 40
1
 40
1
 40
1
 10
52.611006
 20
205.920169
 30
0.0
 10
51.953394
 20
206.167114
 30
0.0
 10
51.808120
 20
206.014115
 30
0.0
 10
51.883403
 20
206.272947
 30
0.0
  0
SPLINE
  5
15d
100
AcDbEntity
  8
Calque_1
 62
7
100
AcDbSpline
 70
8
 71
3
 72
8
 73
4
 74
0
 40
0
 40
0
 40
0
 40
0
 40
1
 40
1
 40
1
 40
1
 10
51.883403
 20
206.272947
 30
0.0
 10
52.044975
 20
206.828431
 30
0.0
 10
53.275639
 20
206.385695
 30
0.0
 10
53.925103
 20
206.422878
 30
0.0
  0
LWPOLYLINE
  5
15e
100
AcDbEntity
  8
Calque_1
 62
7
100
AcDbPolyline
 90
2
 70
0
 10
59.291736
 20
243.094130
 30
0.0
 10
59.838542
 20
242.714894
 30
0.0
  0
SPLINE
  5
15f
100
AcDbEntity
  8
Calque_1
 62
7
100
AcDbSpline
 70
8
 71
3
 72
8
 73
4
 74
0
 40
0
 40
0
 40
0
 40
0
 40
1
 40
1
 40
1
 40
1
 10
54.330798
 20
206.422878
 30
0.0
 10
54.673875
 20
206.422878
 30
0.0
 10
56.701289
 20
205.270530
 30
0.0
 10
57.161839
 20
205.232289
 30
0.0
  0
LWPOLYLINE
  5
160
100
AcDbEntity
  8
Calque_1
 62
7
100
AcDbPolyline
 90
2
 70
0
 10
53.925103
 20
206.422878
 30
0.0
 10
54.330798
 20
206.422878
 30
0.0
  0
SPLINE
  5
161
100
AcDbEntity
  8
Calque_1
 62
7
100
AcDbSpline
 70
8
 71
3
 72
8
 73
4
 74
0
 40
0
 40
0
 40
0
 40
0
 40
1
 40
1
 40
1
 40
1
 10
58.524445
 20
206.061280
 30
0.0
 10
58.416670
 20
206.147183
 30
0.0
 10
55.905070
 20
207.003197
 30
0.0
 10
55.556700
 20
207.141664
 30
0.0
  0
SPLINE
  5
162
100
AcDbEntity
  8
Calque_1
 62
7
100
AcDbSpline
 70
8
 71
3
 72
8
 73
4
 74
0
 40
0
 40
0
 40
0
 40
0
 40
1
 40
1
 40
1
 40
1
 10
55.556700
 20
207.141664
 30
0.0
 10
54.881836
 20
207.409422
 30
0.0
 10
54.903003
 20
207.323697
 30
0.0
 10
54.357256
 20
207.754614
 30
0.0
  0
SPLINE
  5
163
100
AcDbEntity
  8
Calque_1
 62
7
100
AcDbSpline
 70
8
 71
3
 72
8
 73
4
 74
0
 40
0
 40
0
 40
0
 40
0
 40
1
 40
1
 40
1
 40
1
 10
54.357256
 20
207.754614
 30
0.0
 10
54.028114
 20
208.014611
 30
0.0
 10
53.674984
 20
208.263672
 30
0.0
 10
53.360659
 20
208.535136
 30
0.0
  0
SPLINE
  5
164
100
AcDbEntity
  8
Calque_1
 62
7
100
AcDbSpline
 70
8
 71
3
 72
8
 73
4
 74
0
 40
0
 40
0
 40
0
 40
0
 40
1
 40
1
 40
1
 40
1
 10
53.360659
 20
208.535136
 30
0.0
 10
52.852131
 20
208.974166
 30
0.0
 10
49.957589
 20
211.339719
 30
0.0
 10
49.391909
 20
211.339719
 30
0.0
  0
LWPOLYLINE
  5
165
100
AcDbEntity
  8
Calque_1
 62
7
100
AcDbPolyline
 90
3
 70
0
 10
57.161839
 20
205.232289
 30
0.0
 10
57.011909
 20
205.862844
 30
0.0
 10
58.524445
 20
206.061280
 30
0.0
  0
SPLINE
  5
166
100
AcDbEntity
  8
Calque_1
 62
7
100
AcDbSpline
 70
8
 71
3
 72
8
 73
4
 74
0
 40
0
 40
0
 40
0
 40
0
 40
1
 40
1
 40
1
 40
1
 10
49.356631
 20
211.339719
 30
0.0
 10
49.075998
 20
211.339719
 30
0.0
 10
48.735214
 20
211.242000
 30
0.0
 10
48.584931
 20
211.110414
 30
0.0
  0
SPLINE
  5
167
100
AcDbEntity
  8
Calque_1
 62
7
100
AcDbSpline
 70
8
 71
3
 72
8
 73
4
 74
0
 40
0
 40
0
 40
0
 40
0
 40
1
 40
1
 40
1
 40
1
 10
48.584931
 20
211.110414
 30
0.0
 10
48.277131
 20
210.841066
 30
0.0
 10
48.609625
 20
210.809494
 30
0.0
 10
48.038125
 20
210.700308
 30
0.0
  0
SPLINE
  5
168
100
AcDbEntity
  8
Calque_1
 62
7
100
AcDbSpline
 70
8
 71
3
 72
8
 73
4
 74
0
 40
0
 40
0
 40
0
 40
0
 40
1
 40
1
 40
1
 40
1
 10
48.038125
 20
210.700308
 30
0.0
 10
47.779361
 20
210.650919
 30
0.0
 10
46.536173
 20
210.450014
 30
0.0
 10
46.432986
 20
210.378400
 30
0.0
  0
SPLINE
  5
169
100
AcDbEntity
  8
Calque_1
 62
7
100
AcDbSpline
 70
8
 71
3
 72
8
 73
4
 74
0
 40
0
 40
0
 40
0
 40
0
 40
1
 40
1
 40
1
 40
1
 10
46.432986
 20
210.378400
 30
0.0
 10
46.858259
 20
210.342944
 30
0.0
 10
47.575986
 20
210.076597
 30
0.0
 10
48.007256
 20
209.955066
 30
0.0
  0
SPLINE
  5
16a
100
AcDbEntity
  8
Calque_1
 62
7
100
AcDbSpline
 70
8
 71
3
 72
8
 73
4
 74
0
 40
0
 40
0
 40
0
 40
0
 40
1
 40
1
 40
1
 40
1
 10
48.007256
 20
209.955066
 30
0.0
 10
48.486859
 20
209.819953
 30
0.0
 10
48.328989
 20
209.871280
 30
0.0
 10
48.518784
 20
209.465586
 30
0.0
  0
SPLINE
  5
16b
100
AcDbEntity
  8
Calque_1
 62
7
100
AcDbSpline
 70
8
 71
3
 72
8
 73
4
 74
0
 40
0
 40
0
 40
0
 40
0
 40
1
 40
1
 40
1
 40
1
 10
48.518784
 20
209.465586
 30
0.0
 10
48.622500
 20
209.244041
 30
0.0
 10
48.713342
 20
208.956353
 30
0.0
 10
48.792186
 20
208.742391
 30
0.0
  0
SPLINE
  5
16c
100
AcDbEntity
  8
Calque_1
 62
7
100
AcDbSpline
 70
8
 71
3
 72
8
 73
4
 74
0
 40
0
 40
0
 40
0
 40
0
 40
1
 40
1
 40
1
 40
1
 10
48.792186
 20
208.742391
 30
0.0
 10
49.175481
 20
207.699053
 30
0.0
 10
49.291438
 20
206.939062
 30
0.0
 10
50.242986
 20
206.387600
 30
0.0
  0
SPLINE
  5
16d
100
AcDbEntity
  8
Calque_1
 62
7
100
AcDbSpline
 70
8
 71
3
 72
8
 73
4
 74
0
 40
0
 40
0
 40
0
 40
0
 40
1
 40
1
 40
1
 40
1
 10
50.242986
 20
206.387600
 30
0.0
 10
48.910474
 20
206.231884
 30
0.0
 10
47.375854
 20
204.531213
 30
0.0
 10
48.981806
 20
202.546767
 30
0.0
  0
SPLINE
  5
16e
100
AcDbEntity
  8
Calque_1
 62
7
100
AcDbSpline
 70
8
 71
3
 72
8
 73
4
 74
0
 40
0
 40
0
 40
0
 40
0
 40
1
 40
1
 40
1
 40
1
 10
48.981806
 20
202.546767
 30
0.0
 10
49.932646
 20
200.623916
 30
0.0
 10
51.056915
 20
198.423052
 30
0.0
 10
52.196492
 20
196.082125
 30
0.0
  0
SPLINE
  5
16f
100
AcDbEntity
  8
Calque_1
 62
7
100
AcDbSpline
 70
8
 71
3
 72
8
 73
4
 74
0
 40
0
 40
0
 40
0
 40
0
 40
1
 40
1
 40
1
 40
1
 10
52.196492
 20
196.082125
 30
0.0
 10
52.576541
 20
195.301462
 30
0.0
 10
53.683275
 20
192.841509
 30
0.0
 10
52.562500
 20
192.241256
 30
0.0
  0
SPLINE
  5
170
100
AcDbEntity
  8
Calque_1
 62
7
100
AcDbSpline
 70
8
 71
3
 72
8
 73
4
 74
0
 40
0
 40
0
 40
0
 40
0
 40
1
 40
1
 40
1
 40
1
 10
52.562500
 20
192.241256
 30
0.0
 10
51.180845
 20
192.220456
 30
0.0
 10
50.223759
 20
193.502437
 30
0.0
 10
49.140556
 20
194.155075
 30
0.0
  0
SPLINE
  5
171
100
AcDbEntity
  8
Calque_1
 62
7
100
AcDbSpline
 70
8
 71
3
 72
8
 73
4
 74
0
 40
0
 40
0
 40
0
 40
0
 40
1
 40
1
 40
1
 40
1
 10
49.140556
 20
194.155075
 30
0.0
 10
46.112311
 20
195.979467
 30
0.0
 10
43.251106
 20
198.712964
 30
0.0
 10
40.748853
 20
201.342914
 30
0.0
  0
SPLINE
  5
172
100
AcDbEntity
  8
Calque_1
 62
7
100
AcDbSpline
 70
8
 71
3
 72
8
 73
4
 74
0
 40
0
 40
0
 40
0
 40
0
 40
1
 40
1
 40
1
 40
1
 10
40.748853
 20
201.342914
 30
0.0
 10
39.124557
 20
203.172313
 30
0.0
 10
37.263301
 20
201.975831
 30
0.0
 10
35.911386
 20
200.421281
 30
0.0
  0
SPLINE
  5
173
100
AcDbEntity
  8
Calque_1
 62
7
100
AcDbSpline
 70
8
 71
3
 72
8
 73
4
 74
0
 40
0
 40
0
 40
0
 40
0
 40
1
 40
1
 40
1
 40
1
 10
35.911386
 20
200.421281
 30
0.0
 10
34.559508
 20
198.866742
 30
0.0
 10
38.062625
 20
196.058100
 30
0.0
 10
40.299061
 20
194.044834
 30
0.0
  0
SPLINE
  5
174
100
AcDbEntity
  8
Calque_1
 62
7
100
AcDbSpline
 70
8
 71
3
 72
8
 73
4
 74
0
 40
0
 40
0
 40
0
 40
0
 40
1
 40
1
 40
1
 40
1
 10
40.299061
 20
194.044834
 30
0.0
 10
41.932527
 20
192.574419
 30
0.0
 10
46.066061
 20
189.523950
 30
0.0
 10
49.233159
 20
187.708062
 30
0.0
  0
SPLINE
  5
175
100
AcDbEntity
  8
Calque_1
 62
7
100
AcDbSpline
 70
8
 71
3
 72
8
 73
4
 74
0
 40
0
 40
0
 40
0
 40
0
 40
1
 40
1
 40
1
 40
1
 10
49.233159
 20
187.708062
 30
0.0
 10
51.982534
 20
186.131673
 30
0.0
 10
54.921031
 20
184.878465
 30
0.0
 10
57.898264
 20
183.792228
 30
0.0
  0
SPLINE
  5
176
100
AcDbEntity
  8
Calque_1
 62
7
100
AcDbSpline
 70
8
 71
3
 72
8
 73
4
 74
0
 40
0
 40
0
 40
0
 40
0
 40
1
 40
1
 40
1
 40
1
 10
57.898264
 20
183.792228
 30
0.0
 10
62.567100
 20
182.088805
 30
0.0
 10
68.482125
 20
180.526564
 30
0.0
 10
72.247500
 20
179.739692
 30
0.0
  0
SPLINE
  5
177
100
AcDbEntity
  8
Calque_1
 62
7
100
AcDbSpline
 70
8
 71
3
 72
8
 73
4
 74
0
 40
0
 40
0
 40
0
 40
0
 40
1
 40
1
 40
1
 40
1
 10
72.247500
 20
179.739692
 30
0.0
 10
73.098048
 20
179.562245
 30
0.0
 10
77.184273
 20
179.105398
 30
0.0
 10
77.062917
 20
177.900839
 30
0.0
  0
SPLINE
  5
178
100
AcDbEntity
  8
Calque_1
 62
7
100
AcDbSpline
 70
8
 71
3
 72
8
 73
4
 74
0
 40
0
 40
0
 40
0
 40
0
 40
1
 40
1
 40
1
 40
1
 10
77.062917
 20
177.900839
 30
0.0
 10
76.939445
 20
176.673348
 30
0.0
 10
63.400364
 20
172.982942
 30
0.0
 10
62.660764
 20
172.723825
 30
0.0
  0
SPLINE
  5
179
100
AcDbEntity
  8
Calque_1
 62
7
100
AcDbSpline
 70
8
 71
3
 72
8
 73
4
 74
0
 40
0
 40
0
 40
0
 40
0
 40
1
 40
1
 40
1
 40
1
 10
62.660764
 20
172.723825
 30
0.0
 10
61.116831
 20
172.183017
 30
0.0
 10
55.443670
 20
170.520375
 30
0.0
 10
50.992639
 20
169.429764
 30
0.0
  0
SPLINE
  5
17a
100
AcDbEntity
  8
Calque_1
 62
7
100
AcDbSpline
 70
8
 71
3
 72
8
 73
4
 74
0
 40
0
 40
0
 40
0
 40
0
 40
1
 40
1
 40
1
 40
1
 10
50.992639
 20
169.429764
 30
0.0
 10
49.693288
 20
168.321018
 30
0.0
 10
50.313119
 20
167.612781
 30
0.0
 10
50.384098
 20
165.183200
 30
0.0
  0
SPLINE
  5
17b
100
AcDbEntity
  8
Calque_1
 62
7
100
AcDbSpline
 70
8
 71
3
 72
8
 73
4
 74
0
 40
0
 40
0
 40
0
 40
0
 40
1
 40
1
 40
1
 40
1
 10
50.384098
 20
165.183200
 30
0.0
 10
50.456733
 20
162.697492
 30
0.0
 10
56.964109
 20
165.229589
 30
0.0
 10
59.194723
 20
165.866706
 30
0.0
  0
SPLINE
  5
17c
100
AcDbEntity
  8
Calque_1
 62
7
100
AcDbSpline
 70
8
 71
3
 72
8
 73
4
 74
0
 40
0
 40
0
 40
0
 40
0
 40
1
 40
1
 40
1
 40
1
 10
59.194723
 20
165.866706
 30
0.0
 10
62.204092
 20
166.726425
 30
0.0
 10
65.364275
 20
168.019356
 30
0.0
 10
68.186145
 20
168.464034
 30
0.0
  0
SPLINE
  5
17d
100
AcDbEntity
  8
Calque_1
 62
7
100
AcDbSpline
 70
8
 71
3
 72
8
 73
4
 74
0
 40
0
 40
0
 40
0
 40
0
 40
1
 40
1
 40
1
 40
1
 10
68.186145
 20
168.464034
 30
0.0
 10
68.994889
 20
168.591739
 30
0.0
 10
71.529245
 20
169.740384
 30
0.0
 10
71.947639
 20
168.327331
 30
0.0
  0
SPLINE
  5
17e
100
AcDbEntity
  8
Calque_1
 62
7
100
AcDbSpline
 70
8
 71
3
 72
8
 73
4
 74
0
 40
0
 40
0
 40
0
 40
0
 40
1
 40
1
 40
1
 40
1
 10
71.947639
 20
168.327331
 30
0.0
 10
70.189395
 20
164.802130
 30
0.0
 10
64.007421
 20
159.913688
 30
0.0
 10
66.536909
 20
157.774867
 30
0.0
  0
SPLINE
  5
17f
100
AcDbEntity
  8
Calque_1
 62
7
100
AcDbSpline
 70
8
 71
3
 72
8
 73
4
 74
0
 40
0
 40
0
 40
0
 40
0
 40
1
 40
1
 40
1
 40
1
 10
66.536909
 20
157.774867
 30
0.0
 10
68.681481
 20
155.815926
 30
0.0
 10
70.095449
 20
156.145951
 30
0.0
 10
71.458159
 20
157.594067
 30
0.0
  0
SPLINE
  5
180
100
AcDbEntity
  8
Calque_1
 62
7
100
AcDbSpline
 70
8
 71
3
 72
8
 73
4
 74
0
 40
0
 40
0
 40
0
 40
0
 40
1
 40
1
 40
1
 40
1
 10
71.458159
 20
157.594067
 30
0.0
 10
74.516745
 20
160.841104
 30
0.0
 10
78.112995
 20
165.109080
 30
0.0
 10
79.342745
 20
167.551220
 30
0.0
  0
SPLINE
  5
181
100
AcDbEntity
  8
Calque_1
 62
7
100
AcDbSpline
 70
8
 71
3
 72
8
 73
4
 74
0
 40
0
 40
0
 40
0
 40
0
 40
1
 40
1
 40
1
 40
1
 10
79.342745
 20
167.551220
 30
0.0
 10
80.634086
 20
170.115598
 30
0.0
 10
82.106510
 20
170.860278
 30
0.0
 10
84.127292
 20
172.022681
 30
0.0
  0
SPLINE
  5
182
100
AcDbEntity
  8
Calque_1
 62
7
100
AcDbSpline
 70
8
 71
3
 72
8
 73
4
 74
0
 40
0
 40
0
 40
0
 40
0
 40
1
 40
1
 40
1
 40
1
 10
84.127292
 20
172.022681
 30
0.0
 10
86.814014
 20
172.849626
 30
0.0
 10
88.954175
 20
174.151517
 30
0.0
 10
91.129934
 20
173.821845
 30
0.0
  0
SPLINE
  5
183
100
AcDbEntity
  8
Calque_1
 62
7
100
AcDbSpline
 70
8
 71
3
 72
8
 73
4
 74
0
 40
0
 40
0
 40
0
 40
0
 40
1
 40
1
 40
1
 40
1
 10
91.129934
 20
173.821845
 30
0.0
 10
97.101931
 20
171.901184
 30
0.0
 10
96.271351
 20
167.556441
 30
0.0
 10
97.144795
 20
162.462400
 30
0.0
  0
SPLINE
  5
184
100
AcDbEntity
  8
Calque_1
 62
7
100
AcDbSpline
 70
8
 71
3
 72
8
 73
4
 74
0
 40
0
 40
0
 40
0
 40
0
 40
1
 40
1
 40
1
 40
1
 10
97.144795
 20
162.462400
 30
0.0
 10
98.435431
 20
149.978018
 30
0.0
 10
98.478258
 20
136.559373
 30
0.0
 10
97.052189
 20
125.420731
 30
0.0
  0
SPLINE
  5
185
100
AcDbEntity
  8
Calque_1
 62
7
100
AcDbSpline
 70
8
 71
3
 72
8
 73
4
 74
0
 40
0
 40
0
 40
0
 40
0
 40
1
 40
1
 40
1
 40
1
 10
97.052189
 20
125.420731
 30
0.0
 10
95.643900
 20
112.572070
 30
0.0
 10
95.488325
 20
95.648048
 30
0.0
 10
93.550870
 20
87.704373
 30
0.0
  0
SPLINE
  5
186
100
AcDbEntity
  8
Calque_1
 62
7
100
AcDbSpline
 70
8
 71
3
 72
8
 73
4
 74
0
 40
0
 40
0
 40
0
 40
0
 40
1
 40
1
 40
1
 40
1
 10
93.550870
 20
87.704373
 30
0.0
 10
92.392912
 20
81.390604
 30
0.0
 10
91.712511
 20
74.984086
 30
0.0
 10
90.525800
 20
68.676420
 30
0.0
  0
LWPOLYLINE
  5
187
100
AcDbEntity
  8
Calque_1
 62
7
100
AcDbPolyline
 90
2
 70
0
 10
49.391909
 20
211.339719
 30
0.0
 10
49.356631
 20
211.339719
 30
0.0
  0
SPLINE
  5
188
100
AcDbEntity
  8
Calque_1
 62
7
100
AcDbSpline
 70
8
 71
3
 72
8
 73
4
 74
0
 40
0
 40
0
 40
0
 40
0
 40
1
 40
1
 40
1
 40
1
 10
46.922464
 20
68.676420
 30
0.0
 10
46.922464
 20
46.604206
 30
0.0
 10
74.456595
 20
28.711106
 30
0.0
 10
108.424864
 20
28.711106
 30
0.0
  0
SPLINE
  5
189
100
AcDbEntity
  8
Calque_1
 62
7
100
AcDbSpline
 70
8
 71
3
 72
8
 73
4
 74
0
 40
0
 40
0
 40
0
 40
0
 40
1
 40
1
 40
1
 40
1
 10
108.424864
 20
28.711106
 30
0.0
 10
142.393134
 20
28.711106
 30
0.0
 10
169.931675
 20
46.604206
 30
0.0
 10
169.931675
 20
68.676420
 30
0.0
  0
LWPOLYLINE
  5
18a
100
AcDbEntity
  8
Calque_1
 62
7
100
AcDbPolyline
 90
2
 70
0
 10
90.525800
 20
68.676420
 30
0.0
 10
46.922464
 20
68.676420
 30
0.0
  0
SPLINE
  5
18b
100
AcDbEntity
  8
Calque_1
 62
7
100
AcDbSpline
 70
8
 71
3
 72
8
 73
4
 74
0
 40
0
 40
0
 40
0
 40
0
 40
1
 40
1
 40
1
 40
1
 10
125.874137
 20
68.676420
 30
0.0
 10
124.201933
 20
74.867001
 30
0.0
 10
123.526717
 20
82.245842
 30
0.0
 10
122.425734
 20
88.282048
 30
0.0
  0
SPLINE
  5
18c
100
AcDbEntity
  8
Calque_1
 62
7
100
AcDbSpline
 70
8
 71
3
 72
8
 73
4
 74
0
 40
0
 40
0
 40
0
 40
0
 40
1
 40
1
 40
1
 40
1
 10
122.425734
 20
88.282048
 30
0.0
 10
121.963911
 20
90.811464
 30
0.0
 10
121.699364
 20
93.170489
 30
0.0
 10
121.226289
 20
95.813853
 30
0.0
  0
SPLINE
  5
18d
100
AcDbEntity
  8
Calque_1
 62
7
100
AcDbSpline
 70
8
 71
3
 72
8
 73
4
 74
0
 40
0
 40
0
 40
0
 40
0
 40
1
 40
1
 40
1
 40
1
 10
121.226289
 20
95.813853
 30
0.0
 10
120.934189
 20
97.448131
 30
0.0
 10
120.803662
 20
99.017075
 30
0.0
 10
120.608928
 20
100.686598
 30
0.0
  0
SPLINE
  5
18e
100
AcDbEntity
  8
Calque_1
 62
7
100
AcDbSpline
 70
8
 71
3
 72
8
 73
4
 74
0
 40
0
 40
0
 40
0
 40
0
 40
1
 40
1
 40
1
 40
1
 10
120.608928
 20
100.686598
 30
0.0
 10
119.382072
 20
119.459388
 30
0.0
 10
116.883595
 20
139.709080
 30
0.0
 10
118.479031
 20
156.654798
 30
0.0
  0
SPLINE
  5
18f
100
AcDbEntity
  8
Calque_1
 62
7
100
AcDbSpline
 70
8
 71
3
 72
8
 73
4
 74
0
 40
0
 40
0
 40
0
 40
0
 40
1
 40
1
 40
1
 40
1
 10
118.479031
 20
156.654798
 30
0.0
 10
118.479031
 20
165.034856
 30
0.0
 10
125.462270
 20
170.424420
 30
0.0
 10
132.449034
 20
170.915839
 30
0.0
  0
SPLINE
  5
190
100
AcDbEntity
  8
Calque_1
 62
7
100
AcDbSpline
 70
8
 71
3
 72
8
 73
4
 74
0
 40
0
 40
0
 40
0
 40
0
 40
1
 40
1
 40
1
 40
1
 10
132.449034
 20
170.915839
 30
0.0
 10
139.344287
 20
171.064889
 30
0.0
 10
147.982582
 20
166.980533
 30
0.0
 10
155.150284
 20
164.680492
 30
0.0
  0
SPLINE
  5
191
100
AcDbEntity
  8
Calque_1
 62
7
100
AcDbSpline
 70
8
 71
3
 72
8
 73
4
 74
0
 40
0
 40
0
 40
0
 40
0
 40
1
 40
1
 40
1
 40
1
 10
155.150284
 20
164.680492
 30
0.0
 10
161.370323
 20
162.329050
 30
0.0
 10
161.186913
 20
162.913885
 30
0.0
 10
162.201431
 20
165.469831
 30
0.0
  0
SPLINE
  5
192
100
AcDbEntity
  8
Calque_1
 62
7
100
AcDbSpline
 70
8
 71
3
 72
8
 73
4
 74
0
 40
0
 40
0
 40
0
 40
0
 40
1
 40
1
 40
1
 40
1
 10
162.201431
 20
165.469831
 30
0.0
 10
163.590670
 20
168.530920
 30
0.0
 10
160.407203
 20
169.178725
 30
0.0
 10
157.487437
 20
170.523375
 30
0.0
  0
SPLINE
  5
193
100
AcDbEntity
  8
Calque_1
 62
7
100
AcDbSpline
 70
8
 71
3
 72
8
 73
4
 74
0
 40
0
 40
0
 40
0
 40
0
 40
1
 40
1
 40
1
 40
1
 10
157.487437
 20
170.523375
 30
0.0
 10
153.292627
 20
172.455220
 30
0.0
 10
148.834009
 20
174.201363
 30
0.0
 10
143.649728
 20
175.105075
 30
0.0
  0
SPLINE
  5
194
100
AcDbEntity
  8
Calque_1
 62
7
100
AcDbSpline
 70
8
 71
3
 72
8
 73
4
 74
0
 40
0
 40
0
 40
0
 40
0
 40
1
 40
1
 40
1
 40
1
 10
143.649728
 20
175.105075
 30
0.0
 10
141.407648
 20
175.902071
 30
0.0
 10
141.007950
 20
176.014537
 30
0.0
 10
143.402784
 20
177.226150
 30
0.0
  0
SPLINE
  5
195
100
AcDbEntity
  8
Calque_1
 62
7
100
AcDbSpline
 70
8
 71
3
 72
8
 73
4
 74
0
 40
0
 40
0
 40
0
 40
0
 40
1
 40
1
 40
1
 40
1
 10
143.402784
 20
177.226150
 30
0.0
 10
145.253456
 20
178.162423
 30
0.0
 10
147.230248
 20
178.790898
 30
0.0
 10
149.223617
 20
179.236984
 30
0.0
  0
SPLINE
  5
196
100
AcDbEntity
  8
Calque_1
 62
7
100
AcDbSpline
 70
8
 71
3
 72
8
 73
4
 74
0
 40
0
 40
0
 40
0
 40
0
 40
1
 40
1
 40
1
 40
1
 10
149.223617
 20
179.236984
 30
0.0
 10
153.607587
 20
179.697853
 30
0.0
 10
158.220438
 20
177.007781
 30
0.0
 10
163.440564
 20
176.582331
 30
0.0
  0
SPLINE
  5
197
100
AcDbEntity
  8
Calque_1
 62
7
100
AcDbSpline
 70
8
 71
3
 72
8
 73
4
 74
0
 40
0
 40
0
 40
0
 40
0
 40
1
 40
1
 40
1
 40
1
 10
163.440564
 20
176.582331
 30
0.0
 10
170.143447
 20
175.846295
 30
0.0
 10
172.041462
 20
175.093575
 30
0.0
 10
172.167403
 20
177.658303
 30
0.0
  0
SPLINE
  5
198
100
AcDbEntity
  8
Calque_1
 62
7
100
AcDbSpline
 70
8
 71
3
 72
8
 73
4
 74
0
 40
0
 40
0
 40
0
 40
0
 40
1
 40
1
 40
1
 40
1
 10
172.167403
 20
177.658303
 30
0.0
 10
172.344605
 20
182.370850
 30
0.0
 10
171.540201
 20
180.877542
 30
0.0
 10
167.453412
 20
181.957784
 30
0.0
  0
SPLINE
  5
199
100
AcDbEntity
  8
Calque_1
 62
7
100
AcDbSpline
 70
8
 71
3
 72
8
 73
4
 74
0
 40
0
 40
0
 40
0
 40
0
 40
1
 40
1
 40
1
 40
1
 10
167.453412
 20
181.957784
 30
0.0
 10
165.465472
 20
182.169168
 30
0.0
 10
163.945988
 20
182.254399
 30
0.0
 10
161.835425
 20
182.663339
 30
0.0
  0
SPLINE
  5
19a
100
AcDbEntity
  8
Calque_1
 62
7
100
AcDbSpline
 70
8
 71
3
 72
8
 73
4
 74
0
 40
0
 40
0
 40
0
 40
0
 40
1
 40
1
 40
1
 40
1
 10
161.835425
 20
182.663339
 30
0.0
 10
158.910895
 20
183.005356
 30
0.0
 10
163.348489
 20
186.000617
 30
0.0
 10
164.088792
 20
186.354275
 30
0.0
  0
SPLINE
  5
19b
100
AcDbEntity
  8
Calque_1
 62
7
100
AcDbSpline
 70
8
 71
3
 72
8
 73
4
 74
0
 40
0
 40
0
 40
0
 40
0
 40
1
 40
1
 40
1
 40
1
 10
164.088792
 20
186.354275
 30
0.0
 10
167.581645
 20
188.022212
 30
0.0
 10
171.312129
 20
189.532558
 30
0.0
 10
174.605981
 20
191.434278
 30
0.0
  0
SPLINE
  5
19c
100
AcDbEntity
  8
Calque_1
 62
7
100
AcDbSpline
 70
8
 71
3
 72
8
 73
4
 74
0
 40
0
 40
0
 40
0
 40
0
 40
1
 40
1
 40
1
 40
1
 10
174.605981
 20
191.434278
 30
0.0
 10
176.867814
 20
192.319573
 30
0.0
 10
179.969473
 20
196.050550
 30
0.0
 10
176.466884
 20
197.025806
 30
0.0
  0
SPLINE
  5
19d
100
AcDbEntity
  8
Calque_1
 62
7
100
AcDbSpline
 70
8
 71
3
 72
8
 73
4
 74
0
 40
0
 40
0
 40
0
 40
0
 40
1
 40
1
 40
1
 40
1
 10
176.466884
 20
197.025806
 30
0.0
 10
176.084120
 20
197.132345
 30
0.0
 10
175.698534
 20
197.167623
 30
0.0
 10
175.315945
 20
197.153687
 30
0.0
  0
SPLINE
  5
19e
100
AcDbEntity
  8
Calque_1
 62
7
100
AcDbSpline
 70
8
 71
3
 72
8
 73
4
 74
0
 40
0
 40
0
 40
0
 40
0
 40
1
 40
1
 40
1
 40
1
 10
175.315945
 20
197.153687
 30
0.0
 10
175.257737
 20
197.462014
 30
0.0
 10
175.276612
 20
197.446317
 30
0.0
 10
174.923481
 20
197.691673
 30
0.0
  0
SPLINE
  5
19f
100
AcDbEntity
  8
Calque_1
 62
7
100
AcDbSpline
 70
8
 71
3
 72
8
 73
4
 74
0
 40
0
 40
0
 40
0
 40
0
 40
1
 40
1
 40
1
 40
1
 10
174.923481
 20
197.691673
 30
0.0
 10
176.154675
 20
197.978659
 30
0.0
 10
176.123631
 20
199.000478
 30
0.0
 10
176.524209
 20
200.090562
 30
0.0
  0
SPLINE
  5
1a0
100
AcDbEntity
  8
Calque_1
 62
7
100
AcDbSpline
 70
8
 71
3
 72
8
 73
4
 74
0
 40
0
 40
0
 40
0
 40
0
 40
1
 40
1
 40
1
 40
1
 10
176.524209
 20
200.090562
 30
0.0
 10
176.602878
 20
200.304511
 30
0.0
 10
176.694073
 20
200.592203
 30
0.0
 10
176.797612
 20
200.813748
 30
0.0
  0
SPLINE
  5
1a1
100
AcDbEntity
  8
Calque_1
 62
7
100
AcDbSpline
 70
8
 71
3
 72
8
 73
4
 74
0
 40
0
 40
0
 40
0
 40
0
 40
1
 40
1
 40
1
 40
1
 10
176.797612
 20
200.813748
 30
0.0
 10
176.987618
 20
201.219442
 30
0.0
 10
176.825128
 20
201.168111
 30
0.0
 10
177.304731
 20
201.303225
 30
0.0
  0
SPLINE
  5
1a2
100
AcDbEntity
  8
Calque_1
 62
7
100
AcDbSpline
 70
8
 71
3
 72
8
 73
4
 74
0
 40
0
 40
0
 40
0
 40
0
 40
1
 40
1
 40
1
 40
1
 10
177.304731
 20
201.303225
 30
0.0
 10
177.736215
 20
201.424759
 30
0.0
 10
178.453765
 20
201.691106
 30
0.0
 10
178.879003
 20
201.726559
 30
0.0
  0
SPLINE
  5
1a3
100
AcDbEntity
  8
Calque_1
 62
7
100
AcDbSpline
 70
8
 71
3
 72
8
 73
4
 74
0
 40
0
 40
0
 40
0
 40
0
 40
1
 40
1
 40
1
 40
1
 10
178.879003
 20
201.726559
 30
0.0
 10
178.775851
 20
201.798173
 30
0.0
 10
177.537245
 20
201.994670
 30
0.0
 10
177.278307
 20
202.044059
 30
0.0
  0
SPLINE
  5
1a4
100
AcDbEntity
  8
Calque_1
 62
7
100
AcDbSpline
 70
8
 71
3
 72
8
 73
4
 74
0
 40
0
 40
0
 40
0
 40
0
 40
1
 40
1
 40
1
 40
1
 10
177.278307
 20
202.044059
 30
0.0
 10
176.706773
 20
202.153067
 30
0.0
 10
177.034856
 20
202.189050
 30
0.0
 10
176.727056
 20
202.458573
 30
0.0
  0
SPLINE
  5
1a5
100
AcDbEntity
  8
Calque_1
 62
7
100
AcDbSpline
 70
8
 71
3
 72
8
 73
4
 74
0
 40
0
 40
0
 40
0
 40
0
 40
1
 40
1
 40
1
 40
1
 10
176.727056
 20
202.458573
 30
0.0
 10
176.576598
 20
202.590159
 30
0.0
 10
176.240400
 20
202.687878
 30
0.0
 10
175.959764
 20
202.687878
 30
0.0
  0
LWPOLYLINE
  5
1a6
100
AcDbEntity
  8
Calque_1
 62
7
100
AcDbPolyline
 90
2
 70
0
 10
169.931675
 20
68.676420
 30
0.0
 10
125.874137
 20
68.676420
 30
0.0
  0
SPLINE
  5
1a7
100
AcDbEntity
  8
Calque_1
 62
7
100
AcDbSpline
 70
8
 71
3
 72
8
 73
4
 74
0
 40
0
 40
0
 40
0
 40
0
 40
1
 40
1
 40
1
 40
1
 10
175.920078
 20
202.687878
 30
0.0
 10
175.354223
 20
202.687878
 30
0.0
 10
172.093673
 20
200.251773
 30
0.0
 10
171.585320
 20
199.812750
 30
0.0
  0
SPLINE
  5
1a8
100
AcDbEntity
  8
Calque_1
 62
7
100
AcDbSpline
 70
8
 71
3
 72
8
 73
4
 74
0
 40
0
 40
0
 40
0
 40
0
 40
1
 40
1
 40
1
 40
1
 10
171.585320
 20
199.812750
 30
0.0
 10
171.270820
 20
199.541287
 30
0.0
 10
170.917864
 20
199.292050
 30
0.0
 10
170.588723
 20
199.032228
 30
0.0
  0
SPLINE
  5
1a9
100
AcDbEntity
  8
Calque_1
 62
7
100
AcDbSpline
 70
8
 71
3
 72
8
 73
4
 74
0
 40
0
 40
0
 40
0
 40
0
 40
1
 40
1
 40
1
 40
1
 10
170.588723
 20
199.032228
 30
0.0
 10
170.042975
 20
198.601312
 30
0.0
 10
170.064142
 20
198.687212
 30
0.0
 10
169.389278
 20
198.419278
 30
0.0
  0
SPLINE
  5
1aa
100
AcDbEntity
  8
Calque_1
 62
7
100
AcDbSpline
 70
8
 71
3
 72
8
 73
4
 74
0
 40
0
 40
0
 40
0
 40
0
 40
1
 40
1
 40
1
 40
1
 10
169.389278
 20
198.419278
 30
0.0
 10
169.041087
 20
198.281023
 30
0.0
 10
166.895492
 20
197.495528
 30
0.0
 10
166.787542
 20
197.409450
 30
0.0
  0
LWPOLYLINE
  5
1ab
100
AcDbEntity
  8
Calque_1
 62
7
100
AcDbPolyline
 90
2
 70
0
 10
175.959764
 20
202.687878
 30
0.0
 10
175.920078
 20
202.687878
 30
0.0
  0
SPLINE
  5
1ac
100
AcDbEntity
  8
Calque_1
 62
7
100
AcDbSpline
 70
8
 71
3
 72
8
 73
4
 74
0
 40
0
 40
0
 40
0
 40
0
 40
1
 40
1
 40
1
 40
1
 10
167.784139
 20
196.509867
 30
0.0
 10
168.244692
 20
196.548145
 30
0.0
 10
170.289920
 20
197.691673
 30
0.0
 10
170.632820
 20
197.691673
 30
0.0
  0
LWPOLYLINE
  5
1ad
100
AcDbEntity
  8
Calque_1
 62
7
100
AcDbPolyline
 90
3
 70
0
 10
166.787542
 20
197.409450
 30
0.0
 10
167.934070
 20
197.140459
 30
0.0
 10
167.784139
 20
196.509867
 30
0.0
  0
SPLINE
  5
1ae
100
AcDbEntity
  8
Calque_1
 62
7
100
AcDbSpline
 70
8
 71
3
 72
8
 73
4
 74
0
 40
0
 40
0
 40
0
 40
0
 40
1
 40
1
 40
1
 40
1
 10
173.075806
 20
197.581445
 30
0.0
 10
173.037178
 20
197.415640
 30
0.0
 10
172.889892
 20
196.539692
 30
0.0
 10
172.797995
 20
196.487834
 30
0.0
  0
SPLINE
  5
1af
100
AcDbEntity
  8
Calque_1
 62
7
100
AcDbSpline
 70
8
 71
3
 72
8
 73
4
 74
0
 40
0
 40
0
 40
0
 40
0
 40
1
 40
1
 40
1
 40
1
 10
172.797995
 20
196.487834
 30
0.0
 10
172.625309
 20
196.390115
 30
0.0
 10
172.528295
 20
196.480412
 30
0.0
 10
172.304106
 20
196.280576
 30
0.0
  0
SPLINE
  5
1b0
100
AcDbEntity
  8
Calque_1
 62
7
100
AcDbSpline
 70
8
 71
3
 72
8
 73
4
 74
0
 40
0
 40
0
 40
0
 40
0
 40
1
 40
1
 40
1
 40
1
 10
172.304106
 20
196.280576
 30
0.0
 10
172.267239
 20
196.247767
 30
0.0
 10
172.234431
 20
196.203848
 30
0.0
 10
172.202681
 20
196.157103
 30
0.0
  0
SPLINE
  5
1b1
100
AcDbEntity
  8
Calque_1
 62
7
100
AcDbSpline
 70
8
 71
3
 72
8
 73
4
 74
0
 40
0
 40
0
 40
0
 40
0
 40
1
 40
1
 40
1
 40
1
 10
172.202681
 20
196.157103
 30
0.0
 10
169.969315
 20
194.979427
 30
0.0
 10
167.643135
 20
194.265721
 30
0.0
 10
165.460217
 20
193.176131
 30
0.0
  0
SPLINE
  5
1b2
100
AcDbEntity
  8
Calque_1
 62
7
100
AcDbSpline
 70
8
 71
3
 72
8
 73
4
 74
0
 40
0
 40
0
 40
0
 40
0
 40
1
 40
1
 40
1
 40
1
 10
165.460217
 20
193.176131
 30
0.0
 10
163.658581
 20
192.307592
 30
0.0
 10
161.846432
 20
191.156162
 30
0.0
 10
159.881917
 20
190.340681
 30
0.0
  0
SPLINE
  5
1b3
100
AcDbEntity
  8
Calque_1
 62
7
100
AcDbSpline
 70
8
 71
3
 72
8
 73
4
 74
0
 40
0
 40
0
 40
0
 40
0
 40
1
 40
1
 40
1
 40
1
 10
159.881917
 20
190.340681
 30
0.0
 10
157.961042
 20
189.543296
 30
0.0
 10
148.808962
 20
184.908465
 30
0.0
 10
150.630320
 20
188.343076
 30
0.0
  0
SPLINE
  5
1b4
100
AcDbEntity
  8
Calque_1
 62
7
100
AcDbSpline
 70
8
 71
3
 72
8
 73
4
 74
0
 40
0
 40
0
 40
0
 40
0
 40
1
 40
1
 40
1
 40
1
 10
150.630320
 20
188.343076
 30
0.0
 10
151.321200
 20
189.645850
 30
0.0
 10
154.357945
 20
191.844361
 30
0.0
 10
157.311048
 20
195.460367
 30
0.0
  0
SPLINE
  5
1b5
100
AcDbEntity
  8
Calque_1
 62
7
100
AcDbSpline
 70
8
 71
3
 72
8
 73
4
 74
0
 40
0
 40
0
 40
0
 40
0
 40
1
 40
1
 40
1
 40
1
 10
157.311048
 20
195.460367
 30
0.0
 10
160.264187
 20
199.076376
 30
0.0
 10
159.205958
 20
200.111107
 30
0.0
 10
157.072923
 20
202.070531
 30
0.0
  0
SPLINE
  5
1b6
100
AcDbEntity
  8
Calque_1
 62
7
100
AcDbSpline
 70
8
 71
3
 72
8
 73
4
 74
0
 40
0
 40
0
 40
0
 40
0
 40
1
 40
1
 40
1
 40
1
 10
157.072923
 20
202.070531
 30
0.0
 10
155.031327
 20
203.475682
 30
0.0
 10
148.750260
 20
194.741547
 30
0.0
 10
144.994695
 20
190.609673
 30
0.0
  0
SPLINE
  5
1b7
100
AcDbEntity
  8
Calque_1
 62
7
100
AcDbSpline
 70
8
 71
3
 72
8
 73
4
 74
0
 40
0
 40
0
 40
0
 40
0
 40
1
 40
1
 40
1
 40
1
 10
144.994695
 20
190.609673
 30
0.0
 10
141.482191
 20
186.745238
 30
0.0
 10
140.247751
 20
185.891200
 30
0.0
 10
139.098895
 20
185.137206
 30
0.0
  0
SPLINE
  5
1b8
100
AcDbEntity
  8
Calque_1
 62
7
100
AcDbSpline
 70
8
 71
3
 72
8
 73
4
 74
0
 40
0
 40
0
 40
0
 40
0
 40
1
 40
1
 40
1
 40
1
 10
139.098895
 20
185.137206
 30
0.0
 10
136.354495
 20
182.454896
 30
0.0
 10
133.153531
 20
181.666578
 30
0.0
 10
129.741464
 20
179.999881
 30
0.0
  0
SPLINE
  5
1b9
100
AcDbEntity
  8
Calque_1
 62
7
100
AcDbSpline
 70
8
 71
3
 72
8
 73
4
 74
0
 40
0
 40
0
 40
0
 40
0
 40
1
 40
1
 40
1
 40
1
 10
129.741464
 20
179.999881
 30
0.0
 10
127.158778
 20
178.738348
 30
0.0
 10
124.514460
 20
177.382163
 30
0.0
 10
122.156739
 20
179.638284
 30
0.0
  0
SPLINE
  5
1ba
100
AcDbEntity
  8
Calque_1
 62
7
100
AcDbSpline
 70
8
 71
3
 72
8
 73
4
 74
0
 40
0
 40
0
 40
0
 40
0
 40
1
 40
1
 40
1
 40
1
 10
122.156739
 20
179.638284
 30
0.0
 10
120.609315
 20
182.318512
 30
0.0
 10
122.153212
 20
184.766578
 30
0.0
 10
123.872123
 20
187.549326
 30
0.0
  0
SPLINE
  5
1bb
100
AcDbEntity
  8
Calque_1
 62
7
100
AcDbSpline
 70
8
 71
3
 72
8
 73
4
 74
0
 40
0
 40
0
 40
0
 40
0
 40
1
 40
1
 40
1
 40
1
 10
123.872123
 20
187.549326
 30
0.0
 10
125.843798
 20
190.753431
 30
0.0
 10
128.140028
 20
193.030081
 30
0.0
 10
131.540631
 20
194.269742
 30
0.0
  0
SPLINE
  5
1bc
100
AcDbEntity
  8
Calque_1
 62
7
100
AcDbSpline
 70
8
 71
3
 72
8
 73
4
 74
0
 40
0
 40
0
 40
0
 40
0
 40
1
 40
1
 40
1
 40
1
 10
131.540631
 20
194.269742
 30
0.0
 10
134.533245
 20
195.360709
 30
0.0
 10
138.880700
 20
195.529865
 30
0.0
 10
141.965214
 20
195.799917
 30
0.0
  0
SPLINE
  5
1bd
100
AcDbEntity
  8
Calque_1
 62
7
100
AcDbSpline
 70
8
 71
3
 72
8
 73
4
 74
0
 40
0
 40
0
 40
0
 40
0
 40
1
 40
1
 40
1
 40
1
 10
141.965214
 20
195.799917
 30
0.0
 10
143.678128
 20
195.723365
 30
0.0
 10
143.588875
 20
198.517012
 30
0.0
 10
143.989278
 20
200.077348
 30
0.0
  0
SPLINE
  5
1be
100
AcDbEntity
  8
Calque_1
 62
7
100
AcDbSpline
 70
8
 71
3
 72
8
 73
4
 74
0
 40
0
 40
0
 40
0
 40
0
 40
1
 40
1
 40
1
 40
1
 10
143.989278
 20
200.077348
 30
0.0
 10
144.481931
 20
201.998917
 30
0.0
 10
142.698287
 20
201.241503
 30
0.0
 10
141.286117
 20
201.448762
 30
0.0
  0
SPLINE
  5
1bf
100
AcDbEntity
  8
Calque_1
 62
7
100
AcDbSpline
 70
8
 71
3
 72
8
 73
4
 74
0
 40
0
 40
0
 40
0
 40
0
 40
1
 40
1
 40
1
 40
1
 10
141.286117
 20
201.448762
 30
0.0
 10
139.712023
 20
201.680006
 30
0.0
 10
138.061375
 20
201.275723
 30
0.0
 10
136.505978
 20
201.528137
 30
0.0
  0
SPLINE
  5
1c0
100
AcDbEntity
  8
Calque_1
 62
7
100
AcDbSpline
 70
8
 71
3
 72
8
 73
4
 74
0
 40
0
 40
0
 40
0
 40
0
 40
1
 40
1
 40
1
 40
1
 10
136.505978
 20
201.528137
 30
0.0
 10
133.973739
 20
201.939298
 30
0.0
 10
137.960834
 20
205.571464
 30
0.0
 10
138.543270
 20
205.858447
 30
0.0
  0
SPLINE
  5
1c1
100
AcDbEntity
  8
Calque_1
 62
7
100
AcDbSpline
 70
8
 71
3
 72
8
 73
4
 74
0
 40
0
 40
0
 40
0
 40
0
 40
1
 40
1
 40
1
 40
1
 10
138.543270
 20
205.858447
 30
0.0
 10
141.950821
 20
207.080893
 30
0.0
 10
142.548920
 20
206.872189
 30
0.0
 10
145.761987
 20
207.243100
 30
0.0
  0
SPLINE
  5
1c2
100
AcDbEntity
  8
Calque_1
 62
7
100
AcDbSpline
 70
8
 71
3
 72
8
 73
4
 74
0
 40
0
 40
0
 40
0
 40
0
 40
1
 40
1
 40
1
 40
1
 10
145.761987
 20
207.243100
 30
0.0
 10
148.280078
 20
207.533826
 30
0.0
 10
156.267074
 20
207.970598
 30
0.0
 10
157.641778
 20
209.201017
 30
0.0
  0
SPLINE
  5
1c3
100
AcDbEntity
  8
Calque_1
 62
7
100
AcDbSpline
 70
8
 71
3
 72
8
 73
4
 74
0
 40
0
 40
0
 40
0
 40
0
 40
1
 40
1
 40
1
 40
1
 10
157.641778
 20
209.201017
 30
0.0
 10
158.162055
 20
211.541627
 30
0.0
 10
157.717343
 20
214.451798
 30
0.0
 10
155.789695
 20
214.364803
 30
0.0
  0
SPLINE
  5
1c4
100
AcDbEntity
  8
Calque_1
 62
7
100
AcDbSpline
 70
8
 71
3
 72
8
 73
4
 74
0
 40
0
 40
0
 40
0
 40
0
 40
1
 40
1
 40
1
 40
1
 10
155.789695
 20
214.364803
 30
0.0
 10
153.049670
 20
214.241189
 30
0.0
 10
148.081323
 20
211.832634
 30
0.0
 10
145.351881
 20
213.795950
 30
0.0
  0
SPLINE
  5
1c5
100
AcDbEntity
  8
Calque_1
 62
7
100
AcDbSpline
 70
8
 71
3
 72
8
 73
4
 74
0
 40
0
 40
0
 40
0
 40
0
 40
1
 40
1
 40
1
 40
1
 10
145.351881
 20
213.795950
 30
0.0
 10
141.457638
 20
216.597147
 30
0.0
 10
148.756435
 20
225.914677
 30
0.0
 10
144.849173
 20
226.601783
 30
0.0
  0
SPLINE
  5
1c6
100
AcDbEntity
  8
Calque_1
 62
7
100
AcDbSpline
 70
8
 71
3
 72
8
 73
4
 74
0
 40
0
 40
0
 40
0
 40
0
 40
1
 40
1
 40
1
 40
1
 10
144.849173
 20
226.601783
 30
0.0
 10
143.024606
 20
226.922670
 30
0.0
 10
140.682619
 20
228.027429
 30
0.0
 10
140.276289
 20
223.854525
 30
0.0
  0
SPLINE
  5
1c7
100
AcDbEntity
  8
Calque_1
 62
7
100
AcDbSpline
 70
8
 71
3
 72
8
 73
4
 74
0
 40
0
 40
0
 40
0
 40
0
 40
1
 40
1
 40
1
 40
1
 10
140.276289
 20
223.854525
 30
0.0
 10
137.528117
 20
215.438272
 30
0.0
 10
133.386576
 20
206.922179
 30
0.0
 10
126.513548
 20
200.804942
 30
0.0
  0
SPLINE
  5
1c8
100
AcDbEntity
  8
Calque_1
 62
7
100
AcDbSpline
 70
8
 71
3
 72
8
 73
4
 74
0
 40
0
 40
0
 40
0
 40
0
 40
1
 40
1
 40
1
 40
1
 10
126.513548
 20
200.804942
 30
0.0
 10
125.645184
 20
200.112978
 30
0.0
 10
124.556334
 20
198.937876
 30
0.0
 10
123.470837
 20
198.754431
 30
0.0
  0
SPLINE
  5
1c9
100
AcDbEntity
  8
Calque_1
 62
7
100
AcDbSpline
 70
8
 71
3
 72
8
 73
4
 74
0
 40
0
 40
0
 40
0
 40
0
 40
1
 40
1
 40
1
 40
1
 10
123.470837
 20
198.754431
 30
0.0
 10
119.411742
 20
198.047606
 30
0.0
 10
127.816460
 20
219.207595
 30
0.0
 10
128.281845
 20
220.908831
 30
0.0
  0
SPLINE
  5
1ca
100
AcDbEntity
  8
Calque_1
 62
7
100
AcDbSpline
 70
8
 71
3
 72
8
 73
4
 74
0
 40
0
 40
0
 40
0
 40
0
 40
1
 40
1
 40
1
 40
1
 10
128.281845
 20
220.908831
 30
0.0
 10
132.125288
 20
234.958101
 30
0.0
 10
133.480519
 20
235.651309
 30
0.0
 10
137.992053
 20
241.065672
 30
0.0
  0
SPLINE
  5
1cb
100
AcDbEntity
  8
Calque_1
 62
7
100
AcDbSpline
 70
8
 71
3
 72
8
 73
4
 74
0
 40
0
 40
0
 40
0
 40
0
 40
1
 40
1
 40
1
 40
1
 10
137.992053
 20
241.065672
 30
0.0
 10
139.480493
 20
243.148086
 30
0.0
 10
142.591113
 20
244.799896
 30
0.0
 10
141.797645
 20
246.595464
 30
0.0
  0
SPLINE
  5
1cc
100
AcDbEntity
  8
Calque_1
 62
7
100
AcDbSpline
 70
8
 71
3
 72
8
 73
4
 74
0
 40
0
 40
0
 40
0
 40
0
 40
1
 40
1
 40
1
 40
1
 10
141.797645
 20
246.595464
 30
0.0
 10
140.928894
 20
248.561427
 30
0.0
 10
138.246654
 20
251.171946
 30
0.0
 10
136.558895
 20
249.228069
 30
0.0
  0
SPLINE
  5
1cd
100
AcDbEntity
  8
Calque_1
 62
7
100
AcDbSpline
 70
8
 71
3
 72
8
 73
4
 74
0
 40
0
 40
0
 40
0
 40
0
 40
1
 40
1
 40
1
 40
1
 10
136.558895
 20
249.228069
 30
0.0
 10
134.843370
 20
247.252198
 30
0.0
 10
133.676875
 20
245.547291
 30
0.0
 10
132.400525
 20
243.345500
 30
0.0
  0
SPLINE
  5
1ce
100
AcDbEntity
  8
Calque_1
 62
7
100
AcDbSpline
 70
8
 71
3
 72
8
 73
4
 74
0
 40
0
 40
0
 40
0
 40
0
 40
1
 40
1
 40
1
 40
1
 10
132.400525
 20
243.345500
 30
0.0
 10
131.626427
 20
242.010129
 30
0.0
 10
129.609630
 20
239.325386
 30
0.0
 10
128.978581
 20
239.875047
 30
0.0
  0
SPLINE
  5
1cf
100
AcDbEntity
  8
Calque_1
 62
7
100
AcDbSpline
 70
8
 71
3
 72
8
 73
4
 74
0
 40
0
 40
0
 40
0
 40
0
 40
1
 40
1
 40
1
 40
1
 10
128.978581
 20
239.875047
 30
0.0
 10
127.533321
 20
241.134007
 30
0.0
 10
123.198740
 20
257.880969
 30
0.0
 10
119.330109
 20
260.905014
 30
0.0
  0
SPLINE
  5
1d0
100
AcDbEntity
  8
Calque_1
 62
7
100
AcDbSpline
 70
8
 71
3
 72
8
 73
4
 74
0
 40
0
 40
0
 40
0
 40
0
 40
1
 40
1
 40
1
 40
1
 10
119.330109
 20
260.905014
 30
0.0
 10
119.251262
 20
260.934647
 30
0.0
 10
119.165009
 20
260.956167
 30
0.0
 10
119.078753
 20
260.975569
 30
0.0
  0
SPLINE
  5
1d1
100
AcDbEntity
  8
Calque_1
 62
7
100
AcDbSpline
 70
8
 71
3
 72
8
 73
4
 74
0
 40
0
 40
0
 40
0
 40
0
 40
1
 40
1
 40
1
 40
1
 10
119.078753
 20
260.975569
 30
0.0
 10
119.037303
 20
261.188297
 30
0.0
 10
119.015784
 20
261.204172
 30
0.0
 10
118.703928
 20
261.420953
 30
0.0
  0
SPLINE
  5
1d2
100
AcDbEntity
  8
Calque_1
 62
7
100
AcDbSpline
 70
8
 71
3
 72
8
 73
4
 74
0
 40
0
 40
0
 40
0
 40
0
 40
1
 40
1
 40
1
 40
1
 10
118.703928
 20
261.420953
 30
0.0
 10
119.934945
 20
261.707939
 30
0.0
 10
119.904253
 20
262.725350
 30
0.0
 10
120.304656
 20
263.815433
 30
0.0
  0
SPLINE
  5
1d3
100
AcDbEntity
  8
Calque_1
 62
7
100
AcDbSpline
 70
8
 71
3
 72
8
 73
4
 74
0
 40
0
 40
0
 40
0
 40
0
 40
1
 40
1
 40
1
 40
1
 10
120.304656
 20
263.815433
 30
0.0
 10
120.383325
 20
264.029217
 30
0.0
 10
120.474342
 20
264.316906
 30
0.0
 10
120.578059
 20
264.538628
 30
0.0
  0
SPLINE
  5
1d4
100
AcDbEntity
  8
Calque_1
 62
7
100
AcDbSpline
 70
8
 71
3
 72
8
 73
4
 74
0
 40
0
 40
0
 40
0
 40
0
 40
1
 40
1
 40
1
 40
1
 10
120.578059
 20
264.538628
 30
0.0
 10
120.767853
 20
264.944322
 30
0.0
 10
120.605575
 20
264.897403
 30
0.0
 10
121.085178
 20
265.032517
 30
0.0
  0
SPLINE
  5
1d5
100
AcDbEntity
  8
Calque_1
 62
7
100
AcDbSpline
 70
8
 71
3
 72
8
 73
4
 74
0
 40
0
 40
0
 40
0
 40
0
 40
1
 40
1
 40
1
 40
1
 10
121.085178
 20
265.032517
 30
0.0
 10
121.516448
 20
265.154047
 30
0.0
 10
122.234175
 20
265.416161
 30
0.0
 10
122.659448
 20
265.451439
 30
0.0
  0
SPLINE
  5
1d6
100
AcDbEntity
  8
Calque_1
 62
7
100
AcDbSpline
 70
8
 71
3
 72
8
 73
4
 74
0
 40
0
 40
0
 40
0
 40
0
 40
1
 40
1
 40
1
 40
1
 10
122.659448
 20
265.451439
 30
0.0
 10
122.556262
 20
265.523231
 30
0.0
 10
121.317481
 20
265.723961
 30
0.0
 10
121.058720
 20
265.773350
 30
0.0
  0
SPLINE
  5
1d7
100
AcDbEntity
  8
Calque_1
 62
7
100
AcDbSpline
 70
8
 71
3
 72
8
 73
4
 74
0
 40
0
 40
0
 40
0
 40
0
 40
1
 40
1
 40
1
 40
1
 10
121.058720
 20
265.773350
 30
0.0
 10
120.487042
 20
265.882533
 30
0.0
 10
120.815303
 20
265.913931
 30
0.0
 10
120.507503
 20
266.183453
 30
0.0
  0
SPLINE
  5
1d8
100
AcDbEntity
  8
Calque_1
 62
7
100
AcDbSpline
 70
8
 71
3
 72
8
 73
4
 74
0
 40
0
 40
0
 40
0
 40
0
 40
1
 40
1
 40
1
 40
1
 10
120.507503
 20
266.183453
 30
0.0
 10
120.357220
 20
266.315025
 30
0.0
 10
120.020848
 20
266.412744
 30
0.0
 10
119.740212
 20
266.412744
 30
0.0
  0
LWPOLYLINE
  5
1d9
100
AcDbEntity
  8
Calque_1
 62
7
100
AcDbPolyline
 90
3
 70
0
 10
170.632820
 20
197.691673
 30
0.0
 10
170.668098
 20
197.682867
 30
0.0
 10
173.075806
 20
197.581445
 30
0.0
  0
SPLINE
  5
1da
100
AcDbEntity
  8
Calque_1
 62
7
100
AcDbSpline
 70
8
 71
3
 72
8
 73
4
 74
0
 40
0
 40
0
 40
0
 40
0
 40
1
 40
1
 40
1
 40
1
 10
70.730556
 20
187.677181
 30
0.0
 10
71.364108
 20
187.714962
 30
0.0
 10
70.794197
 20
186.124781
 30
0.0
 10
70.382186
 20
186.266067
 30
0.0
  0
SPLINE
  5
1db
100
AcDbEntity
  8
Calque_1
 62
7
100
AcDbSpline
 70
8
 71
3
 72
8
 73
4
 74
0
 40
0
 40
0
 40
0
 40
0
 40
1
 40
1
 40
1
 40
1
 10
70.382186
 20
186.266067
 30
0.0
 10
69.884346
 20
186.445950
 30
0.0
 10
70.074846
 20
187.417889
 30
0.0
 10
70.496839
 20
187.611034
 30
0.0
  0
SPLINE
  5
1dc
100
AcDbEntity
  8
Calque_1
 62
7
100
AcDbSpline
 70
8
 71
3
 72
8
 73
4
 74
0
 40
0
 40
0
 40
0
 40
0
 40
1
 40
1
 40
1
 40
1
 10
70.496839
 20
187.611034
 30
0.0
 10
70.589690
 20
187.653508
 30
0.0
 10
70.665044
 20
187.673264
 30
0.0
 10
70.730556
 20
187.677181
 30
0.0
  0
LWPOLYLINE
  5
1dd
100
AcDbEntity
  8
Calque_1
 62
7
100
AcDbPolyline
 90
3
 70
0
 10
119.740212
 20
266.412744
 30
0.0
 10
119.704934
 20
266.412744
 30
0.0
 10
119.704934
 20
266.412730
 30
0.0
  0
SPLINE
  5
1de
100
AcDbEntity
  8
Calque_1
 62
7
100
AcDbSpline
 70
8
 71
3
 72
8
 73
4
 74
0
 40
0
 40
0
 40
0
 40
0
 40
1
 40
1
 40
1
 40
1
 10
74.355348
 20
187.364089
 30
0.0
 10
74.456279
 20
187.360561
 30
0.0
 10
74.563769
 20
187.343628
 30
0.0
 10
74.672848
 20
187.315584
 30
0.0
  0
SPLINE
  5
1df
100
AcDbEntity
  8
Calque_1
 62
7
100
AcDbSpline
 70
8
 71
3
 72
8
 73
4
 74
0
 40
0
 40
0
 40
0
 40
0
 40
1
 40
1
 40
1
 40
1
 10
74.672848
 20
187.315584
 30
0.0
 10
75.426804
 20
186.933029
 30
0.0
 10
76.156490
 20
186.728525
 30
0.0
 10
76.921806
 20
186.715859
 30
0.0
  0
SPLINE
  5
1e0
100
AcDbEntity
  8
Calque_1
 62
7
100
AcDbSpline
 70
8
 71
3
 72
8
 73
4
 74
0
 40
0
 40
0
 40
0
 40
0
 40
1
 40
1
 40
1
 40
1
 10
76.921806
 20
186.715859
 30
0.0
 10
78.078846
 20
186.516646
 30
0.0
 10
77.140810
 20
185.993229
 30
0.0
 10
76.480834
 20
185.869192
 30
0.0
  0
SPLINE
  5
1e1
100
AcDbEntity
  8
Calque_1
 62
7
100
AcDbSpline
 70
8
 71
3
 72
8
 73
4
 74
0
 40
0
 40
0
 40
0
 40
0
 40
1
 40
1
 40
1
 40
1
 10
76.480834
 20
185.869192
 30
0.0
 10
75.987650
 20
185.555115
 30
0.0
 10
75.043865
 20
185.620413
 30
0.0
 10
75.581250
 20
184.779992
 30
0.0
  0
SPLINE
  5
1e2
100
AcDbEntity
  8
Calque_1
 62
7
100
AcDbSpline
 70
8
 71
3
 72
8
 73
4
 74
0
 40
0
 40
0
 40
0
 40
0
 40
1
 40
1
 40
1
 40
1
 10
75.581250
 20
184.779992
 30
0.0
 10
74.643779
 20
184.905685
 30
0.0
 10
72.923600
 20
185.257089
 30
0.0
 10
72.027014
 20
185.489956
 30
0.0
  0
SPLINE
  5
1e3
100
AcDbEntity
  8
Calque_1
 62
7
100
AcDbSpline
 70
8
 71
3
 72
8
 73
4
 74
0
 40
0
 40
0
 40
0
 40
0
 40
1
 40
1
 40
1
 40
1
 10
72.027014
 20
185.489956
 30
0.0
 10
72.272090
 20
185.853071
 30
0.0
 10
72.527431
 20
186.210469
 30
0.0
 10
72.833995
 20
186.530650
 30
0.0
  0
SPLINE
  5
1e4
100
AcDbEntity
  8
Calque_1
 62
7
100
AcDbSpline
 70
8
 71
3
 72
8
 73
4
 74
0
 40
0
 40
0
 40
0
 40
0
 40
1
 40
1
 40
1
 40
1
 10
72.833995
 20
186.530650
 30
0.0
 10
73.245932
 20
186.930065
 30
0.0
 10
73.690680
 20
187.329695
 30
0.0
 10
74.258334
 20
187.359681
 30
0.0
  0
SPLINE
  5
1e5
100
AcDbEntity
  8
Calque_1
 62
7
100
AcDbSpline
 70
8
 71
3
 72
8
 73
4
 74
0
 40
0
 40
0
 40
0
 40
0
 40
1
 40
1
 40
1
 40
1
 10
74.258334
 20
187.359681
 30
0.0
 10
74.291142
 20
187.359681
 30
0.0
 10
74.321729
 20
187.364987
 30
0.0
 10
74.355348
 20
187.364281
 30
0.0
  0
LWPOLYLINE
  5
1e6
100
AcDbEntity
  8
Calque_1
 62
7
100
AcDbPolyline
 90
2
 70
0
 10
70.730556
 20
187.677181
 30
0.0
 10
70.730556
 20
187.677181
 30
0.0
  0
SPLINE
  5
1e7
100
AcDbEntity
  8
Calque_1
 62
7
100
AcDbSpline
 70
8
 71
3
 72
8
 73
4
 74
0
 40
0
 40
0
 40
0
 40
0
 40
1
 40
1
 40
1
 40
1
 10
81.278611
 20
186.186692
 30
0.0
 10
81.992210
 20
186.174359
 30
0.0
 10
82.596061
 20
186.053872
 30
0.0
 10
83.024861
 20
185.661936
 30
0.0
  0
SPLINE
  5
1e8
100
AcDbEntity
  8
Calque_1
 62
7
100
AcDbSpline
 70
8
 71
3
 72
8
 73
4
 74
0
 40
0
 40
0
 40
0
 40
0
 40
1
 40
1
 40
1
 40
1
 10
83.024861
 20
185.661936
 30
0.0
 10
83.620421
 20
185.295364
 30
0.0
 10
84.923195
 20
185.677120
 30
0.0
 10
84.427153
 20
184.466900
 30
0.0
  0
SPLINE
  5
1e9
100
AcDbEntity
  8
Calque_1
 62
7
100
AcDbSpline
 70
8
 71
3
 72
8
 73
4
 74
0
 40
0
 40
0
 40
0
 40
0
 40
1
 40
1
 40
1
 40
1
 10
84.427153
 20
184.466900
 30
0.0
 10
84.268581
 20
184.371650
 30
0.0
 10
84.143731
 20
184.219781
 30
0.0
 10
84.069967
 20
184.047978
 30
0.0
  0
SPLINE
  5
1ea
100
AcDbEntity
  8
Calque_1
 62
7
100
AcDbSpline
 70
8
 71
3
 72
8
 73
4
 74
0
 40
0
 40
0
 40
0
 40
0
 40
1
 40
1
 40
1
 40
1
 10
84.069967
 20
184.047978
 30
0.0
 10
81.987026
 20
184.205176
 30
0.0
 10
77.454466
 20
184.429190
 30
0.0
 10
77.830209
 20
184.621242
 30
0.0
  0
SPLINE
  5
1eb
100
AcDbEntity
  8
Calque_1
 62
7
100
AcDbSpline
 70
8
 71
3
 72
8
 73
4
 74
0
 40
0
 40
0
 40
0
 40
0
 40
1
 40
1
 40
1
 40
1
 10
77.830209
 20
184.621242
 30
0.0
 10
78.130916
 20
184.774946
 30
0.0
 10
78.313057
 20
185.367579
 30
0.0
 10
78.716564
 20
185.362075
 30
0.0
  0
SPLINE
  5
1ec
100
AcDbEntity
  8
Calque_1
 62
7
100
AcDbSpline
 70
8
 71
3
 72
8
 73
4
 74
0
 40
0
 40
0
 40
0
 40
0
 40
1
 40
1
 40
1
 40
1
 10
78.716564
 20
185.362075
 30
0.0
 10
79.469392
 20
185.461310
 30
0.0
 10
79.555221
 20
185.926096
 30
0.0
 10
80.101217
 20
185.970617
 30
0.0
  0
SPLINE
  5
1ed
100
AcDbEntity
  8
Calque_1
 62
7
100
AcDbSpline
 70
8
 71
3
 72
8
 73
4
 74
0
 40
0
 40
0
 40
0
 40
0
 40
1
 40
1
 40
1
 40
1
 10
80.101217
 20
185.970617
 30
0.0
 10
80.202357
 20
185.978745
 30
0.0
 10
80.418469
 20
186.232130
 30
0.0
 10
80.528959
 20
186.169053
 30
0.0
  0
SPLINE
  5
1ee
100
AcDbEntity
  8
Calque_1
 62
7
100
AcDbSpline
 70
8
 71
3
 72
8
 73
4
 74
0
 40
0
 40
0
 40
0
 40
0
 40
1
 40
1
 40
1
 40
1
 10
80.528959
 20
186.169053
 30
0.0
 10
80.788428
 20
186.183164
 30
0.0
 10
81.040769
 20
186.190925
 30
0.0
 10
81.278611
 20
186.186692
 30
0.0
  0
LWPOLYLINE
  5
1ef
100
AcDbEntity
  8
Calque_1
 62
7
100
AcDbPolyline
 90
2
 70
0
 10
74.355348
 20
187.364281
 30
0.0
 10
74.355348
 20
187.364089
 30
0.0
  0
LWPOLYLINE
  5
1f0
100
AcDbEntity
  8
Calque_1
 62
7
100
AcDbPolyline
 90
2
 70
0
 10
81.278611
 20
186.186692
 30
0.0
 10
81.278611
 20
186.186692
 30
0.0
  0
ENDSEC
  0
SECTION
  2
OBJECTS
  0
DICTIONARY
  5
C
330
0
100
AcDbDictionary
  3
ACAD_GROUP
350
D
  3
ACAD_MLINESTYLE
350
17
  0
DICTIONARY
  5
D
330
C
100
AcDbDictionary
  0
DICTIONARY
  5
1A
330
C
100
AcDbDictionary
  0
DICTIONARY
  5
17
330
C
100
AcDbDictionary
  3
STANDARD
350
18
  0
DICTIONARY
  5
19
330
C
100
AcDbDictionary
  0
ENDSEC
  0
EOF
