  0
SECTION
  2
HEADER
  9
$ACADVER
  1
AC1014
  9
$ACADMAINTVER
 70
     9
  9
$DWGCODEPAGE
  3
ANSI_1252
  9
$INSBASE
 10
0.0
 20
0.0
 30
0.0
  9
$EXTMIN
 10
1.000000000000000E+20
 20
1.000000000000000E+20
 30
1.000000000000000E+20
  9
$EXTMAX
 10
-1.000000000000000E+20
 20
-1.000000000000000E+20
 30
-1.000000000000000E+20
  9
$LIMMIN
 10
0.0
 20
0.0
  9
$LIMMAX
 10
12.0
 20
9.0
  9
$ORTHOMODE
 70
     0
  9
$REGENMODE
 70
     1
  9
$FILLMODE
 70
     1
  9
$QTEXTMODE
 70
     0
  9
$MIRRTEXT
 70
     1
  9
$DRAGMODE
 70
     2
  9
$LTSCALE
 40
1.0
  9
$OSMODE
 70
    37
  9
$ATTMODE
 70
     1
  9
$TEXTSIZE
 40
0.2
  9
$TRACEWID
 40
0.05
  9
$TEXTSTYLE
  7
STANDARD
  9
$CLAYER
  8
0
  9
$CELTYPE
  6
BYLAYER
  9
$CECOLOR
 62
   256
  9
$CELTSCALE
 40
1.0
  9
$DELOBJ
 70
     1
  9
$DISPSILH
 70
     0
  9
$DIMSCALE
 40
1.0
  9
$DIMASZ
 40
0.18
  9
$DIMEXO
 40
0.0625
  9
$DIMDLI
 40
0.38
  9
$DIMRND
 40
0.0
  9
$DIMDLE
 40
0.0
  9
$DIMEXE
 40
0.18
  9
$DIMTP
 40
0.0
  9
$DIMTM
 40
0.0
  9
$DIMTXT
 40
0.18
  9
$DIMCEN
 40
0.09
  9
$DIMTSZ
 40
0.0
  9
$DIMTOL
 70
     0
  9
$DIMLIM
 70
     0
  9
$DIMTIH
 70
     1
  9
$DIMTOH
 70
     1
  9
$DIMSE1
 70
     0
  9
$DIMSE2
 70
     0
  9
$DIMTAD
 70
     0
  9
$DIMZIN
 70
     0
  9
$DIMBLK
  1

  9
$DIMASO
 70
     1
  9
$DIMSHO
 70
     1
  9
$DIMPOST
  1

  9
$DIMAPOST
  1

  9
$DIMALT
 70
     0
  9
$DIMALTD
 70
     2
  9
$DIMALTF
 40
25.4
  9
$DIMLFAC
 40
1.0
  9
$DIMTOFL
 70
     0
  9
$DIMTVP
 40
0.0
  9
$DIMTIX
 70
     0
  9
$DIMSOXD
 70
     0
  9
$DIMSAH
 70
     0
  9
$DIMBLK1
  1

  9
$DIMBLK2
  1

  9
$DIMSTYLE
  2
STANDARD
  9
$DIMCLRD
 70
     0
  9
$DIMCLRE
 70
     0
  9
$DIMCLRT
 70
     0
  9
$DIMTFAC
 40
1.0
  9
$DIMGAP
 40
0.09
  9
$DIMJUST
 70
     0
  9
$DIMSD1
 70
     0
  9
$DIMSD2
 70
     0
  9
$DIMTOLJ
 70
     1
  9
$DIMTZIN
 70
     0
  9
$DIMALTZ
 70
     0
  9
$DIMALTTZ
 70
     0
  9
$DIMFIT
 70
     3
  9
$DIMUPT
 70
     0
  9
$DIMUNIT
 70
     2
  9
$DIMDEC
 70
     4
  9
$DIMTDEC
 70
     4
  9
$DIMALTU
 70
     2
  9
$DIMALTTD
 70
     2
  9
$DIMTXSTY
  7
STANDARD
  9
$DIMAUNIT
 70
     0
  9
$LUNITS
 70
     2
  9
$LUPREC
 70
     4
  9
$SKETCHINC
 40
0.1
  9
$FILLETRAD
 40
0.5
  9
$AUNITS
 70
     0
  9
$AUPREC
 70
     0
  9
$MENU
  1
.
  9
$ELEVATION
 40
0.0
  9
$PELEVATION
 40
0.0
  9
$THICKNESS
 40
0.0
  9
$LIMCHECK
 70
     0
  9
$CHAMFERA
 40
0.5
  9
$CHAMFERB
 40
0.5
  9
$CHAMFERC
 40
1.0
  9
$CHAMFERD
 40
0.0
  9
$SKPOLY
 70
     0
  9
$TDCREATE
 40
2456791.627958079
  9
$TDUPDATE
 40
2456791.627958091
  9
$TDINDWG
 40
0.0000000116
  9
$TDUSRTIMER
 40
0.0000000116
  9
$USRTIMER
 70
     1
  9
$ANGBASE
 50
0.0
  9
$ANGDIR
 70
     0
  9
$PDMODE
 70
     0
  9
$PDSIZE
 40
0.0
  9
$PLINEWID
 40
0.0
  9
$COORDS
 70
     1
  9
$SPLFRAME
 70
     0
  9
$SPLINETYPE
 70
     6
  9
$SPLINESEGS
 70
     8
  9
$ATTDIA
 70
     0
  9
$ATTREQ
 70
     1
  9
$HANDLING
 70
     1
  9
$HANDSEED
  5
22F
  9
$SURFTAB1
 70
     6
  9
$SURFTAB2
 70
     6
  9
$SURFTYPE
 70
     6
  9
$SURFU
 70
     6
  9
$SURFV
 70
     6
  9
$UCSNAME
  2

  9
$UCSORG
 10
0.0
 20
0.0
 30
0.0
  9
$UCSXDIR
 10
1.0
 20
0.0
 30
0.0
  9
$UCSYDIR
 10
0.0
 20
1.0
 30
0.0
  9
$PUCSNAME
  2

  9
$PUCSORG
 10
0.0
 20
0.0
 30
0.0
  9
$PUCSXDIR
 10
1.0
 20
0.0
 30
0.0
  9
$PUCSYDIR
 10
0.0
 20
1.0
 30
0.0
  9
$USERI1
 70
     0
  9
$USERI2
 70
     0
  9
$USERI3
 70
     0
  9
$USERI4
 70
     0
  9
$USERI5
 70
     0
  9
$USERR1
 40
0.0
  9
$USERR2
 40
0.0
  9
$USERR3
 40
0.0
  9
$USERR4
 40
0.0
  9
$USERR5
 40
0.0
  9
$WORLDVIEW
 70
     1
  9
$SHADEDGE
 70
     3
  9
$SHADEDIF
 70
    70
  9
$TILEMODE
 70
     1
  9
$MAXACTVP
 70
    64
  9
$PINSBASE
 10
0.0
 20
0.0
 30
0.0
  9
$PLIMCHECK
 70
     0
  9
$PEXTMIN
 10
1.000000000000000E+20
 20
1.000000000000000E+20
 30
1.000000000000000E+20
  9
$PEXTMAX
 10
-1.000000000000000E+20
 20
-1.000000000000000E+20
 30
-1.000000000000000E+20
  9
$PLIMMIN
 10
0.0
 20
0.0
  9
$PLIMMAX
 10
12.0
 20
9.0
  9
$UNITMODE
 70
     0
  9
$VISRETAIN
 70
     1
  9
$PLINEGEN
 70
     0
  9
$PSLTSCALE
 70
     1
  9
$TREEDEPTH
 70
  3020
  9
$PICKSTYLE
 70
     1
  9
$CMLSTYLE
  2
STANDARD
  9
$CMLJUST
 70
     0
  9
$CMLSCALE
 40
1.0
  9
$PROXYGRAPHICS
 70
     1
  9
$MEASUREMENT
 70
     0
  0
ENDSEC
  0
SECTION
  2
CLASSES
  0
CLASS
  1
ACDBDICTIONARYWDFLT
  2
AcDbDictionaryWithDefault
  3
ObjectDBX Classes
 90
        0
280
     0
281
     0
  0
CLASS
  1
VISUALSTYLE
  2
AcDbVisualStyle
  3
ObjectDBX Classes
 90
     4095
280
     0
281
     0
  0
CLASS
  1
MATERIAL
  2
AcDbMaterial
  3
ObjectDBX Classes
 90
     1153
280
     0
281
     0
  0
CLASS
  1
DICTIONARYVAR
  2
AcDbDictionaryVar
  3
ObjectDBX Classes
 90
        0
280
     0
281
     0
  0
CLASS
  1
XRECORD
  2
AcDbXrecord
  3
AutoCAD 2000
 90
        0
280
     0
281
     0
  0
CLASS
  1
LWPOLYLINE
  2
AcDbPolyline
  3
AutoCAD 2000
 90
        0
280
     0
281
     1
  0
CLASS
  1
HATCH
  2
AcDbHatch
  3
AutoCAD 2000
 90
        0
280
     0
281
     1
  0
CLASS
  1
ACDBPLACEHOLDER
  2
AcDbPlaceHolder
  3
ObjectDBX Classes
 90
        0
280
     0
281
     0
  0
CLASS
  1
LAYOUT
  2
AcDbLayout
  3
ObjectDBX Classes
 90
        0
280
     0
281
     0
  0
ENDSEC
  0
SECTION
  2
TABLES
  0
TABLE
  2
VPORT
  5
8
330
0
100
AcDbSymbolTable
 70
     1
  0
VPORT
  5
29
330
8
100
AcDbSymbolTableRecord
100
AcDbViewportTableRecord
  2
*ACTIVE
 70
     0
 10
0.0
 20
0.0
 11
1.0
 21
1.0
 12
0.0
 22
0.0
 13
0.0
 23
0.0
 14
0.5
 24
0.5
 15
0.5
 25
0.5
 16
0.0
 26
0.0
 36
1.0
 17
0.0
 27
0.0
 37
-1000.0
 40
663.0361726778364
 41
2.146957520091849
 42
50.0
 43
8019.218136876261
 44
9829.206611737653
 50
0.0
 51
0.0
 71
     0
 72
   100
 73
     1
 74
     3
 75
     0
 76
     0
 77
     0
 78
     0
  0
ENDTAB
  0
TABLE
  2
LTYPE
  5
5
330
0
100
AcDbSymbolTable
 70
     1
  0
LTYPE
  5
14
330
5
100
AcDbSymbolTableRecord
100
AcDbLinetypeTableRecord
  2
BYBLOCK
 70
     0
  3

 72
    65
 73
     0
 40
0.0
  0
LTYPE
  5
15
330
5
100
AcDbSymbolTableRecord
100
AcDbLinetypeTableRecord
  2
BYLAYER
 70
     0
  3

 72
    65
 73
     0
 40
0.0
  0
LTYPE
  5
16
330
5
100
AcDbSymbolTableRecord
100
AcDbLinetypeTableRecord
  2
CONTINUOUS
 70
     0
  3
Solid line
 72
    65
 73
     0
 40
0.0
  0
ENDTAB
  0
TABLE
  2
LAYER
  5
2
330
0
100
AcDbSymbolTable
 70
     3
  0
LAYER
  5
10
330
2
100
AcDbSymbolTableRecord
100
AcDbLayerTableRecord
  2
0
 70
     0
 62
     7
  6
CONTINUOUS
  0
LAYER
  5
3F
330
2
100
AcDbSymbolTableRecord
100
AcDbLayerTableRecord
  2
PROFILEEDGES
 70
     0
 62
     7
  6
CONTINUOUS
  0
LAYER
  5
40
330
2
100
AcDbSymbolTableRecord
100
AcDbLayerTableRecord
  2
SECTIONCUTEDGES
 70
     0
 62
     7
  6
CONTINUOUS
  0
ENDTAB
  0
TABLE
  2
STYLE
  5
3
330
0
100
AcDbSymbolTable
 70
     2
  0
STYLE
  5
11
330
3
100
AcDbSymbolTableRecord
100
AcDbTextStyleTableRecord
  2
STANDARD
 70
     0
 40
0.0
 41
1.0
 50
0.0
 71
     0
 42
0.2
  3
txt
  4

  0
STYLE
  5
201
330
3
100
AcDbSymbolTableRecord
100
AcDbTextStyleTableRecord
  2
TAHOMA
 70
     0
 40
0.2
 41
1.0
 50
0.0
 71
     0
 42
0.2
  3
Tahoma
  4

1001
ACAD
1000
Tahoma
1071
       34
  0
ENDTAB
  0
TABLE
  2
VIEW
  5
6
330
0
100
AcDbSymbolTable
 70
     0
  0
ENDTAB
  0
TABLE
  2
UCS
  5
7
330
0
100
AcDbSymbolTable
 70
     0
  0
ENDTAB
  0
TABLE
  2
APPID
  5
9
330
0
100
AcDbSymbolTable
 70
     1
  0
APPID
  5
12
330
9
100
AcDbSymbolTableRecord
100
AcDbRegAppTableRecord
  2
ACAD
 70
     0
  0
ENDTAB
  0
TABLE
  2
DIMSTYLE
  5
A
330
0
100
AcDbSymbolTable
 70
     1
  0
DIMSTYLE
105
27
330
A
100
AcDbSymbolTableRecord
100
AcDbDimStyleTableRecord
  2
STANDARD
 70
     0
  3

  4

  5

  6

  7

 40
1.0
 41
0.18
 42
0.0625
 43
0.38
 44
0.18
 45
0.0
 46
0.0
 47
0.0
 48
0.0
140
0.18
141
0.09
142
0.0
143
25.4
144
1.0
145
0.0
146
1.0
147
0.09
 71
     0
 72
     0
 73
     1
 74
     1
 75
     0
 76
     0
 77
     0
 78
     0
170
     0
171
     2
172
     0
173
     0
174
     0
175
     0
176
     0
177
     0
178
     0
270
     2
271
     4
272
     4
273
     2
274
     2
340
11
275
     0
280
     0
281
     0
282
     0
283
     1
284
     0
285
     0
286
     0
287
     3
288
     0
  0
ENDTAB
  0
TABLE
  2
BLOCK_RECORD
  5
1
330
0
100
AcDbSymbolTable
 70
     1
  0
BLOCK_RECORD
  5
1F
330
1
100
AcDbSymbolTableRecord
100
AcDbBlockTableRecord
  2
*MODEL_SPACE
  0
BLOCK_RECORD
  5
1B
330
1
100
AcDbSymbolTableRecord
100
AcDbBlockTableRecord
  2
*PAPER_SPACE
  0
ENDTAB
  0
ENDSEC
  0
SECTION
  2
BLOCKS
  0
BLOCK
  5
20
330
1F
100
AcDbEntity
  8
0
100
AcDbBlockBegin
  2
*MODEL_SPACE
 70
     0
 10
0.0
 20
0.0
 30
0.0
  3
*MODEL_SPACE
  1

  0
ENDBLK
  5
21
330
1F
100
AcDbEntity
  8
0
100
AcDbBlockEnd
  0
BLOCK
  5
1C
330
1B
100
AcDbEntity
 67
     1
  8
0
100
AcDbBlockBegin
  2
*PAPER_SPACE
 70
     0
 10
0.0
 20
0.0
 30
0.0
  3
*PAPER_SPACE
  1

  0
ENDBLK
  5
1D
330
1B
100
AcDbEntity
 67
     1
  8
0
100
AcDbBlockEnd
  0
ENDSEC
  0
SECTION
  2
ENTITIES
  0
LINE
  5
41
330
1F
100
AcDbEntity
  8
0
100
AcDbLine
 10
-19.37961547666145
 20
50.42115392610383
 30
0.0
 11
-379.315786540486
 21
50.42115392610383
 31
0.0
  0
LINE
  5
42
330
1F
100
AcDbEntity
  8
0
100
AcDbLine
 10
105.7543845233404
 20
134.6672155294624
 30
0.0
 11
105.7543845233404
 21
178.6509949003372
 31
0.0
  0
LINE
  5
43
330
1F
100
AcDbEntity
  8
0
100
AcDbLine
 10
-401.5456154766605
 20
182.1678063219163
 30
0.0
 11
-401.3733200390398
 21
184.7965267193393
 31
0.0
  0
LINE
  5
44
330
1F
100
AcDbEntity
  8
0
100
AcDbLine
 10
-401.3733200390398
 20
184.7965267193393
 30
0.0
 11
-400.859381748888
 21
187.3802689819425
 31
0.0
  0
LINE
  5
45
330
1F
100
AcDbEntity
  8
0
100
AcDbLine
 10
-400.859381748888
 20
187.3802689819425
 30
0.0
 11
-400.012594232836
 21
189.8748245632655
 31
0.0
  0
LINE
  5
46
330
1F
100
AcDbEntity
  8
0
100
AcDbLine
 10
-400.012594232836
 20
189.8748245632655
 30
0.0
 11
-398.8474462600612
 21
192.2375109256891
 31
0.0
  0
LINE
  5
47
330
1F
100
AcDbEntity
  8
0
100
AcDbLine
 10
-398.8474462600612
 20
192.2375109256891
 30
0.0
 11
-397.383873835413
 21
194.4279018504934
 31
0.0
  0
LINE
  5
48
330
1F
100
AcDbEntity
  8
0
100
AcDbLine
 10
-397.383873835413
 20
194.4279018504934
 30
0.0
 11
-395.6469190888604
 21
196.4085191416629
 31
0.0
  0
LINE
  5
49
330
1F
100
AcDbEntity
  8
0
100
AcDbLine
 10
-395.6469190888604
 20
196.4085191416629
 30
0.0
 11
-393.6663017976916
 21
198.1454738882144
 31
0.0
  0
LINE
  5
4A
330
1F
100
AcDbEntity
  8
0
100
AcDbLine
 10
-393.6663017976916
 20
198.1454738882144
 30
0.0
 11
-391.475910872887
 21
199.6090463128611
 31
0.0
  0
LINE
  5
4B
330
1F
100
AcDbEntity
  8
0
100
AcDbLine
 10
-391.475910872887
 20
199.6090463128611
 30
0.0
 11
-389.1132245104634
 21
200.7741942856377
 31
0.0
  0
LINE
  5
4C
330
1F
100
AcDbEntity
  8
0
100
AcDbLine
 10
-389.1132245104634
 20
200.7741942856377
 30
0.0
 11
-386.6186689291418
 21
201.6209818016887
 31
0.0
  0
LINE
  5
4D
330
1F
100
AcDbEntity
  8
0
100
AcDbLine
 10
-386.6186689291418
 20
201.6209818016887
 30
0.0
 11
-384.0349266665378
 21
202.1349200918419
 31
0.0
  0
LINE
  5
4E
330
1F
100
AcDbEntity
  8
0
100
AcDbLine
 10
-384.0349266665378
 20
202.1349200918419
 30
0.0
 11
-381.4062062691156
 21
202.3072155294622
 31
0.0
  0
LINE
  5
4F
330
1F
100
AcDbEntity
  8
0
100
AcDbLine
 10
-401.5456154766605
 20
182.1678063219163
 30
0.0
 11
-401.5456154766605
 21
158.4175109256901
 31
0.0
  0
LINE
  5
50
330
1F
100
AcDbEntity
  8
0
100
AcDbLine
 10
-401.5456154766605
 20
158.4175109256901
 30
0.0
 11
-401.3424284071326
 21
155.317475303519
 31
0.0
  0
LINE
  5
51
330
1F
100
AcDbEntity
  8
0
100
AcDbLine
 10
-401.3424284071326
 20
155.317475303519
 30
0.0
 11
-400.7363437856426
 21
152.2704821503354
 31
0.0
  0
LINE
  5
52
330
1F
100
AcDbEntity
  8
0
100
AcDbLine
 10
-400.7363437856426
 20
152.2704821503354
 30
0.0
 11
-399.7377318881035
 21
149.328666363775
 31
0.0
  0
LINE
  5
53
330
1F
100
AcDbEntity
  8
0
100
AcDbLine
 10
-399.7377318881035
 20
149.328666363775
 30
0.0
 11
-398.3636792409502
 21
146.5423632275755
 31
0.0
  0
LINE
  5
54
330
1F
100
AcDbEntity
  8
0
100
AcDbLine
 10
-398.3636792409502
 20
146.5423632275755
 30
0.0
 11
-396.6376962659331
 21
143.9592471609028
 31
0.0
  0
LINE
  5
55
330
1F
100
AcDbEntity
  8
0
100
AcDbLine
 10
-396.6376962659331
 20
143.9592471609028
 30
0.0
 11
-394.5893150102891
 21
141.6235159958338
 31
0.0
  0
LINE
  5
56
330
1F
100
AcDbEntity
  8
0
100
AcDbLine
 10
-394.5893150102891
 20
141.6235159958338
 30
0.0
 11
-392.2535838452204
 21
139.575134740189
 31
0.0
  0
LINE
  5
57
330
1F
100
AcDbEntity
  8
0
100
AcDbLine
 10
-392.2535838452204
 20
139.575134740189
 30
0.0
 11
-389.6704677785467
 21
137.8491517651708
 31
0.0
  0
LINE
  5
58
330
1F
100
AcDbEntity
  8
0
100
AcDbLine
 10
-389.6704677785467
 20
137.8491517651708
 30
0.0
 11
-386.8841646423483
 21
136.4750991180179
 31
0.0
  0
LINE
  5
59
330
1F
100
AcDbEntity
  8
0
100
AcDbLine
 10
-386.8841646423483
 20
136.4750991180179
 30
0.0
 11
-383.9423488557878
 21
135.4764872204784
 31
0.0
  0
LINE
  5
5A
330
1F
100
AcDbEntity
  8
0
100
AcDbLine
 10
-383.9423488557878
 20
135.4764872204784
 30
0.0
 11
-380.8953557026039
 21
134.8704025989888
 31
0.0
  0
LINE
  5
5B
330
1F
100
AcDbEntity
  8
0
100
AcDbLine
 10
-380.8953557026039
 20
134.8704025989888
 30
0.0
 11
-377.7953200804332
 21
134.6672155294624
 31
0.0
  0
LINE
  5
5C
330
1F
100
AcDbEntity
  8
0
100
AcDbLine
 10
-377.7953200804332
 20
134.6672155294624
 30
0.0
 11
105.7543845233404
 21
134.6672155294624
 31
0.0
  0
LINE
  5
5D
330
1F
100
AcDbEntity
  8
0
100
AcDbLine
 10
82.09816389421638
 20
202.3072155294622
 30
0.0
 11
85.18592029525273
 21
202.1048332826083
 31
0.0
  0
LINE
  5
5E
330
1F
100
AcDbEntity
  8
0
100
AcDbLine
 10
85.18592029525273
 20
202.1048332826083
 30
0.0
 11
88.22084432818012
 21
201.5011493584
 31
0.0
  0
LINE
  5
5F
330
1F
100
AcDbEntity
  8
0
100
AcDbLine
 10
88.22084432818012
 20
201.5011493584
 30
0.0
 11
91.15100760135526
 21
200.5064929561554
 31
0.0
  0
LINE
  5
60
330
1F
100
AcDbEntity
  8
0
100
AcDbLine
 10
91.15100760135526
 20
200.5064929561554
 30
0.0
 11
93.92627420877568
 21
199.1378829226885
 31
0.0
  0
LINE
  5
61
330
1F
100
AcDbEntity
  8
0
100
AcDbLine
 10
93.92627420877568
 20
199.1378829226885
 30
0.0
 11
96.49915856934679
 21
197.4187365551201
 31
0.0
  0
LINE
  5
62
330
1F
100
AcDbEntity
  8
0
100
AcDbLine
 10
96.49915856934679
 20
197.4187365551201
 30
0.0
 11
98.82563791831403
 21
195.3784689244359
 31
0.0
  0
LINE
  5
63
330
1F
100
AcDbEntity
  8
0
100
AcDbLine
 10
98.82563791831403
 20
195.3784689244359
 30
0.0
 11
100.8659055489975
 21
193.051989575469
 31
0.0
  0
LINE
  5
64
330
1F
100
AcDbEntity
  8
0
100
AcDbLine
 10
100.8659055489975
 20
193.051989575469
 30
0.0
 11
102.5850519165659
 21
190.4791052148997
 31
0.0
  0
LINE
  5
65
330
1F
100
AcDbEntity
  8
0
100
AcDbLine
 10
102.5850519165659
 20
190.4791052148997
 30
0.0
 11
103.9536619500346
 21
187.7038386074768
 31
0.0
  0
LINE
  5
66
330
1F
100
AcDbEntity
  8
0
100
AcDbLine
 10
103.9536619500346
 20
187.7038386074768
 30
0.0
 11
104.9483183522785
 21
184.7736753343023
 31
0.0
  0
LINE
  5
67
330
1F
100
AcDbEntity
  8
0
100
AcDbLine
 10
104.9483183522785
 20
184.7736753343023
 30
0.0
 11
105.5520022764867
 21
181.7387513013746
 31
0.0
  0
LINE
  5
68
330
1F
100
AcDbEntity
  8
0
100
AcDbLine
 10
105.5520022764867
 20
181.7387513013746
 30
0.0
 11
105.7543845233404
 21
178.6509949003372
 31
0.0
  0
LINE
  5
69
330
1F
100
AcDbEntity
  8
0
100
AcDbLine
 10
82.09816389421638
 20
202.3072155294622
 30
0.0
 11
-381.4062062691156
 21
202.3072155294622
 31
0.0
  0
LINE
  5
6A
330
1F
100
AcDbEntity
  8
0
100
AcDbLine
 10
-401.5456154766605
 20
94.88081179845346
 30
0.0
 11
-401.3473044363564
 21
97.90645359073379
 31
0.0
  0
LINE
  5
6B
330
1F
100
AcDbEntity
  8
0
100
AcDbLine
 10
-401.3473044363564
 20
97.90645359073379
 30
0.0
 11
-400.7557644723241
 21
100.8803258130811
 31
0.0
  0
LINE
  5
6C
330
1F
100
AcDbEntity
  8
0
100
AcDbLine
 10
-400.7557644723241
 20
100.8803258130811
 30
0.0
 11
-399.7811169973544
 21
103.7515446872595
 31
0.0
  0
LINE
  5
6D
330
1F
100
AcDbEntity
  8
0
100
AcDbLine
 10
-399.7811169973544
 20
103.7515446872595
 30
0.0
 11
-398.4400384999703
 21
106.4709828622791
 31
0.0
  0
LINE
  5
6E
330
1F
100
AcDbEntity
  8
0
100
AcDbLine
 10
-398.4400384999703
 20
106.4709828622791
 30
0.0
 11
-396.7554752050759
 21
108.9921099969928
 31
0.0
  0
LINE
  5
6F
330
1F
100
AcDbEntity
  8
0
100
AcDbLine
 10
-396.7554752050759
 20
108.9921099969928
 30
0.0
 11
-394.7562504576957
 21
111.2717889071397
 31
0.0
  0
LINE
  5
70
330
1F
100
AcDbEntity
  8
0
100
AcDbLine
 10
-394.7562504576957
 20
111.2717889071397
 30
0.0
 11
-392.4765715475496
 21
113.2710136545183
 31
0.0
  0
LINE
  5
71
330
1F
100
AcDbEntity
  8
0
100
AcDbLine
 10
-392.4765715475496
 20
113.2710136545183
 30
0.0
 11
-389.9554444128341
 21
114.9555769494135
 31
0.0
  0
LINE
  5
72
330
1F
100
AcDbEntity
  8
0
100
AcDbLine
 10
-389.9554444128341
 20
114.9555769494135
 30
0.0
 11
-387.2360062378148
 21
116.2966554467994
 31
0.0
  0
LINE
  5
73
330
1F
100
AcDbEntity
  8
0
100
AcDbLine
 10
-387.2360062378148
 20
116.2966554467994
 30
0.0
 11
-384.3647873636376
 21
117.2713029217673
 31
0.0
  0
LINE
  5
74
330
1F
100
AcDbEntity
  8
0
100
AcDbLine
 10
-384.3647873636376
 20
117.2713029217673
 30
0.0
 11
-381.3909151412899
 21
117.8628428857992
 31
0.0
  0
LINE
  5
75
330
1F
100
AcDbEntity
  8
0
100
AcDbLine
 10
-381.3909151412899
 20
117.8628428857992
 30
0.0
 11
-378.3652733490081
 21
118.0611539261051
 31
0.0
  0
LINE
  5
76
330
1F
100
AcDbEntity
  8
0
100
AcDbLine
 10
-378.3652733490081
 20
118.0611539261051
 30
0.0
 11
82.5913107559298
 21
118.0611539261051
 31
0.0
  0
LINE
  5
77
330
1F
100
AcDbEntity
  8
0
100
AcDbLine
 10
-401.5456154766605
 20
72.65098286227828
 30
0.0
 11
-401.3554362084761
 21
69.74940793753734
 31
0.0
  0
LINE
  5
78
330
1F
100
AcDbEntity
  8
0
100
AcDbLine
 10
-401.3554362084761
 20
69.74940793753734
 30
0.0
 11
-400.7881524239241
 21
66.89747976422595
 31
0.0
  0
LINE
  5
79
330
1F
100
AcDbEntity
  8
0
100
AcDbLine
 10
-400.7881524239241
 20
66.89747976422595
 30
0.0
 11
-399.8534705058452
 21
64.14399562409524
 31
0.0
  0
LINE
  5
7A
330
1F
100
AcDbEntity
  8
0
100
AcDbLine
 10
-399.8534705058452
 20
64.14399562409524
 30
0.0
 11
-398.5673831209953
 21
61.5360683941916
 31
0.0
  0
LINE
  5
7B
330
1F
100
AcDbEntity
  8
0
100
AcDbLine
 10
-398.5673831209953
 20
61.5360683941916
 30
0.0
 11
-396.9518955811028
 21
59.1183204324738
 31
0.0
  0
LINE
  5
7C
330
1F
100
AcDbEntity
  8
0
100
AcDbLine
 10
-396.9518955811028
 20
59.1183204324738
 30
0.0
 11
-395.0346493258721
 21
56.93212007689399
 31
0.0
  0
LINE
  5
7D
330
1F
100
AcDbEntity
  8
0
100
AcDbLine
 10
-395.0346493258721
 20
56.93212007689399
 30
0.0
 11
-392.8484489702916
 21
55.0148738216615
 31
0.0
  0
LINE
  5
7E
330
1F
100
AcDbEntity
  8
0
100
AcDbLine
 10
-392.8484489702916
 20
55.0148738216615
 30
0.0
 11
-390.4307010085727
 21
53.39938628176936
 31
0.0
  0
LINE
  5
7F
330
1F
100
AcDbEntity
  8
0
100
AcDbLine
 10
-390.4307010085727
 20
53.39938628176936
 30
0.0
 11
-387.8227737786698
 21
52.11329889692057
 31
0.0
  0
LINE
  5
80
330
1F
100
AcDbEntity
  8
0
100
AcDbLine
 10
-387.8227737786698
 20
52.11329889692057
 30
0.0
 11
-385.0692896385384
 21
51.17861697883985
 31
0.0
  0
LINE
  5
81
330
1F
100
AcDbEntity
  8
0
100
AcDbLine
 10
-385.0692896385384
 20
51.17861697883985
 30
0.0
 11
-382.2173614652284
 21
50.61133319429003
 31
0.0
  0
LINE
  5
82
330
1F
100
AcDbEntity
  8
0
100
AcDbLine
 10
-382.2173614652284
 20
50.61133319429003
 30
0.0
 11
-379.315786540486
 21
50.42115392610383
 31
0.0
  0
LINE
  5
83
330
1F
100
AcDbEntity
  8
0
100
AcDbLine
 10
-401.5456154766605
 20
72.65098286227828
 30
0.0
 11
-401.5456154766605
 21
94.88081179845346
 31
0.0
  0
LINE
  5
84
330
1F
100
AcDbEntity
  8
0
100
AcDbLine
 10
82.5913107559298
 20
118.0611539261051
 30
0.0
 11
85.61469857490174
 21
117.8629906190155
 31
0.0
  0
LINE
  5
85
330
1F
100
AcDbEntity
  8
0
100
AcDbLine
 10
85.61469857490174
 20
117.8629906190155
 30
0.0
 11
88.58635539005024
 21
117.2718913268739
 31
0.0
  0
LINE
  5
86
330
1F
100
AcDbEntity
  8
0
100
AcDbLine
 10
88.58635539005024
 20
117.2718913268739
 30
0.0
 11
91.45543532936745
 21
116.2979699224539
 31
0.0
  0
LINE
  5
87
330
1F
100
AcDbEntity
  8
0
100
AcDbLine
 10
91.45543532936745
 20
116.2979699224539
 30
0.0
 11
94.1728476396351
 21
114.9578904710039
 31
0.0
  0
LINE
  5
88
330
1F
100
AcDbEntity
  8
0
100
AcDbLine
 10
94.1728476396351
 20
114.9578904710039
 30
0.0
 11
96.69209664281271
 21
113.2745821034809
 31
0.0
  0
LINE
  5
89
330
1F
100
AcDbEntity
  8
0
100
AcDbLine
 10
96.69209664281271
 20
113.2745821034809
 30
0.0
 11
98.97007728998868
 21
111.2768466927549
 31
0.0
  0
LINE
  5
8A
330
1F
100
AcDbEntity
  8
0
100
AcDbLine
 10
98.97007728998868
 20
111.2768466927549
 30
0.0
 11
100.9678127007168
 21
108.9988660455771
 31
0.0
  0
LINE
  5
8B
330
1F
100
AcDbEntity
  8
0
100
AcDbLine
 10
100.9678127007168
 20
108.9988660455771
 30
0.0
 11
102.6511210682413
 21
106.4796170423995
 31
0.0
  0
LINE
  5
8C
330
1F
100
AcDbEntity
  8
0
100
AcDbLine
 10
102.6511210682413
 20
106.4796170423995
 30
0.0
 11
103.9912005196888
 21
103.7622047321329
 31
0.0
  0
LINE
  5
8D
330
1F
100
AcDbEntity
  8
0
100
AcDbLine
 10
103.9912005196888
 20
103.7622047321329
 30
0.0
 11
104.9651219241102
 21
100.8931247928146
 31
0.0
  0
LINE
  5
8E
330
1F
100
AcDbEntity
  8
0
100
AcDbLine
 10
104.9651219241102
 20
100.8931247928146
 30
0.0
 11
105.5562212162507
 21
97.92146797766648
 31
0.0
  0
LINE
  5
8F
330
1F
100
AcDbEntity
  8
0
100
AcDbLine
 10
105.5562212162507
 20
97.92146797766648
 30
0.0
 11
105.7543845233404
 21
94.89808015869527
 31
0.0
  0
LINE
  5
90
330
1F
100
AcDbEntity
  8
0
100
AcDbLine
 10
105.7543845233404
 20
94.89808015869527
 30
0.0
 11
105.7543845233404
 21
72.65961704239936
 31
0.0
  0
LINE
  5
91
330
1F
100
AcDbEntity
  8
0
100
AcDbLine
 10
85.11077949142852
 20
50.43794594446629
 30
0.0
 11
88.11086911478863
 21
50.86577523662319
 31
0.0
  0
LINE
  5
92
330
1F
100
AcDbEntity
  8
0
100
AcDbLine
 10
88.11086911478863
 20
50.86577523662319
 30
0.0
 11
91.02516039550198
 21
51.69672769168969
 31
0.0
  0
LINE
  5
93
330
1F
100
AcDbEntity
  8
0
100
AcDbLine
 10
91.02516039550198
 20
51.69672769168969
 30
0.0
 11
93.79974735731861
 21
52.91543308789299
 31
0.0
  0
LINE
  5
94
330
1F
100
AcDbEntity
  8
0
100
AcDbLine
 10
93.79974735731861
 20
52.91543308789299
 30
0.0
 11
96.38330815062089
 21
54.49934889333816
 31
0.0
  0
LINE
  5
95
330
1F
100
AcDbEntity
  8
0
100
AcDbLine
 10
96.38330815062089
 20
54.49934889333816
 30
0.0
 11
98.72805435848298
 21
56.4191772377842
 31
0.0
  0
LINE
  5
96
330
1F
100
AcDbEntity
  8
0
100
AcDbLine
 10
98.72805435848298
 20
56.4191772377842
 30
0.0
 11
100.7906149444461
 21
58.63940683867093
 31
0.0
  0
LINE
  5
97
330
1F
100
AcDbEntity
  8
0
100
AcDbLine
 10
100.7906149444461
 20
58.63940683867093
 30
0.0
 11
102.5328384914965
 21
61.11896985733539
 31
0.0
  0
LINE
  5
98
330
1F
100
AcDbEntity
  8
0
100
AcDbLine
 10
102.5328384914965
 20
61.11896985733539
 30
0.0
 11
103.922498893146
 21
63.81200153548316
 31
0.0
  0
LINE
  5
99
330
1F
100
AcDbEntity
  8
0
100
AcDbLine
 10
103.922498893146
 20
63.81200153548316
 30
0.0
 11
104.933891443382
 21
66.66868856082408
 31
0.0
  0
LINE
  5
9A
330
1F
100
AcDbEntity
  8
0
100
AcDbLine
 10
104.933891443382
 20
66.66868856082408
 30
0.0
 11
105.5483082995315
 21
69.63619046955085
 31
0.0
  0
LINE
  5
9B
330
1F
100
AcDbEntity
  8
0
100
AcDbLine
 10
105.5483082995315
 20
69.63619046955085
 30
0.0
 11
105.7543845233404
 21
72.65961704239936
 31
0.0
  0
LINE
  5
9C
330
1F
100
AcDbEntity
  8
0
100
AcDbLine
 10
85.11077949142852
 20
50.43794594446629
 30
0.0
 11
48.26038452333912
 21
50.42115342214758
 31
0.0
  0
LINE
  5
9D
330
1F
100
AcDbEntity
  8
0
100
AcDbLine
 10
105.7543845233404
 20
-85.7913653064859
 30
0.0
 11
105.7543845233404
 21
-63.55290219019118
 31
0.0
  0
LINE
  5
9E
330
1F
100
AcDbEntity
  8
0
100
AcDbLine
 10
105.5483082995315
 20
-60.5294756173432
 30
0.0
 11
105.7543845233404
 21
-63.55290219019118
 31
0.0
  0
LINE
  5
9F
330
1F
100
AcDbEntity
  8
0
100
AcDbLine
 10
104.933891443382
 20
-57.56197370861535
 30
0.0
 11
105.5483082995315
 21
-60.5294756173432
 31
0.0
  0
LINE
  5
A0
330
1F
100
AcDbEntity
  8
0
100
AcDbLine
 10
103.922498893146
 20
-54.70528668327497
 30
0.0
 11
104.933891443382
 21
-57.56197370861535
 31
0.0
  0
LINE
  5
A1
330
1F
100
AcDbEntity
  8
0
100
AcDbLine
 10
102.5328384914965
 20
-52.01225500512666
 30
0.0
 11
103.922498893146
 21
-54.70528668327497
 31
0.0
  0
LINE
  5
A2
330
1F
100
AcDbEntity
  8
0
100
AcDbLine
 10
100.7906149444461
 20
-49.53269198646274
 30
0.0
 11
102.5328384914965
 21
-52.01225500512666
 31
0.0
  0
LINE
  5
A3
330
1F
100
AcDbEntity
  8
0
100
AcDbLine
 10
98.72805435848298
 20
-47.31246238557637
 30
0.0
 11
100.7906149444461
 21
-49.53269198646274
 31
0.0
  0
LINE
  5
A4
330
1F
100
AcDbEntity
  8
0
100
AcDbLine
 10
96.38330815062089
 20
-45.39263404113069
 30
0.0
 11
98.72805435848298
 21
-47.31246238557637
 31
0.0
  0
LINE
  5
A5
330
1F
100
AcDbEntity
  8
0
100
AcDbLine
 10
93.79974735731861
 20
-43.80871823568516
 30
0.0
 11
96.38330815062089
 21
-45.39263404113069
 31
0.0
  0
LINE
  5
A6
330
1F
100
AcDbEntity
  8
0
100
AcDbLine
 10
91.02516039550198
 20
-42.59001283948223
 30
0.0
 11
93.79974735731861
 21
-43.80871823568516
 31
0.0
  0
LINE
  5
A7
330
1F
100
AcDbEntity
  8
0
100
AcDbLine
 10
88.11086911478863
 20
-41.759060384415
 30
0.0
 11
91.02516039550198
 21
-42.59001283948223
 31
0.0
  0
LINE
  5
A8
330
1F
100
AcDbEntity
  8
0
100
AcDbLine
 10
85.11077949142852
 20
-41.33123109225809
 30
0.0
 11
88.11086911478863
 21
-41.759060384415
 31
0.0
  0
LINE
  5
A9
330
1F
100
AcDbEntity
  8
0
100
AcDbLine
 10
85.11077949142852
 20
-41.33123109225809
 30
0.0
 11
48.26038452333912
 21
-41.31443856993848
 31
0.0
  0
LINE
  5
AA
330
1F
100
AcDbEntity
  8
0
100
AcDbLine
 10
-19.37961547666145
 20
-41.314439073896
 30
0.0
 11
-379.315786540486
 21
-41.314439073896
 31
0.0
  0
LINE
  5
AB
330
1F
100
AcDbEntity
  8
0
100
AcDbLine
 10
-382.2173614652284
 20
-41.5046183420822
 30
0.0
 11
-379.315786540486
 21
-41.314439073896
 31
0.0
  0
LINE
  5
AC
330
1F
100
AcDbEntity
  8
0
100
AcDbLine
 10
-385.0692896385384
 20
-42.07190212663202
 30
0.0
 11
-382.2173614652284
 21
-41.5046183420822
 31
0.0
  0
LINE
  5
AD
330
1F
100
AcDbEntity
  8
0
100
AcDbLine
 10
-387.8227737786698
 20
-43.00658404471238
 30
0.0
 11
-385.0692896385384
 21
-42.07190212663202
 31
0.0
  0
LINE
  5
AE
330
1F
100
AcDbEntity
  8
0
100
AcDbLine
 10
-390.4307010085727
 20
-44.29267142956189
 30
0.0
 11
-387.8227737786698
 21
-43.00658404471238
 31
0.0
  0
LINE
  5
AF
330
1F
100
AcDbEntity
  8
0
100
AcDbLine
 10
-392.8484489702916
 20
-45.90815896945367
 30
0.0
 11
-390.4307010085727
 21
-44.29267142956189
 31
0.0
  0
LINE
  5
B0
330
1F
100
AcDbEntity
  8
0
100
AcDbLine
 10
-395.0346493258721
 20
-47.82540522468526
 30
0.0
 11
-392.8484489702916
 21
-45.90815896945367
 31
0.0
  0
LINE
  5
B1
330
1F
100
AcDbEntity
  8
0
100
AcDbLine
 10
-396.9518955811028
 20
-50.01160558026543
 30
0.0
 11
-395.0346493258721
 21
-47.82540522468526
 31
0.0
  0
LINE
  5
B2
330
1F
100
AcDbEntity
  8
0
100
AcDbLine
 10
-398.5673831209953
 20
-52.42935354198449
 30
0.0
 11
-396.9518955811028
 21
-50.01160558026543
 31
0.0
  0
LINE
  5
B3
330
1F
100
AcDbEntity
  8
0
100
AcDbLine
 10
-399.8534705058452
 20
-55.03728077188723
 30
0.0
 11
-398.5673831209953
 21
-52.42935354198449
 31
0.0
  0
LINE
  5
B4
330
1F
100
AcDbEntity
  8
0
100
AcDbLine
 10
-400.7881524239241
 20
-57.79076491201721
 30
0.0
 11
-399.8534705058452
 21
-55.03728077188723
 31
0.0
  0
LINE
  5
B5
330
1F
100
AcDbEntity
  8
0
100
AcDbLine
 10
-401.3554362084761
 20
-60.64269308532898
 30
0.0
 11
-400.7881524239241
 21
-57.79076491201721
 31
0.0
  0
LINE
  5
B6
330
1F
100
AcDbEntity
  8
0
100
AcDbLine
 10
-401.5456154766605
 20
-63.54426801007063
 30
0.0
 11
-401.3554362084761
 21
-60.64269308532898
 31
0.0
  0
LINE
  5
B7
330
1F
100
AcDbEntity
  8
0
100
AcDbLine
 10
-401.5456154766605
 20
-63.54426801007063
 30
0.0
 11
-401.5456154766605
 21
-85.77409694624464
 31
0.0
  0
LINE
  5
B8
330
1F
100
AcDbEntity
  8
0
100
AcDbLine
 10
-401.5456154766605
 20
-85.77409694624464
 30
0.0
 11
-401.3473044363564
 21
-88.79973873852488
 31
0.0
  0
LINE
  5
B9
330
1F
100
AcDbEntity
  8
0
100
AcDbLine
 10
-401.3473044363564
 20
-88.79973873852488
 30
0.0
 11
-400.7557644723241
 21
-91.77361096087229
 31
0.0
  0
LINE
  5
BA
330
1F
100
AcDbEntity
  8
0
100
AcDbLine
 10
-400.7557644723241
 20
-91.77361096087229
 30
0.0
 11
-399.7811169973544
 21
-94.64482983505039
 31
0.0
  0
LINE
  5
BB
330
1F
100
AcDbEntity
  8
0
100
AcDbLine
 10
-399.7811169973544
 20
-94.64482983505039
 30
0.0
 11
-398.4400384999703
 21
-97.36426801006984
 31
0.0
  0
LINE
  5
BC
330
1F
100
AcDbEntity
  8
0
100
AcDbLine
 10
-398.4400384999703
 20
-97.36426801006984
 30
0.0
 11
-396.7554752050759
 21
-99.88539514478447
 31
0.0
  0
LINE
  5
BD
330
1F
100
AcDbEntity
  8
0
100
AcDbLine
 10
-396.7554752050759
 20
-99.88539514478447
 30
0.0
 11
-394.7562504576957
 21
-102.165074054931
 31
0.0
  0
LINE
  5
BE
330
1F
100
AcDbEntity
  8
0
100
AcDbLine
 10
-394.7562504576957
 20
-102.165074054931
 30
0.0
 11
-392.4765715475496
 21
-104.1642988023106
 31
0.0
  0
LINE
  5
BF
330
1F
100
AcDbEntity
  8
0
100
AcDbLine
 10
-392.4765715475496
 20
-104.1642988023106
 30
0.0
 11
-389.9554444128341
 21
-105.8488620972052
 31
0.0
  0
LINE
  5
C0
330
1F
100
AcDbEntity
  8
0
100
AcDbLine
 10
-389.9554444128341
 20
-105.8488620972052
 30
0.0
 11
-387.2360062378148
 21
-107.1899405945912
 31
0.0
  0
LINE
  5
C1
330
1F
100
AcDbEntity
  8
0
100
AcDbLine
 10
-387.2360062378148
 20
-107.1899405945912
 30
0.0
 11
-384.3647873636376
 21
-108.1645880695595
 31
0.0
  0
LINE
  5
C2
330
1F
100
AcDbEntity
  8
0
100
AcDbLine
 10
-384.3647873636376
 20
-108.1645880695595
 30
0.0
 11
-381.3909151412899
 21
-108.7561280335912
 31
0.0
  0
LINE
  5
C3
330
1F
100
AcDbEntity
  8
0
100
AcDbLine
 10
-381.3909151412899
 20
-108.7561280335912
 30
0.0
 11
-378.3652733490081
 21
-108.9544390738958
 31
0.0
  0
LINE
  5
C4
330
1F
100
AcDbEntity
  8
0
100
AcDbLine
 10
-378.3652733490081
 20
-108.9544390738958
 30
0.0
 11
82.5913107559298
 21
-108.9544390738958
 31
0.0
  0
LINE
  5
C5
330
1F
100
AcDbEntity
  8
0
100
AcDbLine
 10
82.5913107559298
 20
-108.9544390738958
 30
0.0
 11
85.61469857490174
 21
-108.7562757668067
 31
0.0
  0
LINE
  5
C6
330
1F
100
AcDbEntity
  8
0
100
AcDbLine
 10
85.61469857490174
 20
-108.7562757668067
 30
0.0
 11
88.58635539005024
 21
-108.1651764746659
 31
0.0
  0
LINE
  5
C7
330
1F
100
AcDbEntity
  8
0
100
AcDbLine
 10
88.58635539005024
 20
-108.1651764746659
 30
0.0
 11
91.45543532936745
 21
-107.191255070245
 31
0.0
  0
LINE
  5
C8
330
1F
100
AcDbEntity
  8
0
100
AcDbLine
 10
91.45543532936745
 20
-107.191255070245
 30
0.0
 11
94.1728476396351
 21
-105.8511756187957
 31
0.0
  0
LINE
  5
C9
330
1F
100
AcDbEntity
  8
0
100
AcDbLine
 10
94.1728476396351
 20
-105.8511756187957
 30
0.0
 11
96.69209664281271
 21
-104.1678672512726
 31
0.0
  0
LINE
  5
CA
330
1F
100
AcDbEntity
  8
0
100
AcDbLine
 10
96.69209664281271
 20
-104.1678672512726
 30
0.0
 11
98.97007728998868
 21
-102.1701318405459
 31
0.0
  0
LINE
  5
CB
330
1F
100
AcDbEntity
  8
0
100
AcDbLine
 10
98.97007728998868
 20
-102.1701318405459
 30
0.0
 11
100.9678127007168
 21
-99.8921511933689
 31
0.0
  0
LINE
  5
CC
330
1F
100
AcDbEntity
  8
0
100
AcDbLine
 10
100.9678127007168
 20
-99.8921511933689
 30
0.0
 11
102.6511210682413
 21
-97.37290219019056
 31
0.0
  0
LINE
  5
CD
330
1F
100
AcDbEntity
  8
0
100
AcDbLine
 10
102.6511210682413
 20
-97.37290219019056
 30
0.0
 11
103.9912005196888
 21
-94.65548987992337
 31
0.0
  0
LINE
  5
CE
330
1F
100
AcDbEntity
  8
0
100
AcDbLine
 10
103.9912005196888
 20
-94.65548987992337
 30
0.0
 11
104.9651219241102
 21
-91.78640994060554
 31
0.0
  0
LINE
  5
CF
330
1F
100
AcDbEntity
  8
0
100
AcDbLine
 10
104.9651219241102
 20
-91.78640994060554
 30
0.0
 11
105.5562212162507
 21
-88.81475312545811
 31
0.0
  0
LINE
  5
D0
330
1F
100
AcDbEntity
  8
0
100
AcDbLine
 10
105.5562212162507
 20
-88.81475312545811
 30
0.0
 11
105.7543845233404
 21
-85.7913653064859
 31
0.0
  0
LINE
  5
D1
330
1F
100
AcDbEntity
  8
0
100
AcDbLine
 10
82.09816389421638
 20
-182.8714276772534
 30
0.0
 11
-381.4062062691156
 21
-182.8714276772534
 31
0.0
  0
LINE
  5
D2
330
1F
100
AcDbEntity
  8
0
100
AcDbLine
 10
82.09816389421638
 20
-182.8714276772534
 30
0.0
 11
85.18592029525273
 21
-182.6690454303992
 31
0.0
  0
LINE
  5
D3
330
1F
100
AcDbEntity
  8
0
100
AcDbLine
 10
85.18592029525273
 20
-182.6690454303992
 30
0.0
 11
88.22084432818012
 21
-182.0653615061924
 31
0.0
  0
LINE
  5
D4
330
1F
100
AcDbEntity
  8
0
100
AcDbLine
 10
88.22084432818012
 20
-182.0653615061924
 30
0.0
 11
91.15100760135526
 21
-181.0707051039481
 31
0.0
  0
LINE
  5
D5
330
1F
100
AcDbEntity
  8
0
100
AcDbLine
 10
91.15100760135526
 20
-181.0707051039481
 30
0.0
 11
93.92627420877568
 21
-179.7020950704801
 31
0.0
  0
LINE
  5
D6
330
1F
100
AcDbEntity
  8
0
100
AcDbLine
 10
93.92627420877568
 20
-179.7020950704801
 30
0.0
 11
96.49915856934679
 21
-177.9829487029114
 31
0.0
  0
LINE
  5
D7
330
1F
100
AcDbEntity
  8
0
100
AcDbLine
 10
96.49915856934679
 20
-177.9829487029114
 30
0.0
 11
98.82563791831403
 21
-175.9426810722279
 31
0.0
  0
LINE
  5
D8
330
1F
100
AcDbEntity
  8
0
100
AcDbLine
 10
98.82563791831403
 20
-175.9426810722279
 30
0.0
 11
100.8659055489975
 21
-173.6162017232603
 31
0.0
  0
LINE
  5
D9
330
1F
100
AcDbEntity
  8
0
100
AcDbLine
 10
100.8659055489975
 20
-173.6162017232603
 30
0.0
 11
102.5850519165659
 21
-171.0433173626908
 31
0.0
  0
LINE
  5
DA
330
1F
100
AcDbEntity
  8
0
100
AcDbLine
 10
102.5850519165659
 20
-171.0433173626908
 30
0.0
 11
103.9536619500346
 21
-168.268050755268
 31
0.0
  0
LINE
  5
DB
330
1F
100
AcDbEntity
  8
0
100
AcDbLine
 10
103.9536619500346
 20
-168.268050755268
 30
0.0
 11
104.9483183522785
 21
-165.3378874820938
 31
0.0
  0
LINE
  5
DC
330
1F
100
AcDbEntity
  8
0
100
AcDbLine
 10
104.9483183522785
 20
-165.3378874820938
 30
0.0
 11
105.5520022764867
 21
-162.3029634491658
 31
0.0
  0
LINE
  5
DD
330
1F
100
AcDbEntity
  8
0
100
AcDbLine
 10
105.5520022764867
 20
-162.3029634491658
 30
0.0
 11
105.7543845233404
 21
-159.2152070481291
 31
0.0
  0
LINE
  5
DE
330
1F
100
AcDbEntity
  8
0
100
AcDbLine
 10
105.7543845233404
 20
-115.231427677253
 30
0.0
 11
105.7543845233404
 21
-159.2152070481291
 31
0.0
  0
LINE
  5
DF
330
1F
100
AcDbEntity
  8
0
100
AcDbLine
 10
-377.7953200804332
 20
-115.231427677253
 30
0.0
 11
105.7543845233404
 21
-115.231427677253
 31
0.0
  0
LINE
  5
E0
330
1F
100
AcDbEntity
  8
0
100
AcDbLine
 10
-380.8953557026039
 20
-115.4346147467813
 30
0.0
 11
-377.7953200804332
 21
-115.231427677253
 31
0.0
  0
LINE
  5
E1
330
1F
100
AcDbEntity
  8
0
100
AcDbLine
 10
-383.9423488557878
 20
-116.0406993682705
 30
0.0
 11
-380.8953557026039
 21
-115.4346147467813
 31
0.0
  0
LINE
  5
E2
330
1F
100
AcDbEntity
  8
0
100
AcDbLine
 10
-386.8841646423483
 20
-117.0393112658094
 30
0.0
 11
-383.9423488557878
 21
-116.0406993682705
 31
0.0
  0
LINE
  5
E3
330
1F
100
AcDbEntity
  8
0
100
AcDbLine
 10
-389.6704677785467
 20
-118.4133639129629
 30
0.0
 11
-386.8841646423483
 21
-117.0393112658094
 31
0.0
  0
LINE
  5
E4
330
1F
100
AcDbEntity
  8
0
100
AcDbLine
 10
-392.2535838452204
 20
-120.1393468879802
 30
0.0
 11
-389.6704677785467
 21
-118.4133639129629
 31
0.0
  0
LINE
  5
E5
330
1F
100
AcDbEntity
  8
0
100
AcDbLine
 10
-394.5893150102891
 20
-122.1877281436248
 30
0.0
 11
-392.2535838452204
 21
-120.1393468879802
 31
0.0
  0
LINE
  5
E6
330
1F
100
AcDbEntity
  8
0
100
AcDbLine
 10
-396.6376962659331
 20
-124.5234593086943
 30
0.0
 11
-394.5893150102891
 21
-122.1877281436248
 31
0.0
  0
LINE
  5
E7
330
1F
100
AcDbEntity
  8
0
100
AcDbLine
 10
-398.3636792409502
 20
-127.1065753753668
 30
0.0
 11
-396.6376962659331
 21
-124.5234593086943
 31
0.0
  0
LINE
  5
E8
330
1F
100
AcDbEntity
  8
0
100
AcDbLine
 10
-399.7377318881035
 20
-129.8928785115677
 30
0.0
 11
-398.3636792409502
 21
-127.1065753753668
 31
0.0
  0
LINE
  5
E9
330
1F
100
AcDbEntity
  8
0
100
AcDbLine
 10
-400.7363437856426
 20
-132.8346942981261
 30
0.0
 11
-399.7377318881035
 21
-129.8928785115677
 31
0.0
  0
LINE
  5
EA
330
1F
100
AcDbEntity
  8
0
100
AcDbLine
 10
-401.3424284071326
 20
-135.8816874513093
 30
0.0
 11
-400.7363437856426
 21
-132.8346942981261
 31
0.0
  0
LINE
  5
EB
330
1F
100
AcDbEntity
  8
0
100
AcDbLine
 10
-401.5456154766605
 20
-138.9817230734806
 30
0.0
 11
-401.3424284071326
 21
-135.8816874513093
 31
0.0
  0
LINE
  5
EC
330
1F
100
AcDbEntity
  8
0
100
AcDbLine
 10
-401.5456154766605
 20
-162.7320184697081
 30
0.0
 11
-401.5456154766605
 21
-138.9817230734806
 31
0.0
  0
LINE
  5
ED
330
1F
100
AcDbEntity
  8
0
100
AcDbLine
 10
-401.5456154766605
 20
-162.7320184697081
 30
0.0
 11
-401.3733200390398
 21
-165.3607388671302
 31
0.0
  0
LINE
  5
EE
330
1F
100
AcDbEntity
  8
0
100
AcDbLine
 10
-401.3733200390398
 20
-165.3607388671302
 30
0.0
 11
-400.859381748888
 21
-167.9444811297339
 31
0.0
  0
LINE
  5
EF
330
1F
100
AcDbEntity
  8
0
100
AcDbLine
 10
-400.859381748888
 20
-167.9444811297339
 30
0.0
 11
-400.012594232836
 21
-170.4390367110568
 31
0.0
  0
LINE
  5
F0
330
1F
100
AcDbEntity
  8
0
100
AcDbLine
 10
-400.012594232836
 20
-170.4390367110568
 30
0.0
 11
-398.8474462600612
 21
-172.8017230734809
 31
0.0
  0
LINE
  5
F1
330
1F
100
AcDbEntity
  8
0
100
AcDbLine
 10
-398.8474462600612
 20
-172.8017230734809
 30
0.0
 11
-397.383873835413
 21
-174.9921139982849
 31
0.0
  0
LINE
  5
F2
330
1F
100
AcDbEntity
  8
0
100
AcDbLine
 10
-397.383873835413
 20
-174.9921139982849
 30
0.0
 11
-395.6469190888604
 21
-176.9727312894547
 31
0.0
  0
LINE
  5
F3
330
1F
100
AcDbEntity
  8
0
100
AcDbLine
 10
-395.6469190888604
 20
-176.9727312894547
 30
0.0
 11
-393.6663017976916
 21
-178.7096860360066
 31
0.0
  0
LINE
  5
F4
330
1F
100
AcDbEntity
  8
0
100
AcDbLine
 10
-393.6663017976916
 20
-178.7096860360066
 30
0.0
 11
-391.475910872887
 21
-180.1732584606525
 31
0.0
  0
LINE
  5
F5
330
1F
100
AcDbEntity
  8
0
100
AcDbLine
 10
-391.475910872887
 20
-180.1732584606525
 30
0.0
 11
-389.1132245104634
 21
-181.3384064334289
 31
0.0
  0
LINE
  5
F6
330
1F
100
AcDbEntity
  8
0
100
AcDbLine
 10
-389.1132245104634
 20
-181.3384064334289
 30
0.0
 11
-386.6186689291418
 21
-182.1851939494801
 31
0.0
  0
LINE
  5
F7
330
1F
100
AcDbEntity
  8
0
100
AcDbLine
 10
-386.6186689291418
 20
-182.1851939494801
 30
0.0
 11
-384.0349266665378
 21
-182.6991322396339
 31
0.0
  0
LINE
  5
F8
330
1F
100
AcDbEntity
  8
0
100
AcDbLine
 10
-384.0349266665378
 20
-182.6991322396339
 30
0.0
 11
-381.4062062691156
 21
-182.8714276772534
 31
0.0
  0
LINE
  5
F9
330
1F
100
AcDbEntity
  8
0
100
AcDbLine
 10
-19.37961547666145
 20
-41.314439073896
 30
0.0
 11
-19.84704513835898
 21
-31.2292003317387
 31
0.0
  0
LINE
  5
FA
330
1F
100
AcDbEntity
  8
0
100
AcDbLine
 10
-19.84704513835898
 20
-31.2292003317387
 30
0.0
 11
-17.37169108286898
 21
-21.44129180770205
 31
0.0
  0
LINE
  5
FB
330
1F
100
AcDbEntity
  8
0
100
AcDbLine
 10
-17.37169108286898
 20
-21.44129180770205
 30
0.0
 11
-12.1660052697308
 21
-12.79077932635985
 31
0.0
  0
LINE
  5
FC
330
1F
100
AcDbEntity
  8
0
100
AcDbLine
 10
-12.1660052697308
 20
-12.79077932635985
 30
0.0
 11
-4.676775563213132
 21
-6.020109538373166
 31
0.0
  0
LINE
  5
FD
330
1F
100
AcDbEntity
  8
0
100
AcDbLine
 10
-4.676775563213132
 20
-6.020109538373166
 30
0.0
 11
4.453220684056561
 21
-1.710388027677205
 31
0.0
  0
LINE
  5
FE
330
1F
100
AcDbEntity
  8
0
100
AcDbLine
 10
4.453220684056561
 20
-1.710388027677205
 30
0.0
 11
14.44038421724785
 21
-0.2315048219171146
 31
0.0
  0
LINE
  5
FF
330
1F
100
AcDbEntity
  8
0
100
AcDbLine
 10
14.44038421724785
 20
-0.2315048219171146
 30
0.0
 11
24.42754777247296
 21
-1.710387878856248
 31
0.0
  0
LINE
  5
100
330
1F
100
AcDbEntity
  8
0
100
AcDbLine
 10
24.42754777247296
 20
-1.710387878856248
 30
0.0
 11
33.55754408396389
 21
-6.020109253505837
 31
0.0
  0
LINE
  5
101
330
1F
100
AcDbEntity
  8
0
100
AcDbLine
 10
33.55754408396389
 20
-6.020109253505837
 30
0.0
 11
41.04677389137193
 21
-12.79077892989368
 31
0.0
  0
LINE
  5
102
330
1F
100
AcDbEntity
  8
0
100
AcDbLine
 10
41.04677389137193
 20
-12.79077892989368
 30
0.0
 11
46.25245983341353
 21
-21.44129133366505
 31
0.0
  0
LINE
  5
103
330
1F
100
AcDbEntity
  8
0
100
AcDbLine
 10
46.25245983341353
 20
-21.44129133366505
 30
0.0
 11
48.72781403475526
 21
-31.229199820816
 31
0.0
  0
LINE
  5
104
330
1F
100
AcDbEntity
  8
0
100
AcDbLine
 10
48.72781403475526
 20
-31.229199820816
 30
0.0
 11
48.26038452333912
 21
-41.31443856993848
 31
0.0
  0
LINE
  5
105
330
1F
100
AcDbEntity
  8
0
100
AcDbLine
 10
-19.37961547666145
 20
50.42115392610383
 30
0.0
 11
-19.33147620761541
 21
40.73407625954189
 31
0.0
  0
LINE
  5
106
330
1F
100
AcDbEntity
  8
0
100
AcDbLine
 10
-19.33147620761541
 20
40.73407625954189
 30
0.0
 11
-16.56450863186139
 21
31.4504518842271
 31
0.0
  0
LINE
  5
107
330
1F
100
AcDbEntity
  8
0
100
AcDbLine
 10
-16.56450863186139
 20
31.4504518842271
 30
0.0
 11
-11.30146949462164
 21
23.31766575971191
 31
0.0
  0
LINE
  5
108
330
1F
100
AcDbEntity
  8
0
100
AcDbLine
 10
-11.30146949462164
 20
23.31766575971191
 30
0.0
 11
-3.966063604890169
 21
16.99045377178915
 31
0.0
  0
LINE
  5
109
330
1F
100
AcDbEntity
  8
0
100
AcDbLine
 10
-3.966063604890169
 20
16.99045377178915
 30
0.0
 11
4.851166829618066
 21
12.97819274189289
 31
0.0
  0
LINE
  5
10A
330
1F
100
AcDbEntity
  8
0
100
AcDbLine
 10
4.851166829618066
 20
12.97819274189289
 30
0.0
 11
14.44038423412722
 21
11.60389267412544
 31
0.0
  0
LINE
  5
10B
330
1F
100
AcDbEntity
  8
0
100
AcDbLine
 10
14.44038423412722
 20
11.60389267412544
 30
0.0
 11
24.02960165911628
 21
12.97819259900352
 31
0.0
  0
LINE
  5
10C
330
1F
100
AcDbEntity
  8
0
100
AcDbLine
 10
24.02960165911628
 20
12.97819259900352
 30
0.0
 11
32.84683215341142
 21
16.99045349751189
 31
0.0
  0
LINE
  5
10D
330
1F
100
AcDbEntity
  8
0
100
AcDbLine
 10
32.84683215341142
 20
16.99045349751189
 30
0.0
 11
40.1822381374256
 21
23.31766537612861
 31
0.0
  0
LINE
  5
10E
330
1F
100
AcDbEntity
  8
0
100
AcDbLine
 10
40.1822381374256
 20
23.31766537612861
 30
0.0
 11
45.44527739585371
 21
31.45045142221786
 31
0.0
  0
LINE
  5
10F
330
1F
100
AcDbEntity
  8
0
100
AcDbLine
 10
45.44527739585371
 20
31.45045142221786
 30
0.0
 11
48.21224510994364
 21
40.7340757563025
 31
0.0
  0
LINE
  5
110
330
1F
100
AcDbEntity
  8
0
100
AcDbLine
 10
48.21224510994364
 20
40.7340757563025
 30
0.0
 11
48.26038452333912
 21
50.42115342214758
 31
0.0
  0
LINE
  5
111
330
1F
100
AcDbEntity
  8
0
100
AcDbLine
 10
-364.5263709867354
 20
170.2926586238025
 30
0.0
 11
-364.7785198721965
 21
172.2079195575612
 31
0.0
  0
LINE
  5
112
330
1F
100
AcDbEntity
  8
0
100
AcDbLine
 10
-364.7785198721965
 20
172.2079195575612
 30
0.0
 11
-365.5177829987306
 21
173.9926586238026
 31
0.0
  0
LINE
  5
113
330
1F
100
AcDbEntity
  8
0
100
AcDbLine
 10
-365.5177829987306
 20
173.9926586238026
 30
0.0
 11
-366.6937808059551
 21
175.525248804583
 31
0.0
  0
LINE
  5
114
330
1F
100
AcDbEntity
  8
0
100
AcDbLine
 10
-366.6937808059551
 20
175.525248804583
 30
0.0
 11
-368.2263709867353
 21
176.7012466118074
 31
0.0
  0
LINE
  5
115
330
1F
100
AcDbEntity
  8
0
100
AcDbLine
 10
-368.2263709867353
 20
176.7012466118074
 30
0.0
 11
-370.011110052977
 21
177.4405097383417
 31
0.0
  0
LINE
  5
116
330
1F
100
AcDbEntity
  8
0
100
AcDbLine
 10
-370.011110052977
 20
177.4405097383417
 30
0.0
 11
-371.9263709867355
 21
177.6926586238026
 31
0.0
  0
LINE
  5
117
330
1F
100
AcDbEntity
  8
0
100
AcDbLine
 10
-371.9263709867355
 20
177.6926586238026
 30
0.0
 11
-373.8416319204941
 21
177.4405097383417
 31
0.0
  0
LINE
  5
118
330
1F
100
AcDbEntity
  8
0
100
AcDbLine
 10
-373.8416319204941
 20
177.4405097383417
 30
0.0
 11
-375.6263709867354
 21
176.7012466118074
 31
0.0
  0
LINE
  5
119
330
1F
100
AcDbEntity
  8
0
100
AcDbLine
 10
-375.6263709867354
 20
176.7012466118074
 30
0.0
 11
-377.158961167516
 21
175.525248804583
 31
0.0
  0
LINE
  5
11A
330
1F
100
AcDbEntity
  8
0
100
AcDbLine
 10
-377.158961167516
 20
175.525248804583
 30
0.0
 11
-378.3349589747405
 21
173.9926586238026
 31
0.0
  0
LINE
  5
11B
330
1F
100
AcDbEntity
  8
0
100
AcDbLine
 10
-378.3349589747405
 20
173.9926586238026
 30
0.0
 11
-379.0742221012746
 21
172.2079195575612
 31
0.0
  0
LINE
  5
11C
330
1F
100
AcDbEntity
  8
0
100
AcDbLine
 10
-379.0742221012746
 20
172.2079195575612
 30
0.0
 11
-379.3263709867357
 21
170.2926586238025
 31
0.0
  0
LINE
  5
11D
330
1F
100
AcDbEntity
  8
0
100
AcDbLine
 10
-379.3263709867357
 20
170.2926586238025
 30
0.0
 11
-379.0742221012746
 21
168.3773976900437
 31
0.0
  0
LINE
  5
11E
330
1F
100
AcDbEntity
  8
0
100
AcDbLine
 10
-379.0742221012746
 20
168.3773976900437
 30
0.0
 11
-378.3349589747405
 21
166.5926586238024
 31
0.0
  0
LINE
  5
11F
330
1F
100
AcDbEntity
  8
0
100
AcDbLine
 10
-378.3349589747405
 20
166.5926586238024
 30
0.0
 11
-377.158961167516
 21
165.060068443022
 31
0.0
  0
LINE
  5
120
330
1F
100
AcDbEntity
  8
0
100
AcDbLine
 10
-377.158961167516
 20
165.060068443022
 30
0.0
 11
-375.6263709867358
 21
163.8840706357976
 31
0.0
  0
LINE
  5
121
330
1F
100
AcDbEntity
  8
0
100
AcDbLine
 10
-375.6263709867358
 20
163.8840706357976
 30
0.0
 11
-373.8416319204941
 21
163.1448075092632
 31
0.0
  0
LINE
  5
122
330
1F
100
AcDbEntity
  8
0
100
AcDbLine
 10
-373.8416319204941
 20
163.1448075092632
 30
0.0
 11
-371.9263709867355
 21
162.8926586238024
 31
0.0
  0
LINE
  5
123
330
1F
100
AcDbEntity
  8
0
100
AcDbLine
 10
-371.9263709867355
 20
162.8926586238024
 30
0.0
 11
-370.011110052977
 21
163.1448075092632
 31
0.0
  0
LINE
  5
124
330
1F
100
AcDbEntity
  8
0
100
AcDbLine
 10
-370.011110052977
 20
163.1448075092632
 30
0.0
 11
-368.2263709867357
 21
163.8840706357976
 31
0.0
  0
LINE
  5
125
330
1F
100
AcDbEntity
  8
0
100
AcDbLine
 10
-368.2263709867357
 20
163.8840706357976
 30
0.0
 11
-366.6937808059551
 21
165.060068443022
 31
0.0
  0
LINE
  5
126
330
1F
100
AcDbEntity
  8
0
100
AcDbLine
 10
-366.6937808059551
 20
165.060068443022
 30
0.0
 11
-365.5177829987306
 21
166.5926586238024
 31
0.0
  0
LINE
  5
127
330
1F
100
AcDbEntity
  8
0
100
AcDbLine
 10
-365.5177829987306
 20
166.5926586238024
 30
0.0
 11
-364.7785198721965
 21
168.3773976900437
 31
0.0
  0
LINE
  5
128
330
1F
100
AcDbEntity
  8
0
100
AcDbLine
 10
-364.7785198721965
 20
168.3773976900437
 30
0.0
 11
-364.5263709867354
 21
170.2926586238025
 31
0.0
  0
LINE
  5
129
330
1F
100
AcDbEntity
  8
0
100
AcDbLine
 10
-364.5263709867354
 20
83.76589733036641
 30
0.0
 11
-364.7785198721965
 21
85.68115826412516
 31
0.0
  0
LINE
  5
12A
330
1F
100
AcDbEntity
  8
0
100
AcDbLine
 10
-364.7785198721965
 20
85.68115826412516
 30
0.0
 11
-365.5177829987306
 21
87.46589733036647
 31
0.0
  0
LINE
  5
12B
330
1F
100
AcDbEntity
  8
0
100
AcDbLine
 10
-365.5177829987306
 20
87.46589733036647
 30
0.0
 11
-366.6937808059551
 21
88.99848751114689
 31
0.0
  0
LINE
  5
12C
330
1F
100
AcDbEntity
  8
0
100
AcDbLine
 10
-366.6937808059551
 20
88.99848751114689
 30
0.0
 11
-368.2263709867353
 21
90.17448531837132
 31
0.0
  0
LINE
  5
12D
330
1F
100
AcDbEntity
  8
0
100
AcDbLine
 10
-368.2263709867353
 20
90.17448531837132
 30
0.0
 11
-370.011110052977
 21
90.91374844490564
 31
0.0
  0
LINE
  5
12E
330
1F
100
AcDbEntity
  8
0
100
AcDbLine
 10
-370.011110052977
 20
90.91374844490564
 30
0.0
 11
-371.9263709867355
 21
91.16589733036653
 31
0.0
  0
LINE
  5
12F
330
1F
100
AcDbEntity
  8
0
100
AcDbLine
 10
-371.9263709867355
 20
91.16589733036653
 30
0.0
 11
-373.8416319204941
 21
90.91374844490564
 31
0.0
  0
LINE
  5
130
330
1F
100
AcDbEntity
  8
0
100
AcDbLine
 10
-373.8416319204941
 20
90.91374844490564
 30
0.0
 11
-375.6263709867354
 21
90.17448531837132
 31
0.0
  0
LINE
  5
131
330
1F
100
AcDbEntity
  8
0
100
AcDbLine
 10
-375.6263709867354
 20
90.17448531837132
 30
0.0
 11
-377.158961167516
 21
88.99848751114689
 31
0.0
  0
LINE
  5
132
330
1F
100
AcDbEntity
  8
0
100
AcDbLine
 10
-377.158961167516
 20
88.99848751114689
 30
0.0
 11
-378.3349589747405
 21
87.46589733036647
 31
0.0
  0
LINE
  5
133
330
1F
100
AcDbEntity
  8
0
100
AcDbLine
 10
-378.3349589747405
 20
87.46589733036647
 30
0.0
 11
-379.0742221012746
 21
85.68115826412516
 31
0.0
  0
LINE
  5
134
330
1F
100
AcDbEntity
  8
0
100
AcDbLine
 10
-379.0742221012746
 20
85.68115826412516
 30
0.0
 11
-379.3263709867357
 21
83.76589733036641
 31
0.0
  0
LINE
  5
135
330
1F
100
AcDbEntity
  8
0
100
AcDbLine
 10
-379.3263709867357
 20
83.76589733036641
 30
0.0
 11
-379.0742221012746
 21
81.85063639660765
 31
0.0
  0
LINE
  5
136
330
1F
100
AcDbEntity
  8
0
100
AcDbLine
 10
-379.0742221012746
 20
81.85063639660765
 30
0.0
 11
-378.3349589747405
 21
80.06589733036635
 31
0.0
  0
LINE
  5
137
330
1F
100
AcDbEntity
  8
0
100
AcDbLine
 10
-378.3349589747405
 20
80.06589733036635
 30
0.0
 11
-377.158961167516
 21
78.53330714958594
 31
0.0
  0
LINE
  5
138
330
1F
100
AcDbEntity
  8
0
100
AcDbLine
 10
-377.158961167516
 20
78.53330714958594
 30
0.0
 11
-375.6263709867358
 21
77.3573093423615
 31
0.0
  0
LINE
  5
139
330
1F
100
AcDbEntity
  8
0
100
AcDbLine
 10
-375.6263709867358
 20
77.3573093423615
 30
0.0
 11
-373.8416319204941
 21
76.61804621582719
 31
0.0
  0
LINE
  5
13A
330
1F
100
AcDbEntity
  8
0
100
AcDbLine
 10
-373.8416319204941
 20
76.61804621582719
 30
0.0
 11
-371.9263709867355
 21
76.3658973303663
 31
0.0
  0
LINE
  5
13B
330
1F
100
AcDbEntity
  8
0
100
AcDbLine
 10
-371.9263709867355
 20
76.3658973303663
 30
0.0
 11
-370.011110052977
 21
76.61804621582719
 31
0.0
  0
LINE
  5
13C
330
1F
100
AcDbEntity
  8
0
100
AcDbLine
 10
-370.011110052977
 20
76.61804621582719
 30
0.0
 11
-368.2263709867357
 21
77.3573093423615
 31
0.0
  0
LINE
  5
13D
330
1F
100
AcDbEntity
  8
0
100
AcDbLine
 10
-368.2263709867357
 20
77.3573093423615
 30
0.0
 11
-366.6937808059551
 21
78.53330714958594
 31
0.0
  0
LINE
  5
13E
330
1F
100
AcDbEntity
  8
0
100
AcDbLine
 10
-366.6937808059551
 20
78.53330714958594
 30
0.0
 11
-365.5177829987306
 21
80.06589733036635
 31
0.0
  0
LINE
  5
13F
330
1F
100
AcDbEntity
  8
0
100
AcDbLine
 10
-365.5177829987306
 20
80.06589733036635
 30
0.0
 11
-364.7785198721965
 21
81.85063639660765
 31
0.0
  0
LINE
  5
140
330
1F
100
AcDbEntity
  8
0
100
AcDbLine
 10
-364.7785198721965
 20
81.85063639660765
 30
0.0
 11
-364.5263709867354
 21
83.76589733036641
 31
0.0
  0
LINE
  5
141
330
1F
100
AcDbEntity
  8
0
100
AcDbLine
 10
-371.9263709867355
 20
-67.25918247815792
 30
0.0
 11
-373.8416319204941
 21
-67.51133136361882
 31
0.0
  0
LINE
  5
142
330
1F
100
AcDbEntity
  8
0
100
AcDbLine
 10
-373.8416319204941
 20
-67.51133136361882
 30
0.0
 11
-375.6263709867354
 21
-68.25059449015313
 31
0.0
  0
LINE
  5
143
330
1F
100
AcDbEntity
  8
0
100
AcDbLine
 10
-375.6263709867354
 20
-68.25059449015313
 30
0.0
 11
-377.158961167516
 21
-69.42659229737738
 31
0.0
  0
LINE
  5
144
330
1F
100
AcDbEntity
  8
0
100
AcDbLine
 10
-377.158961167516
 20
-69.42659229737738
 30
0.0
 11
-378.3349589747405
 21
-70.9591824781578
 31
0.0
  0
LINE
  5
145
330
1F
100
AcDbEntity
  8
0
100
AcDbLine
 10
-378.3349589747405
 20
-70.9591824781578
 30
0.0
 11
-379.0742221012746
 21
-72.74392154439929
 31
0.0
  0
LINE
  5
146
330
1F
100
AcDbEntity
  8
0
100
AcDbLine
 10
-379.0742221012746
 20
-72.74392154439929
 30
0.0
 11
-379.3263709867357
 21
-74.65918247815786
 31
0.0
  0
LINE
  5
147
330
1F
100
AcDbEntity
  8
0
100
AcDbLine
 10
-379.3263709867357
 20
-74.65918247815786
 30
0.0
 11
-379.0742221012746
 21
-76.57444341191643
 31
0.0
  0
LINE
  5
148
330
1F
100
AcDbEntity
  8
0
100
AcDbLine
 10
-379.0742221012746
 20
-76.57444341191643
 30
0.0
 11
-378.3349589747405
 21
-78.35918247815775
 31
0.0
  0
LINE
  5
149
330
1F
100
AcDbEntity
  8
0
100
AcDbLine
 10
-378.3349589747405
 20
-78.35918247815775
 30
0.0
 11
-377.158961167516
 21
-79.89177265893834
 31
0.0
  0
LINE
  5
14A
330
1F
100
AcDbEntity
  8
0
100
AcDbLine
 10
-377.158961167516
 20
-79.89177265893834
 30
0.0
 11
-375.6263709867354
 21
-81.06777046616259
 31
0.0
  0
LINE
  5
14B
330
1F
100
AcDbEntity
  8
0
100
AcDbLine
 10
-375.6263709867354
 20
-81.06777046616259
 30
0.0
 11
-373.8416319204941
 21
-81.80703359269691
 31
0.0
  0
LINE
  5
14C
330
1F
100
AcDbEntity
  8
0
100
AcDbLine
 10
-373.8416319204941
 20
-81.80703359269691
 30
0.0
 11
-371.9263709867355
 21
-82.05918247815781
 31
0.0
  0
LINE
  5
14D
330
1F
100
AcDbEntity
  8
0
100
AcDbLine
 10
-371.9263709867355
 20
-82.05918247815781
 30
0.0
 11
-370.011110052977
 21
-81.80703359269691
 31
0.0
  0
LINE
  5
14E
330
1F
100
AcDbEntity
  8
0
100
AcDbLine
 10
-370.011110052977
 20
-81.80703359269691
 30
0.0
 11
-368.2263709867357
 21
-81.06777046616259
 31
0.0
  0
LINE
  5
14F
330
1F
100
AcDbEntity
  8
0
100
AcDbLine
 10
-368.2263709867357
 20
-81.06777046616259
 30
0.0
 11
-366.6937808059551
 21
-79.89177265893834
 31
0.0
  0
LINE
  5
150
330
1F
100
AcDbEntity
  8
0
100
AcDbLine
 10
-366.6937808059551
 20
-79.89177265893834
 30
0.0
 11
-365.5177829987306
 21
-78.35918247815792
 31
0.0
  0
LINE
  5
151
330
1F
100
AcDbEntity
  8
0
100
AcDbLine
 10
-365.5177829987306
 20
-78.35918247815792
 30
0.0
 11
-364.7785198721965
 21
-76.57444341191643
 31
0.0
  0
LINE
  5
152
330
1F
100
AcDbEntity
  8
0
100
AcDbLine
 10
-364.7785198721965
 20
-76.57444341191643
 30
0.0
 11
-364.5263709867354
 21
-74.65918247815786
 31
0.0
  0
LINE
  5
153
330
1F
100
AcDbEntity
  8
0
100
AcDbLine
 10
-364.5263709867354
 20
-74.65918247815786
 30
0.0
 11
-364.7785198721965
 21
-72.74392154439929
 31
0.0
  0
LINE
  5
154
330
1F
100
AcDbEntity
  8
0
100
AcDbLine
 10
-364.7785198721965
 20
-72.74392154439929
 30
0.0
 11
-365.5177829987306
 21
-70.95918247815798
 31
0.0
  0
LINE
  5
155
330
1F
100
AcDbEntity
  8
0
100
AcDbLine
 10
-365.5177829987306
 20
-70.95918247815798
 30
0.0
 11
-366.6937808059551
 21
-69.42659229737738
 31
0.0
  0
LINE
  5
156
330
1F
100
AcDbEntity
  8
0
100
AcDbLine
 10
-366.6937808059551
 20
-69.42659229737738
 30
0.0
 11
-368.2263709867357
 21
-68.25059449015313
 31
0.0
  0
LINE
  5
157
330
1F
100
AcDbEntity
  8
0
100
AcDbLine
 10
-368.2263709867357
 20
-68.25059449015313
 30
0.0
 11
-370.011110052977
 21
-67.51133136361882
 31
0.0
  0
LINE
  5
158
330
1F
100
AcDbEntity
  8
0
100
AcDbLine
 10
-370.011110052977
 20
-67.51133136361882
 30
0.0
 11
-371.9263709867355
 21
-67.25918247815792
 31
0.0
  0
LINE
  5
159
330
1F
100
AcDbEntity
  8
0
100
AcDbLine
 10
-364.5263709867354
 20
-150.8568707715943
 30
0.0
 11
-364.7785198721965
 21
-148.9416098378356
 31
0.0
  0
LINE
  5
15A
330
1F
100
AcDbEntity
  8
0
100
AcDbLine
 10
-364.7785198721965
 20
-148.9416098378356
 30
0.0
 11
-365.5177829987306
 21
-147.1568707715942
 31
0.0
  0
LINE
  5
15B
330
1F
100
AcDbEntity
  8
0
100
AcDbLine
 10
-365.5177829987306
 20
-147.1568707715942
 30
0.0
 11
-366.6937808059551
 21
-145.6242805908137
 31
0.0
  0
LINE
  5
15C
330
1F
100
AcDbEntity
  8
0
100
AcDbLine
 10
-366.6937808059551
 20
-145.6242805908137
 30
0.0
 11
-368.2263709867353
 21
-144.4482827835893
 31
0.0
  0
LINE
  5
15D
330
1F
100
AcDbEntity
  8
0
100
AcDbLine
 10
-368.2263709867353
 20
-144.4482827835893
 30
0.0
 11
-370.011110052977
 21
-143.7090196570551
 31
0.0
  0
LINE
  5
15E
330
1F
100
AcDbEntity
  8
0
100
AcDbLine
 10
-370.011110052977
 20
-143.7090196570551
 30
0.0
 11
-371.9263709867355
 21
-143.4568707715941
 31
0.0
  0
LINE
  5
15F
330
1F
100
AcDbEntity
  8
0
100
AcDbLine
 10
-371.9263709867355
 20
-143.4568707715941
 30
0.0
 11
-373.8416319204941
 21
-143.7090196570551
 31
0.0
  0
LINE
  5
160
330
1F
100
AcDbEntity
  8
0
100
AcDbLine
 10
-373.8416319204941
 20
-143.7090196570551
 30
0.0
 11
-375.6263709867354
 21
-144.4482827835893
 31
0.0
  0
LINE
  5
161
330
1F
100
AcDbEntity
  8
0
100
AcDbLine
 10
-375.6263709867354
 20
-144.4482827835893
 30
0.0
 11
-377.158961167516
 21
-145.6242805908137
 31
0.0
  0
LINE
  5
162
330
1F
100
AcDbEntity
  8
0
100
AcDbLine
 10
-377.158961167516
 20
-145.6242805908137
 30
0.0
 11
-378.3349589747405
 21
-147.1568707715942
 31
0.0
  0
LINE
  5
163
330
1F
100
AcDbEntity
  8
0
100
AcDbLine
 10
-378.3349589747405
 20
-147.1568707715942
 30
0.0
 11
-379.0742221012746
 21
-148.9416098378356
 31
0.0
  0
LINE
  5
164
330
1F
100
AcDbEntity
  8
0
100
AcDbLine
 10
-379.0742221012746
 20
-148.9416098378356
 30
0.0
 11
-379.3263709867357
 21
-150.8568707715943
 31
0.0
  0
LINE
  5
165
330
1F
100
AcDbEntity
  8
0
100
AcDbLine
 10
-379.3263709867357
 20
-150.8568707715943
 30
0.0
 11
-379.0742221012746
 21
-152.7721317053529
 31
0.0
  0
LINE
  5
166
330
1F
100
AcDbEntity
  8
0
100
AcDbLine
 10
-379.0742221012746
 20
-152.7721317053529
 30
0.0
 11
-378.3349589747405
 21
-154.5568707715943
 31
0.0
  0
LINE
  5
167
330
1F
100
AcDbEntity
  8
0
100
AcDbLine
 10
-378.3349589747405
 20
-154.5568707715943
 30
0.0
 11
-377.158961167516
 21
-156.0894609523748
 31
0.0
  0
LINE
  5
168
330
1F
100
AcDbEntity
  8
0
100
AcDbLine
 10
-377.158961167516
 20
-156.0894609523748
 30
0.0
 11
-375.6263709867358
 21
-157.2654587595992
 31
0.0
  0
LINE
  5
169
330
1F
100
AcDbEntity
  8
0
100
AcDbLine
 10
-375.6263709867358
 20
-157.2654587595992
 30
0.0
 11
-373.8416319204941
 21
-158.0047218861335
 31
0.0
  0
LINE
  5
16A
330
1F
100
AcDbEntity
  8
0
100
AcDbLine
 10
-373.8416319204941
 20
-158.0047218861335
 30
0.0
 11
-371.9263709867355
 21
-158.2568707715944
 31
0.0
  0
LINE
  5
16B
330
1F
100
AcDbEntity
  8
0
100
AcDbLine
 10
-371.9263709867355
 20
-158.2568707715944
 30
0.0
 11
-370.011110052977
 21
-158.0047218861335
 31
0.0
  0
LINE
  5
16C
330
1F
100
AcDbEntity
  8
0
100
AcDbLine
 10
-370.011110052977
 20
-158.0047218861335
 30
0.0
 11
-368.2263709867357
 21
-157.2654587595993
 31
0.0
  0
LINE
  5
16D
330
1F
100
AcDbEntity
  8
0
100
AcDbLine
 10
-368.2263709867357
 20
-157.2654587595993
 30
0.0
 11
-366.6937808059551
 21
-156.0894609523748
 31
0.0
  0
LINE
  5
16E
330
1F
100
AcDbEntity
  8
0
100
AcDbLine
 10
-366.6937808059551
 20
-156.0894609523748
 30
0.0
 11
-365.5177829987306
 21
-154.5568707715943
 31
0.0
  0
LINE
  5
16F
330
1F
100
AcDbEntity
  8
0
100
AcDbLine
 10
-365.5177829987306
 20
-154.5568707715943
 30
0.0
 11
-364.7785198721965
 21
-152.7721317053529
 31
0.0
  0
LINE
  5
170
330
1F
100
AcDbEntity
  8
0
100
AcDbLine
 10
-364.7785198721965
 20
-152.7721317053529
 30
0.0
 11
-364.5263709867354
 21
-150.8568707715943
 31
0.0
  0
LINE
  5
171
330
1F
100
AcDbEntity
  8
0
100
AcDbLine
 10
14.44038452333865
 20
40.91115392610408
 30
0.0
 11
12.52512358958008
 21
40.65900504064318
 31
0.0
  0
LINE
  5
172
330
1F
100
AcDbEntity
  8
0
100
AcDbLine
 10
12.52512358958008
 20
40.65900504064318
 30
0.0
 11
10.74038452333877
 21
39.91974191410886
 31
0.0
  0
LINE
  5
173
330
1F
100
AcDbEntity
  8
0
100
AcDbLine
 10
10.74038452333877
 20
39.91974191410886
 30
0.0
 11
9.207794342558179
 21
38.74374410688461
 31
0.0
  0
LINE
  5
174
330
1F
100
AcDbEntity
  8
0
100
AcDbLine
 10
9.207794342558179
 20
38.74374410688461
 30
0.0
 11
8.031796535333745
 21
37.2111539261042
 31
0.0
  0
LINE
  5
175
330
1F
100
AcDbEntity
  8
0
100
AcDbLine
 10
8.031796535333745
 20
37.2111539261042
 30
0.0
 11
7.292533408799607
 21
35.42641485986271
 31
0.0
  0
LINE
  5
176
330
1F
100
AcDbEntity
  8
0
100
AcDbLine
 10
7.292533408799607
 20
35.42641485986271
 30
0.0
 11
7.040384523338892
 21
33.51115392610414
 31
0.0
  0
LINE
  5
177
330
1F
100
AcDbEntity
  8
0
100
AcDbLine
 10
7.040384523338892
 20
33.51115392610414
 30
0.0
 11
7.292533408799607
 21
31.59589299234556
 31
0.0
  0
LINE
  5
178
330
1F
100
AcDbEntity
  8
0
100
AcDbLine
 10
7.292533408799607
 20
31.59589299234556
 30
0.0
 11
8.031796535333745
 21
29.81115392610426
 31
0.0
  0
LINE
  5
179
330
1F
100
AcDbEntity
  8
0
100
AcDbLine
 10
8.031796535333745
 20
29.81115392610426
 30
0.0
 11
9.207794342558179
 21
28.27856374532366
 31
0.0
  0
LINE
  5
17A
330
1F
100
AcDbEntity
  8
0
100
AcDbLine
 10
9.207794342558179
 20
28.27856374532366
 30
0.0
 11
10.74038452333877
 21
27.10256593809941
 31
0.0
  0
LINE
  5
17B
330
1F
100
AcDbEntity
  8
0
100
AcDbLine
 10
10.74038452333877
 20
27.10256593809941
 30
0.0
 11
12.52512358958008
 21
26.36330281156509
 31
0.0
  0
LINE
  5
17C
330
1F
100
AcDbEntity
  8
0
100
AcDbLine
 10
12.52512358958008
 20
26.36330281156509
 30
0.0
 11
14.44038452333865
 21
26.11115392610419
 31
0.0
  0
LINE
  5
17D
330
1F
100
AcDbEntity
  8
0
100
AcDbLine
 10
14.44038452333865
 20
26.11115392610419
 30
0.0
 11
16.35564545709722
 21
26.36330281156509
 31
0.0
  0
LINE
  5
17E
330
1F
100
AcDbEntity
  8
0
100
AcDbLine
 10
16.35564545709722
 20
26.36330281156509
 30
0.0
 11
18.14038452333853
 21
27.10256593809941
 31
0.0
  0
LINE
  5
17F
330
1F
100
AcDbEntity
  8
0
100
AcDbLine
 10
18.14038452333853
 20
27.10256593809941
 30
0.0
 11
19.67297470411913
 21
28.27856374532366
 31
0.0
  0
LINE
  5
180
330
1F
100
AcDbEntity
  8
0
100
AcDbLine
 10
19.67297470411913
 20
28.27856374532366
 30
0.0
 11
20.84897251134356
 21
29.81115392610408
 31
0.0
  0
LINE
  5
181
330
1F
100
AcDbEntity
  8
0
100
AcDbLine
 10
20.84897251134356
 20
29.81115392610408
 30
0.0
 11
21.5882356378777
 21
31.59589299234556
 31
0.0
  0
LINE
  5
182
330
1F
100
AcDbEntity
  8
0
100
AcDbLine
 10
21.5882356378777
 20
31.59589299234556
 30
0.0
 11
21.84038452333841
 21
33.51115392610414
 31
0.0
  0
LINE
  5
183
330
1F
100
AcDbEntity
  8
0
100
AcDbLine
 10
21.84038452333841
 20
33.51115392610414
 30
0.0
 11
21.5882356378777
 21
35.42641485986271
 31
0.0
  0
LINE
  5
184
330
1F
100
AcDbEntity
  8
0
100
AcDbLine
 10
21.5882356378777
 20
35.42641485986271
 30
0.0
 11
20.84897251134356
 21
37.21115392610402
 31
0.0
  0
LINE
  5
185
330
1F
100
AcDbEntity
  8
0
100
AcDbLine
 10
20.84897251134356
 20
37.21115392610402
 30
0.0
 11
19.67297470411913
 21
38.74374410688461
 31
0.0
  0
LINE
  5
186
330
1F
100
AcDbEntity
  8
0
100
AcDbLine
 10
19.67297470411913
 20
38.74374410688461
 30
0.0
 11
18.14038452333853
 21
39.91974191410886
 31
0.0
  0
LINE
  5
187
330
1F
100
AcDbEntity
  8
0
100
AcDbLine
 10
18.14038452333853
 20
39.91974191410886
 30
0.0
 11
16.35564545709722
 21
40.65900504064318
 31
0.0
  0
LINE
  5
188
330
1F
100
AcDbEntity
  8
0
100
AcDbLine
 10
16.35564545709722
 20
40.65900504064318
 30
0.0
 11
14.44038452333865
 21
40.91115392610408
 31
0.0
  0
LINE
  5
189
330
1F
100
AcDbEntity
  8
0
100
AcDbLine
 10
14.44038452333865
 20
-31.80443907389625
 30
0.0
 11
12.52512358958008
 21
-31.55229018843535
 31
0.0
  0
LINE
  5
18A
330
1F
100
AcDbEntity
  8
0
100
AcDbLine
 10
12.52512358958008
 20
-31.55229018843535
 30
0.0
 11
10.74038452333877
 21
-30.81302706190104
 31
0.0
  0
LINE
  5
18B
330
1F
100
AcDbEntity
  8
0
100
AcDbLine
 10
10.74038452333877
 20
-30.81302706190104
 30
0.0
 11
9.207794342558179
 21
-29.63702925467678
 31
0.0
  0
LINE
  5
18C
330
1F
100
AcDbEntity
  8
0
100
AcDbLine
 10
9.207794342558179
 20
-29.63702925467678
 30
0.0
 11
8.031796535333745
 21
-28.10443907389637
 31
0.0
  0
LINE
  5
18D
330
1F
100
AcDbEntity
  8
0
100
AcDbLine
 10
8.031796535333745
 20
-28.10443907389637
 30
0.0
 11
7.292533408799607
 21
-26.31970000765488
 31
0.0
  0
LINE
  5
18E
330
1F
100
AcDbEntity
  8
0
100
AcDbLine
 10
7.292533408799607
 20
-26.31970000765488
 30
0.0
 11
7.040384523338892
 21
-24.40443907389631
 31
0.0
  0
LINE
  5
18F
330
1F
100
AcDbEntity
  8
0
100
AcDbLine
 10
7.040384523338892
 20
-24.40443907389631
 30
0.0
 11
7.292533408799607
 21
-22.48917814013774
 31
0.0
  0
LINE
  5
190
330
1F
100
AcDbEntity
  8
0
100
AcDbLine
 10
7.292533408799607
 20
-22.48917814013774
 30
0.0
 11
8.031796535333745
 21
-20.70443907389643
 31
0.0
  0
LINE
  5
191
330
1F
100
AcDbEntity
  8
0
100
AcDbLine
 10
8.031796535333745
 20
-20.70443907389643
 30
0.0
 11
9.207794342558179
 21
-19.17184889311583
 31
0.0
  0
LINE
  5
192
330
1F
100
AcDbEntity
  8
0
100
AcDbLine
 10
9.207794342558179
 20
-19.17184889311583
 30
0.0
 11
10.74038452333877
 21
-17.99585108589158
 31
0.0
  0
LINE
  5
193
330
1F
100
AcDbEntity
  8
0
100
AcDbLine
 10
10.74038452333877
 20
-17.99585108589158
 30
0.0
 11
12.52512358958008
 21
-17.25658795935726
 31
0.0
  0
LINE
  5
194
330
1F
100
AcDbEntity
  8
0
100
AcDbLine
 10
12.52512358958008
 20
-17.25658795935726
 30
0.0
 11
14.44038452333865
 21
-17.00443907389637
 31
0.0
  0
LINE
  5
195
330
1F
100
AcDbEntity
  8
0
100
AcDbLine
 10
14.44038452333865
 20
-17.00443907389637
 30
0.0
 11
16.35564545709722
 21
-17.25658795935726
 31
0.0
  0
LINE
  5
196
330
1F
100
AcDbEntity
  8
0
100
AcDbLine
 10
16.35564545709722
 20
-17.25658795935726
 30
0.0
 11
18.14038452333853
 21
-17.99585108589158
 31
0.0
  0
LINE
  5
197
330
1F
100
AcDbEntity
  8
0
100
AcDbLine
 10
18.14038452333853
 20
-17.99585108589158
 30
0.0
 11
19.67297470411913
 21
-19.17184889311583
 31
0.0
  0
LINE
  5
198
330
1F
100
AcDbEntity
  8
0
100
AcDbLine
 10
19.67297470411913
 20
-19.17184889311583
 30
0.0
 11
20.84897251134356
 21
-20.70443907389625
 31
0.0
  0
LINE
  5
199
330
1F
100
AcDbEntity
  8
0
100
AcDbLine
 10
20.84897251134356
 20
-20.70443907389625
 30
0.0
 11
21.5882356378777
 21
-22.48917814013774
 31
0.0
  0
LINE
  5
19A
330
1F
100
AcDbEntity
  8
0
100
AcDbLine
 10
21.5882356378777
 20
-22.48917814013774
 30
0.0
 11
21.84038452333841
 21
-24.40443907389631
 31
0.0
  0
LINE
  5
19B
330
1F
100
AcDbEntity
  8
0
100
AcDbLine
 10
21.84038452333841
 20
-24.40443907389631
 30
0.0
 11
21.5882356378777
 21
-26.31970000765488
 31
0.0
  0
LINE
  5
19C
330
1F
100
AcDbEntity
  8
0
100
AcDbLine
 10
21.5882356378777
 20
-26.31970000765488
 30
0.0
 11
20.84897251134356
 21
-28.10443907389619
 31
0.0
  0
LINE
  5
19D
330
1F
100
AcDbEntity
  8
0
100
AcDbLine
 10
20.84897251134356
 20
-28.10443907389619
 30
0.0
 11
19.67297470411913
 21
-29.63702925467678
 31
0.0
  0
LINE
  5
19E
330
1F
100
AcDbEntity
  8
0
100
AcDbLine
 10
19.67297470411913
 20
-29.63702925467678
 30
0.0
 11
18.14038452333853
 21
-30.81302706190104
 31
0.0
  0
LINE
  5
19F
330
1F
100
AcDbEntity
  8
0
100
AcDbLine
 10
18.14038452333853
 20
-30.81302706190104
 30
0.0
 11
16.35564545709722
 21
-31.55229018843535
 31
0.0
  0
LINE
  5
1A0
330
1F
100
AcDbEntity
  8
0
100
AcDbLine
 10
16.35564545709722
 20
-31.55229018843535
 30
0.0
 11
14.44038452333865
 21
-31.80443907389625
 31
0.0
  0
LINE
  5
1A1
330
1F
100
AcDbEntity
  8
0
100
AcDbLine
 10
31.95480617990469
 20
168.4872155294618
 30
0.0
 11
31.56295318222904
 21
171.4636345481408
 31
0.0
  0
LINE
  5
1A2
330
1F
100
AcDbEntity
  8
0
100
AcDbLine
 10
31.56295318222904
 20
171.4636345481408
 30
0.0
 11
30.41409832342579
 21
174.2372155294617
 31
0.0
  0
LINE
  5
1A3
330
1F
100
AcDbEntity
  8
0
100
AcDbLine
 10
30.41409832342579
 20
174.2372155294617
 30
0.0
 11
28.58653416355017
 21
176.618943513107
 31
0.0
  0
LINE
  5
1A4
330
1F
100
AcDbEntity
  8
0
100
AcDbLine
 10
28.58653416355017
 20
176.618943513107
 30
0.0
 11
26.20480617990492
 21
178.4465076729828
 31
0.0
  0
LINE
  5
1A5
330
1F
100
AcDbEntity
  8
0
100
AcDbLine
 10
26.20480617990492
 20
178.4465076729828
 30
0.0
 11
23.43122519858365
 21
179.595362531786
 31
0.0
  0
LINE
  5
1A6
330
1F
100
AcDbEntity
  8
0
100
AcDbLine
 10
23.43122519858365
 20
179.595362531786
 30
0.0
 11
20.45480617990478
 21
179.9872155294617
 31
0.0
  0
LINE
  5
1A7
330
1F
100
AcDbEntity
  8
0
100
AcDbLine
 10
20.45480617990478
 20
179.9872155294617
 30
0.0
 11
17.47838716122591
 21
179.595362531786
 31
0.0
  0
LINE
  5
1A8
330
1F
100
AcDbEntity
  8
0
100
AcDbLine
 10
17.47838716122591
 20
179.595362531786
 30
0.0
 11
14.70480617990501
 21
178.4465076729828
 31
0.0
  0
LINE
  5
1A9
330
1F
100
AcDbEntity
  8
0
100
AcDbLine
 10
14.70480617990501
 20
178.4465076729828
 30
0.0
 11
12.3230781962594
 21
176.618943513107
 31
0.0
  0
LINE
  5
1AA
330
1F
100
AcDbEntity
  8
0
100
AcDbLine
 10
12.3230781962594
 20
176.618943513107
 30
0.0
 11
10.49551403638377
 21
174.2372155294617
 31
0.0
  0
LINE
  5
1AB
330
1F
100
AcDbEntity
  8
0
100
AcDbLine
 10
10.49551403638377
 20
174.2372155294617
 30
0.0
 11
9.346659177580525
 21
171.4636345481408
 31
0.0
  0
LINE
  5
1AC
330
1F
100
AcDbEntity
  8
0
100
AcDbLine
 10
9.346659177580525
 20
171.4636345481408
 30
0.0
 11
8.95480617990487
 21
168.4872155294618
 31
0.0
  0
LINE
  5
1AD
330
1F
100
AcDbEntity
  8
0
100
AcDbLine
 10
8.95480617990487
 20
168.4872155294618
 30
0.0
 11
9.346659177580525
 21
165.5107965107829
 31
0.0
  0
LINE
  5
1AE
330
1F
100
AcDbEntity
  8
0
100
AcDbLine
 10
9.346659177580525
 20
165.5107965107829
 30
0.0
 11
10.49551403638377
 21
162.7372155294618
 31
0.0
  0
LINE
  5
1AF
330
1F
100
AcDbEntity
  8
0
100
AcDbLine
 10
10.49551403638377
 20
162.7372155294618
 30
0.0
 11
12.3230781962594
 21
160.3554875458166
 31
0.0
  0
LINE
  5
1B0
330
1F
100
AcDbEntity
  8
0
100
AcDbLine
 10
12.3230781962594
 20
160.3554875458166
 30
0.0
 11
14.70480617990464
 21
158.5279233859408
 31
0.0
  0
LINE
  5
1B1
330
1F
100
AcDbEntity
  8
0
100
AcDbLine
 10
14.70480617990464
 20
158.5279233859408
 30
0.0
 11
17.47838716122591
 21
157.3790685271375
 31
0.0
  0
LINE
  5
1B2
330
1F
100
AcDbEntity
  8
0
100
AcDbLine
 10
17.47838716122591
 20
157.3790685271375
 30
0.0
 11
20.45480617990478
 21
156.9872155294619
 31
0.0
  0
LINE
  5
1B3
330
1F
100
AcDbEntity
  8
0
100
AcDbLine
 10
20.45480617990478
 20
156.9872155294619
 30
0.0
 11
23.43122519858365
 21
157.3790685271375
 31
0.0
  0
LINE
  5
1B4
330
1F
100
AcDbEntity
  8
0
100
AcDbLine
 10
23.43122519858365
 20
157.3790685271375
 30
0.0
 11
26.20480617990455
 21
158.5279233859408
 31
0.0
  0
LINE
  5
1B5
330
1F
100
AcDbEntity
  8
0
100
AcDbLine
 10
26.20480617990455
 20
158.5279233859408
 30
0.0
 11
28.58653416355017
 21
160.3554875458166
 31
0.0
  0
LINE
  5
1B6
330
1F
100
AcDbEntity
  8
0
100
AcDbLine
 10
28.58653416355017
 20
160.3554875458166
 30
0.0
 11
30.41409832342579
 21
162.7372155294618
 31
0.0
  0
LINE
  5
1B7
330
1F
100
AcDbEntity
  8
0
100
AcDbLine
 10
30.41409832342579
 20
162.7372155294618
 30
0.0
 11
31.56295318222904
 21
165.5107965107827
 31
0.0
  0
LINE
  5
1B8
330
1F
100
AcDbEntity
  8
0
100
AcDbLine
 10
31.56295318222904
 20
165.5107965107827
 30
0.0
 11
31.95480617990469
 21
168.4872155294618
 31
0.0
  0
LINE
  5
1B9
330
1F
100
AcDbEntity
  8
0
100
AcDbLine
 10
77.68438452333969
 20
94.20044606962549
 30
0.0
 11
74.91080354201878
 21
95.34930092842873
 31
0.0
  0
LINE
  5
1BA
330
1F
100
AcDbEntity
  8
0
100
AcDbLine
 10
74.91080354201878
 20
95.34930092842873
 30
0.0
 11
71.93438452333956
 21
95.74115392610439
 31
0.0
  0
LINE
  5
1BB
330
1F
100
AcDbEntity
  8
0
100
AcDbLine
 10
71.93438452333956
 20
95.74115392610439
 30
0.0
 11
68.95796550466068
 21
95.34930092842855
 31
0.0
  0
LINE
  5
1BC
330
1F
100
AcDbEntity
  8
0
100
AcDbLine
 10
68.95796550466068
 20
95.34930092842855
 30
0.0
 11
66.18438452333977
 21
94.2004460696253
 31
0.0
  0
LINE
  5
1BD
330
1F
100
AcDbEntity
  8
0
100
AcDbLine
 10
66.18438452333977
 20
94.2004460696253
 30
0.0
 11
63.80265653969453
 21
92.3728819097495
 31
0.0
  0
LINE
  5
1BE
330
1F
100
AcDbEntity
  8
0
100
AcDbLine
 10
63.80265653969453
 20
92.3728819097495
 30
0.0
 11
61.97509237981855
 21
89.99115392610408
 31
0.0
  0
LINE
  5
1BF
330
1F
100
AcDbEntity
  8
0
100
AcDbLine
 10
61.97509237981855
 20
89.99115392610408
 30
0.0
 11
60.82623752101566
 21
87.21757294478299
 31
0.0
  0
LINE
  5
1C0
330
1F
100
AcDbEntity
  8
0
100
AcDbLine
 10
60.82623752101566
 20
87.21757294478299
 30
0.0
 11
60.43438452334
 21
84.24115392610412
 31
0.0
  0
LINE
  5
1C1
330
1F
100
AcDbEntity
  8
0
100
AcDbLine
 10
60.43438452334
 20
84.24115392610412
 30
0.0
 11
60.82623752101566
 21
81.26473490742507
 31
0.0
  0
LINE
  5
1C2
330
1F
100
AcDbEntity
  8
0
100
AcDbLine
 10
60.82623752101566
 20
81.26473490742507
 30
0.0
 11
61.9750923798189
 21
78.49115392610398
 31
0.0
  0
LINE
  5
1C3
330
1F
100
AcDbEntity
  8
0
100
AcDbLine
 10
61.9750923798189
 20
78.49115392610398
 30
0.0
 11
63.80265653969489
 21
76.10942594245873
 31
0.0
  0
LINE
  5
1C4
330
1F
100
AcDbEntity
  8
0
100
AcDbLine
 10
63.80265653969489
 20
76.10942594245873
 30
0.0
 11
66.18438452334014
 21
74.2818617825831
 31
0.0
  0
LINE
  5
1C5
330
1F
100
AcDbEntity
  8
0
100
AcDbLine
 10
66.18438452334014
 20
74.2818617825831
 30
0.0
 11
68.95796550466105
 21
73.13300692377986
 31
0.0
  0
LINE
  5
1C6
330
1F
100
AcDbEntity
  8
0
100
AcDbLine
 10
68.95796550466105
 20
73.13300692377986
 30
0.0
 11
71.93438452334027
 21
72.7411539261042
 31
0.0
  0
LINE
  5
1C7
330
1F
100
AcDbEntity
  8
0
100
AcDbLine
 10
71.93438452334027
 20
72.7411539261042
 30
0.0
 11
74.91080354201915
 21
73.13300692378004
 31
0.0
  0
LINE
  5
1C8
330
1F
100
AcDbEntity
  8
0
100
AcDbLine
 10
74.91080354201915
 20
73.13300692378004
 30
0.0
 11
77.68438452334004
 21
74.28186178258329
 31
0.0
  0
LINE
  5
1C9
330
1F
100
AcDbEntity
  8
0
100
AcDbLine
 10
77.68438452334004
 20
74.28186178258329
 30
0.0
 11
80.06611250698529
 21
76.1094259424591
 31
0.0
  0
LINE
  5
1CA
330
1F
100
AcDbEntity
  8
0
100
AcDbLine
 10
80.06611250698529
 20
76.1094259424591
 30
0.0
 11
81.89367666686093
 21
78.49115392610452
 31
0.0
  0
LINE
  5
1CB
330
1F
100
AcDbEntity
  8
0
100
AcDbLine
 10
81.89367666686093
 20
78.49115392610452
 30
0.0
 11
83.04253152566417
 21
81.2647349074256
 31
0.0
  0
LINE
  5
1CC
330
1F
100
AcDbEntity
  8
0
100
AcDbLine
 10
83.04253152566417
 20
81.2647349074256
 30
0.0
 11
83.43438452333983
 21
84.24115392610447
 31
0.0
  0
LINE
  5
1CD
330
1F
100
AcDbEntity
  8
0
100
AcDbLine
 10
83.43438452333983
 20
84.24115392610447
 30
0.0
 11
83.04253152566417
 21
87.21757294478353
 31
0.0
  0
LINE
  5
1CE
330
1F
100
AcDbEntity
  8
0
100
AcDbLine
 10
83.04253152566417
 20
87.21757294478353
 30
0.0
 11
81.89367666686093
 21
89.99115392610462
 31
0.0
  0
LINE
  5
1CF
330
1F
100
AcDbEntity
  8
0
100
AcDbLine
 10
81.89367666686093
 20
89.99115392610462
 30
0.0
 11
80.06611250698494
 21
92.37288190974986
 31
0.0
  0
LINE
  5
1D0
330
1F
100
AcDbEntity
  8
0
100
AcDbLine
 10
80.06611250698494
 20
92.37288190974986
 30
0.0
 11
77.68438452333969
 21
94.20044606962549
 31
0.0
  0
LINE
  5
1D1
330
1F
100
AcDbEntity
  8
0
100
AcDbLine
 10
82.14723361407691
 20
-80.4209987727776
 30
0.0
 11
83.16750155321732
 21
-77.59758376982396
 31
0.0
  0
LINE
  5
1D2
330
1F
100
AcDbEntity
  8
0
100
AcDbLine
 10
83.16750155321732
 20
-77.59758376982396
 30
0.0
 11
83.4222511303754
 21
-74.60630952638209
 31
0.0
  0
LINE
  5
1D3
330
1F
100
AcDbEntity
  8
0
100
AcDbLine
 10
83.4222511303754
 20
-74.60630952638209
 30
0.0
 11
82.89412158286139
 21
-71.65102643882784
 31
0.0
  0
LINE
  5
1D4
330
1F
100
AcDbEntity
  8
0
100
AcDbLine
 10
82.89412158286139
 20
-71.65102643882784
 30
0.0
 11
81.61910406656254
 21
-68.93313216574192
 31
0.0
  0
LINE
  5
1D5
330
1F
100
AcDbEntity
  8
0
100
AcDbLine
 10
81.61910406656254
 20
-68.93313216574192
 30
0.0
 11
79.68408891814889
 21
-66.63784671030265
 31
0.0
  0
LINE
  5
1D6
330
1F
100
AcDbEntity
  8
0
100
AcDbLine
 10
79.68408891814889
 20
-66.63784671030265
 30
0.0
 11
77.22094422222122
 21
-64.92158998315946
 31
0.0
  0
LINE
  5
1D7
330
1F
100
AcDbEntity
  8
0
100
AcDbLine
 10
77.22094422222122
 20
-64.92158998315946
 30
0.0
 11
74.39752921926758
 21
-63.90132204401888
 31
0.0
  0
LINE
  5
1D8
330
1F
100
AcDbEntity
  8
0
100
AcDbLine
 10
74.39752921926758
 20
-63.90132204401888
 30
0.0
 11
71.40625497582553
 21
-63.6465724668608
 31
0.0
  0
LINE
  5
1D9
330
1F
100
AcDbEntity
  8
0
100
AcDbLine
 10
71.40625497582553
 20
-63.6465724668608
 30
0.0
 11
68.45097188827111
 21
-64.17470201437517
 31
0.0
  0
LINE
  5
1DA
330
1F
100
AcDbEntity
  8
0
100
AcDbLine
 10
68.45097188827111
 20
-64.17470201437517
 30
0.0
 11
65.73307761518537
 21
-65.44971953067385
 31
0.0
  0
LINE
  5
1DB
330
1F
100
AcDbEntity
  8
0
100
AcDbLine
 10
65.73307761518537
 20
-65.44971953067385
 30
0.0
 11
63.43779215974611
 21
-67.38473467908749
 31
0.0
  0
LINE
  5
1DC
330
1F
100
AcDbEntity
  8
0
100
AcDbLine
 10
63.43779215974611
 20
-67.38473467908749
 30
0.0
 11
61.72153543260291
 21
-69.84787937501534
 31
0.0
  0
LINE
  5
1DD
330
1F
100
AcDbEntity
  8
0
100
AcDbLine
 10
61.72153543260291
 20
-69.84787937501534
 30
0.0
 11
60.7012674934625
 21
-72.67129437796898
 31
0.0
  0
LINE
  5
1DE
330
1F
100
AcDbEntity
  8
0
100
AcDbLine
 10
60.7012674934625
 20
-72.67129437796898
 30
0.0
 11
60.44651791630442
 21
-75.66256862141084
 31
0.0
  0
LINE
  5
1DF
330
1F
100
AcDbEntity
  8
0
100
AcDbLine
 10
60.44651791630442
 20
-75.66256862141084
 30
0.0
 11
60.97464746381844
 21
-78.61785170896508
 31
0.0
  0
LINE
  5
1E0
330
1F
100
AcDbEntity
  8
0
100
AcDbLine
 10
60.97464746381844
 20
-78.61785170896508
 30
0.0
 11
62.24966498011729
 21
-81.33574598205101
 31
0.0
  0
LINE
  5
1E1
330
1F
100
AcDbEntity
  8
0
100
AcDbLine
 10
62.24966498011729
 20
-81.33574598205101
 30
0.0
 11
64.18468012853094
 21
-83.63103143749028
 31
0.0
  0
LINE
  5
1E2
330
1F
100
AcDbEntity
  8
0
100
AcDbLine
 10
64.18468012853094
 20
-83.63103143749028
 30
0.0
 11
66.64782482445861
 21
-85.34728816463347
 31
0.0
  0
LINE
  5
1E3
330
1F
100
AcDbEntity
  8
0
100
AcDbLine
 10
66.64782482445861
 20
-85.34728816463347
 30
0.0
 11
69.47123982741225
 21
-86.36755610377405
 31
0.0
  0
LINE
  5
1E4
330
1F
100
AcDbEntity
  8
0
100
AcDbLine
 10
69.47123982741225
 20
-86.36755610377405
 30
0.0
 11
72.4625140708543
 21
-86.62230568093204
 31
0.0
  0
LINE
  5
1E5
330
1F
100
AcDbEntity
  8
0
100
AcDbLine
 10
72.4625140708543
 20
-86.62230568093204
 30
0.0
 11
75.41779715840872
 21
-86.09417613341785
 31
0.0
  0
LINE
  5
1E6
330
1F
100
AcDbEntity
  8
0
100
AcDbLine
 10
75.41779715840872
 20
-86.09417613341785
 30
0.0
 11
78.13569143149446
 21
-84.81915861711909
 31
0.0
  0
LINE
  5
1E7
330
1F
100
AcDbEntity
  8
0
100
AcDbLine
 10
78.13569143149446
 20
-84.81915861711909
 30
0.0
 11
80.43097688693372
 21
-82.88414346870543
 31
0.0
  0
LINE
  5
1E8
330
1F
100
AcDbEntity
  8
0
100
AcDbLine
 10
80.43097688693372
 20
-82.88414346870543
 30
0.0
 11
82.14723361407691
 21
-80.4209987727776
 31
0.0
  0
LINE
  5
1E9
330
1F
100
AcDbEntity
  8
0
100
AcDbLine
 10
29.55472092397101
 20
-142.0199590077136
 30
0.0
 11
27.4247708415085
 21
-139.9043192480289
 31
0.0
  0
LINE
  5
1EA
330
1F
100
AcDbEntity
  8
0
100
AcDbLine
 10
27.4247708415085
 20
-139.9043192480289
 30
0.0
 11
24.81982918576868
 21
-138.4120398114844
 31
0.0
  0
LINE
  5
1EB
330
1F
100
AcDbEntity
  8
0
100
AcDbLine
 10
24.81982918576868
 20
-138.4120398114844
 30
0.0
 11
21.9174184257211
 21
-137.6448170755724
 31
0.0
  0
LINE
  5
1EC
330
1F
100
AcDbEntity
  8
0
100
AcDbLine
 10
21.9174184257211
 20
-137.6448170755724
 30
0.0
 11
18.91533305820179
 21
-137.6549360018497
 31
0.0
  0
LINE
  5
1ED
330
1F
100
AcDbEntity
  8
0
100
AcDbLine
 10
18.91533305820179
 20
-137.6549360018497
 30
0.0
 11
16.01816023982724
 21
-138.4417070022126
 31
0.0
  0
LINE
  5
1EE
330
1F
100
AcDbEntity
  8
0
100
AcDbLine
 10
16.01816023982724
 20
-138.4417070022126
 30
0.0
 11
13.42333751036469
 21
-139.9515129331873
 31
0.0
  0
LINE
  5
1EF
330
1F
100
AcDbEntity
  8
0
100
AcDbLine
 10
13.42333751036469
 20
-139.9515129331873
 30
0.0
 11
11.30769775068018
 21
-142.0814630156499
 31
0.0
  0
LINE
  5
1F0
330
1F
100
AcDbEntity
  8
0
100
AcDbLine
 10
11.30769775068018
 20
-142.0814630156499
 30
0.0
 11
9.815418314135561
 21
-144.6864046713897
 31
0.0
  0
LINE
  5
1F1
330
1F
100
AcDbEntity
  8
0
100
AcDbLine
 10
9.815418314135561
 20
-144.6864046713897
 30
0.0
 11
9.04819557822351
 21
-147.5888154314373
 31
0.0
  0
LINE
  5
1F2
330
1F
100
AcDbEntity
  8
0
100
AcDbLine
 10
9.04819557822351
 20
-147.5888154314373
 30
0.0
 11
9.058314504500796
 21
-150.5909007989565
 31
0.0
  0
LINE
  5
1F3
330
1F
100
AcDbEntity
  8
0
100
AcDbLine
 10
9.058314504500796
 20
-150.5909007989565
 30
0.0
 11
9.845085504863867
 21
-153.4880736173311
 31
0.0
  0
LINE
  5
1F4
330
1F
100
AcDbEntity
  8
0
100
AcDbLine
 10
9.845085504863867
 20
-153.4880736173311
 30
0.0
 11
11.35489143583855
 21
-156.0828963467935
 31
0.0
  0
LINE
  5
1F5
330
1F
100
AcDbEntity
  8
0
100
AcDbLine
 10
11.35489143583855
 20
-156.0828963467935
 30
0.0
 11
13.48484151830105
 21
-158.1985361064783
 31
0.0
  0
LINE
  5
1F6
330
1F
100
AcDbEntity
  8
0
100
AcDbLine
 10
13.48484151830105
 20
-158.1985361064783
 30
0.0
 11
16.08978317404089
 21
-159.6908155430227
 31
0.0
  0
LINE
  5
1F7
330
1F
100
AcDbEntity
  8
0
100
AcDbLine
 10
16.08978317404089
 20
-159.6908155430227
 30
0.0
 11
18.99219393408847
 21
-160.4580382789347
 31
0.0
  0
LINE
  5
1F8
330
1F
100
AcDbEntity
  8
0
100
AcDbLine
 10
18.99219393408847
 20
-160.4580382789347
 30
0.0
 11
21.99427930160777
 21
-160.4479193526575
 31
0.0
  0
LINE
  5
1F9
330
1F
100
AcDbEntity
  8
0
100
AcDbLine
 10
21.99427930160777
 20
-160.4479193526575
 30
0.0
 11
24.89145211998233
 21
-159.6611483522945
 31
0.0
  0
LINE
  5
1FA
330
1F
100
AcDbEntity
  8
0
100
AcDbLine
 10
24.89145211998233
 20
-159.6611483522945
 30
0.0
 11
27.48627484944487
 21
-158.1513424213198
 31
0.0
  0
LINE
  5
1FB
330
1F
100
AcDbEntity
  8
0
100
AcDbLine
 10
27.48627484944487
 20
-158.1513424213198
 30
0.0
 11
29.60191460912938
 21
-156.0213923388572
 31
0.0
  0
LINE
  5
1FC
330
1F
100
AcDbEntity
  8
0
100
AcDbLine
 10
29.60191460912938
 20
-156.0213923388572
 30
0.0
 11
31.094194045674
 21
-153.4164506831175
 31
0.0
  0
LINE
  5
1FD
330
1F
100
AcDbEntity
  8
0
100
AcDbLine
 10
31.094194045674
 20
-153.4164506831175
 30
0.0
 11
31.86141678158605
 21
-150.5140399230698
 31
0.0
  0
LINE
  5
1FE
330
1F
100
AcDbEntity
  8
0
100
AcDbLine
 10
31.86141678158605
 20
-150.5140399230698
 30
0.0
 11
31.85129785530876
 21
-147.5119545555507
 31
0.0
  0
LINE
  5
1FF
330
1F
100
AcDbEntity
  8
0
100
AcDbLine
 10
31.85129785530876
 20
-147.5119545555507
 30
0.0
 11
31.06452685494569
 21
-144.614781737176
 31
0.0
  0
LINE
  5
200
330
1F
100
AcDbEntity
  8
0
100
AcDbLine
 10
31.06452685494569
 20
-144.614781737176
 30
0.0
 11
29.55472092397101
 21
-142.0199590077136
 31
0.0
  0
MTEXT
  5
202
330
1F
100
AcDbEntity
  8
0
 62
   250
100
AcDbMText
 10
-265.671210407078
 20
255.2239085849244
 30
0.0
 40
9.476070245722275
 41
0.0
 71
     7
 72
     1
  1
Length should be  (arm length) 30  :  52.5 (paper length)
  7
TAHOMA
  0
MTEXT
  5
203
330
1F
100
AcDbEntity
  8
0
 62
   250
100
AcDbMText
 10
-265.671210407078
 20
240.7604329467167
 30
0.0
 40
9.476070245722275
 41
0.0
 71
     7
 72
     1
  1
(0.571)
  7
TAHOMA
  0
ENDSEC
  0
SECTION
  2
OBJECTS
  0
DICTIONARY
  5
C
330
0
100
AcDbDictionary
  3
ACAD_GROUP
350
D
  3
ACAD_LAYOUT
350
1A
  3
ACAD_MATERIAL
350
3B
  3
ACAD_MLEADERSTYLE
350
226
  3
ACAD_MLINESTYLE
350
17
  3
ACAD_PLOTSETTINGS
350
19
  3
ACAD_VISUALSTYLE
350
2A
  3
ACDBHEADERROUNDTRIPXREC
350
204
  3
ACDBVARIABLEDICTIONARY
350
224
  0
DICTIONARY
  5
D
102
{ACAD_REACTORS
330
C
102
}
330
C
100
AcDbDictionary
  0
DICTIONARY
  5
1A
102
{ACAD_REACTORS
330
C
102
}
330
C
100
AcDbDictionary
  0
DICTIONARY
  5
3B
102
{ACAD_REACTORS
330
C
102
}
330
C
100
AcDbDictionary
  3
BYBLOCK
350
3D
  3
BYLAYER
350
3C
  3
GLOBAL
350
3E
  0
DICTIONARY
  5
226
102
{ACAD_REACTORS
330
C
102
}
330
C
100
AcDbDictionary
  0
DICTIONARY
  5
17
102
{ACAD_REACTORS
330
C
102
}
330
C
100
AcDbDictionary
  3
STANDARD
350
18
  0
DICTIONARY
  5
19
102
{ACAD_REACTORS
330
C
102
}
330
C
100
AcDbDictionary
  0
DICTIONARY
  5
2A
102
{ACAD_REACTORS
330
C
102
}
330
C
100
AcDbDictionary
  3
2DWIREFRAME
350
2F
  3
3D_HIDDEN
350
31
  3
3DWIREFRAME
350
30
  3
BASIC
350
32
  3
BRIGHTEN
350
36
  3
COLORCHANGE
350
3A
  3
CONCEPTUAL
350
34
  3
DIM
350
35
  3
FACEPATTERN
350
39
  3
FLAT
350
2B
  3
FLATWITHEDGES
350
2C
  3
GOURAUD
350
2D
  3
GOURAUDWITHEDGES
350
2E
  3
LINEPATTERN
350
38
  3
REALISTIC
350
33
  3
THICKEN
350
37
  0
DICTIONARY
  5
204
102
{ACAD_REACTORS
330
C
102
}
330
C
100
AcDbDictionary
  3
CEPSNTYPE
350
20D
  3
DIMSTYLEDATA
350
223
  3
FINGERPRINTGUID
350
20E
  3
HYPERLINKBASE
350
207
  3
INSUNITS
350
20C
  3
LAYOUTDICT
350
209
  3
LWETCUNION
350
20B
  3
PLOTSETDICT
350
20A
  3
PSVPSCALE
350
210
  3
PUCSBASE
350
213
  3
PUCSORGBACK
350
219
  3
PUCSORGBOTTOM
350
215
  3
PUCSORGFRONT
350
218
  3
PUCSORGLEFT
350
216
  3
PUCSORGRIGHT
350
217
  3
PUCSORGTOP
350
214
  3
PUCSORTHOREF
350
211
  3
PUCSORTHOVIEW
350
212
  3
STYLESHEET
350
208
  3
TSTACKALIGN
350
205
  3
TSTACKSIZE
350
206
  3
UCSBASE
350
21C
  3
UCSORGBACK
350
222
  3
UCSORGBOTTOM
350
21E
  3
UCSORGFRONT
350
221
  3
UCSORGLEFT
350
21F
  3
UCSORGRIGHT
350
220
  3
UCSORGTOP
350
21D
  3
UCSORTHOREF
350
21A
  3
UCSORTHOVIEW
350
21B
  3
VERSIONGUID
350
20F
  0
DICTIONARY
  5
224
102
{ACAD_REACTORS
330
C
102
}
330
C
100
AcDbDictionary
  3
DIMASSOC
350
227
  3
HIDETEXT
350
228
  0
MATERIAL
  5
3D
102
{ACAD_REACTORS
330
3B
102
}
102
{ACAD_XDICTIONARY
360
22B
102
}
330
3B
100
AcDbMaterial
  1
ByBlock
  0
MATERIAL
  5
3C
102
{ACAD_REACTORS
330
3B
102
}
102
{ACAD_XDICTIONARY
360
229
102
}
330
3B
100
AcDbMaterial
  1
ByLayer
  0
MATERIAL
  5
3E
102
{ACAD_REACTORS
330
3B
102
}
102
{ACAD_XDICTIONARY
360
22D
102
}
330
3B
100
AcDbMaterial
  1
Global
  0
MLINESTYLE
  5
18
102
{ACAD_REACTORS
330
17
102
}
330
17
100
AcDbMlineStyle
  2
Standard
 70
     0
  3

 62
   256
 51
90.0
 52
90.0
 71
     2
 49
0.5
 62
   256
  6
BYLAYER
 49
-0.5
 62
   256
  6
BYLAYER
  0
ACAD_PROXY_OBJECT
  5
2F
102
{ACAD_REACTORS
330
2A
102
}
330
2A
100
AcDbProxyObject
 90
      499
 91
      501
 93
      436
310
42CC9915DA5C99599C985B595049028333333333333E3BF0000000000000FB0107901411070040501600405405064090741402480A0340
1001
ACAD
1000
AcDbSavedByObjectVersion
1070
     0
  0
ACAD_PROXY_OBJECT
  5
31
102
{ACAD_REACTORS
330
2A
102
}
330
2A
100
AcDbProxyObject
 90
      499
 91
      501
 93
      500
310
424CD108121A5919195B90640502408333333333333E3BF0000000000000FB01079024090700405020000000000001110200405405064090740C02480A0340
1001
ACAD
1000
AcDbSavedByObjectVersion
1070
     0
  0
ACAD_PROXY_OBJECT
  5
30
102
{ACAD_REACTORS
330
2A
102
}
330
2A
100
AcDbProxyObject
 90
      499
 91
      501
 93
      436
310
42CCD915DA5C99599C985B595059028333333333333E3BF0000000000000FB0107901411070040501600405405064090741402480A0340
1001
ACAD
1000
AcDbSavedByObjectVersion
1070
     0
  0
ACAD_PROXY_OBJECT
  5
32
102
{ACAD_REACTORS
330
2A
102
}
330
2A
100
AcDbProxyObject
 90
      499
 91
      501
 93
      388
310
4150985CDA58D07406404333333333333E3BF0000000000000FB0107A41107004050150841D405064090741402480A0350
1001
ACAD
1000
AcDbSavedByObjectVersion
1070
     0
  0
ACAD_PROXY_OBJECT
  5
36
102
{ACAD_REACTORS
330
2A
102
}
330
2A
100
AcDbProxyObject
 90
      499
 91
      501
 93
      428
310
42109C9A59DA1D195B90C409028333333333333E3BF0000000000000FB010790141107004050150841D405064090741402480A029950
1001
ACAD
1000
AcDbSavedByObjectVersion
1070
     0
  0
ACAD_PROXY_OBJECT
  5
3A
102
{ACAD_REACTORS
330
2A
102
}
330
2A
100
AcDbProxyObject
 90
      499
 91
      501
 93
      452
310
42D0DBDB1BDC90DA185B99D95104090240C333333333333E3BF0000000000000FB0108901411070040501508421405064090741402480A0350
1001
ACAD
1000
AcDbSavedByObjectVersion
1070
     0
  0
ACAD_PROXY_OBJECT
  5
34
102
{ACAD_REACTORS
330
2A
102
}
330
2A
100
AcDbProxyObject
 90
      499
 91
      501
 93
      500
310
4290DBDB98D95C1D1D585B10940D028333333333333E3BF0000000000000FB0107902409070040501000000000000111010841D405064090740C02480A0340
1001
ACAD
1000
AcDbSavedByObjectVersion
1070
     0
  0
ACAD_PROXY_OBJECT
  5
35
102
{ACAD_REACTORS
330
2A
102
}
330
2A
100
AcDbProxyObject
 90
      499
 91
      501
 93
      412
310
40D11A5B50B409028333333333333E3BF0000000000000FB010790141107004050150841D405064090741402480A02677FFFFFD0
1001
ACAD
1000
AcDbSavedByObjectVersion
1070
     0
  0
ACAD_PROXY_OBJECT
  5
39
102
{ACAD_REACTORS
330
2A
102
}
330
2A
100
AcDbProxyObject
 90
      499
 91
      501
 93
      444
310
42D19858D95C185D1D195C9B90F409028333333333333E3BF0000000000000FB010790141107004050150841D405064090741402480A0350
1001
ACAD
1000
AcDbSavedByObjectVersion
1070
     0
  0
ACAD_PROXY_OBJECT
  5
2B
102
{ACAD_REACTORS
330
2A
102
}
330
2A
100
AcDbProxyObject
 90
      499
 91
      501
 93
      388
310
41119B185D240901404333333333333E3BF0000000000000F9010740A41107004050150841D405064090741402480A1B50
1001
ACAD
1000
AcDbSavedByObjectVersion
1070
     0
  0
ACAD_PROXY_OBJECT
  5
2C
102
{ACAD_REACTORS
330
2A
102
}
330
2A
100
AcDbProxyObject
 90
      499
 91
      501
 93
      476
310
43519B185D15DA5D1A115919D95CD0140901404333333333333E3BF0000000000000F9010740901411070040501600405405064090741402480A1B50
1001
ACAD
1000
AcDbSavedByObjectVersion
1070
     0
  0
ACAD_PROXY_OBJECT
  5
2D
102
{ACAD_REACTORS
330
2A
102
}
330
2A
100
AcDbProxyObject
 90
      499
 91
      501
 93
      412
310
41D1DBDD5C985D5910240902404333333333333E3BF0000000000000F9010740A411070040501641D405064090741402480A1B50
1001
ACAD
1000
AcDbSavedByObjectVersion
1070
     0
  0
ACAD_PROXY_OBJECT
  5
2E
102
{ACAD_REACTORS
330
2A
102
}
330
2A
100
AcDbProxyObject
 90
      499
 91
      501
 93
      500
310
4411DBDD5C985D5915DA5D1A115919D95CD0340902404333333333333E3BF0000000000000F9010740901411070040501600405405064090741402480A1B50
1001
ACAD
1000
AcDbSavedByObjectVersion
1070
     0
  0
ACAD_PROXY_OBJECT
  5
38
102
{ACAD_REACTORS
330
2A
102
}
330
2A
100
AcDbProxyObject
 90
      499
 91
      501
 93
      444
310
42D31A5B995C185D1D195C9B90E409028333333333333E3BF0000000000000FB010790141107004050750841D405064090741402483A0350
1001
ACAD
1000
AcDbSavedByObjectVersion
1070
     0
  0
ACAD_PROXY_OBJECT
  5
33
102
{ACAD_REACTORS
330
2A
102
}
330
2A
100
AcDbProxyObject
 90
      499
 91
      501
 93
      420
310
425499585B1A5CDD1A58D08409028333333333333E3BF0000000000000FB01079019070040501508421405064090741402480A1B40
1001
ACAD
1000
AcDbSavedByObjectVersion
1070
     0
  0
ACAD_PROXY_OBJECT
  5
37
102
{ACAD_REACTORS
330
2A
102
}
330
2A
100
AcDbProxyObject
 90
      499
 91
      501
 93
      412
310
41D51A1A58DAD95B90D409028333333333333E3BF0000000000000FB010790141107004050150C41D405064090741402480A0350
1001
ACAD
1000
AcDbSavedByObjectVersion
1070
     0
  0
XRECORD
  5
20D
102
{ACAD_REACTORS
330
204
102
}
330
204
100
AcDbXrecord
 90
        0
  0
XRECORD
  5
223
102
{ACAD_REACTORS
330
204
102
}
330
204
100
AcDbXrecord
1000
DSTYLE
1002
{
1070
   340
340
11
1002
}
  0
XRECORD
  5
20E
102
{ACAD_REACTORS
330
204
102
}
330
204
100
AcDbXrecord
  1
{02B9EFC6-322C-49B2-9828-812E77D06648}
  0
XRECORD
  5
207
102
{ACAD_REACTORS
330
204
102
}
330
204
100
AcDbXrecord
  1

  0
XRECORD
  5
20C
102
{ACAD_REACTORS
330
204
102
}
330
204
100
AcDbXrecord
 90
        1
  0
XRECORD
  5
209
102
{ACAD_REACTORS
330
204
102
}
330
204
100
AcDbXrecord
340
1A
  0
XRECORD
  5
20B
102
{ACAD_REACTORS
330
204
102
}
330
204
100
AcDbXrecord
 90
    10781
  0
XRECORD
  5
20A
102
{ACAD_REACTORS
330
204
102
}
330
204
100
AcDbXrecord
340
19
  0
XRECORD
  5
210
102
{ACAD_REACTORS
330
204
102
}
330
204
100
AcDbXrecord
 40
0.0
  0
XRECORD
  5
213
102
{ACAD_REACTORS
330
204
102
}
330
204
100
AcDbXrecord
340
0
  0
XRECORD
  5
219
102
{ACAD_REACTORS
330
204
102
}
330
204
100
AcDbXrecord
 10
0.0
 20
0.0
 30
0.0
  0
XRECORD
  5
215
102
{ACAD_REACTORS
330
204
102
}
330
204
100
AcDbXrecord
 10
0.0
 20
0.0
 30
0.0
  0
XRECORD
  5
218
102
{ACAD_REACTORS
330
204
102
}
330
204
100
AcDbXrecord
 10
0.0
 20
0.0
 30
0.0
  0
XRECORD
  5
216
102
{ACAD_REACTORS
330
204
102
}
330
204
100
AcDbXrecord
 10
0.0
 20
0.0
 30
0.0
  0
XRECORD
  5
217
102
{ACAD_REACTORS
330
204
102
}
330
204
100
AcDbXrecord
 10
0.0
 20
0.0
 30
0.0
  0
XRECORD
  5
214
102
{ACAD_REACTORS
330
204
102
}
330
204
100
AcDbXrecord
 10
0.0
 20
0.0
 30
0.0
  0
XRECORD
  5
211
102
{ACAD_REACTORS
330
204
102
}
330
204
100
AcDbXrecord
340
0
  0
XRECORD
  5
212
102
{ACAD_REACTORS
330
204
102
}
330
204
100
AcDbXrecord
 70
     0
  0
XRECORD
  5
208
102
{ACAD_REACTORS
330
204
102
}
330
204
100
AcDbXrecord
  1

  0
XRECORD
  5
205
102
{ACAD_REACTORS
330
204
102
}
330
204
100
AcDbXrecord
 90
        1
  0
XRECORD
  5
206
102
{ACAD_REACTORS
330
204
102
}
330
204
100
AcDbXrecord
 90
       70
  0
XRECORD
  5
21C
102
{ACAD_REACTORS
330
204
102
}
330
204
100
AcDbXrecord
340
0
  0
XRECORD
  5
222
102
{ACAD_REACTORS
330
204
102
}
330
204
100
AcDbXrecord
 10
0.0
 20
0.0
 30
0.0
  0
XRECORD
  5
21E
102
{ACAD_REACTORS
330
204
102
}
330
204
100
AcDbXrecord
 10
0.0
 20
0.0
 30
0.0
  0
XRECORD
  5
221
102
{ACAD_REACTORS
330
204
102
}
330
204
100
AcDbXrecord
 10
0.0
 20
0.0
 30
0.0
  0
XRECORD
  5
21F
102
{ACAD_REACTORS
330
204
102
}
330
204
100
AcDbXrecord
 10
0.0
 20
0.0
 30
0.0
  0
XRECORD
  5
220
102
{ACAD_REACTORS
330
204
102
}
330
204
100
AcDbXrecord
 10
0.0
 20
0.0
 30
0.0
  0
XRECORD
  5
21D
102
{ACAD_REACTORS
330
204
102
}
330
204
100
AcDbXrecord
 10
0.0
 20
0.0
 30
0.0
  0
XRECORD
  5
21A
102
{ACAD_REACTORS
330
204
102
}
330
204
100
AcDbXrecord
340
0
  0
XRECORD
  5
21B
102
{ACAD_REACTORS
330
204
102
}
330
204
100
AcDbXrecord
 70
     0
  0
XRECORD
  5
20F
102
{ACAD_REACTORS
330
204
102
}
330
204
100
AcDbXrecord
  1
{FAEB1C32-E019-11D5-929B-00C0DF256EC4}
  0
DICTIONARYVAR
  5
227
102
{ACAD_REACTORS
330
224
102
}
330
224
100
DictionaryVariables
280
     0
  1
2
  0
DICTIONARYVAR
  5
228
102
{ACAD_REACTORS
330
224
102
}
330
224
100
DictionaryVariables
280
     0
  1
1
  0
DICTIONARY
  5
22B
330
3D
100
AcDbDictionary
280
     1
  3
ACAD_XREC_ROUNDTRIP
360
22C
  0
DICTIONARY
  5
229
330
3C
100
AcDbDictionary
280
     1
  3
ACAD_XREC_ROUNDTRIP
360
22A
  0
DICTIONARY
  5
22D
330
3E
100
AcDbDictionary
280
     1
  3
ACAD_XREC_ROUNDTRIP
360
22E
  0
XRECORD
  5
22C
102
{ACAD_REACTORS
330
22B
102
}
330
22B
100
AcDbXrecord
102
MATERIAL
148
0.0
149
0.0
149
0.0
 93
        0
 94
      127
282
     0
 72
     1
 77
     1
171
     1
175
     1
179
     1
273
     0
  0
XRECORD
  5
22A
102
{ACAD_REACTORS
330
229
102
}
330
229
100
AcDbXrecord
102
MATERIAL
148
0.0
149
0.0
149
0.0
 93
        0
 94
      127
282
     0
 72
     1
 77
     1
171
     1
175
     1
179
     1
273
     0
  0
XRECORD
  5
22E
102
{ACAD_REACTORS
330
22D
102
}
330
22D
100
AcDbXrecord
102
MATERIAL
148
0.0
149
0.0
149
0.0
 93
        0
 94
      127
282
     0
 72
     1
 77
     1
171
     1
175
     1
179
     1
273
     0
  0
ENDSEC
  0
EOF
