  0
SECTION
  2
HEADER
  9
$ACADVER
  1
AC1021
  9
$ACADMAINTVER
 70
    25
  9
$DWGCODEPAGE
  3
ANSI_936
  9
$INSBASE
 10
0.0
 20
0.0
 30
0.0
  9
$EXTMIN
 10
-97.0346
 20
-55.4863
 30
0.0
  9
$EXTMAX
 10
49.7342
 20
136.9003
 30
0.0
  9
$LIMMIN
 10
0.0
 20
0.0
  9
$LIMMAX
 10
12.0
 20
9.0
  9
$ORTHOMODE
 70
     0
  9
$REGENMODE
 70
     1
  9
$FILLMODE
 70
     1
  9
$QTEXTMODE
 70
     0
  9
$MIRRTEXT
 70
     1
  9
$LTSCALE
 40
1.0
  9
$ATTMODE
 70
     1
  9
$TEXTSIZE
 40
0.2
  9
$TRACEWID
 40
0.05
  9
$TEXTSTYLE
  7
Standard
  9
$CLAYER
  8
0
  9
$CELTYPE
  6
ByLayer
  9
$CECOLOR
 62
   256
  9
$CELTSCALE
 40
1.0
  9
$DISPSILH
 70
     0
  9
$DIMSCALE
 40
1.0
  9
$DIMASZ
 40
0.18
  9
$DIMEXO
 40
0.0625
  9
$DIMDLI
 40
0.38
  9
$DIMRND
 40
0.0
  9
$DIMDLE
 40
0.0
  9
$DIMEXE
 40
0.18
  9
$DIMTP
 40
0.0
  9
$DIMTM
 40
0.0
  9
$DIMTXT
 40
0.18
  9
$DIMCEN
 40
0.09
  9
$DIMTSZ
 40
0.0
  9
$DIMTOL
 70
     0
  9
$DIMLIM
 70
     0
  9
$DIMTIH
 70
     1
  9
$DIMTOH
 70
     1
  9
$DIMSE1
 70
     0
  9
$DIMSE2
 70
     0
  9
$DIMTAD
 70
     0
  9
$DIMZIN
 70
     0
  9
$DIMBLK
  1

  9
$DIMASO
 70
     1
  9
$DIMSHO
 70
     1
  9
$DIMPOST
  1

  9
$DIMAPOST
  1

  9
$DIMALT
 70
     0
  9
$DIMALTD
 70
     2
  9
$DIMALTF
 40
25.4
  9
$DIMLFAC
 40
1.0
  9
$DIMTOFL
 70
     0
  9
$DIMTVP
 40
0.0
  9
$DIMTIX
 70
     0
  9
$DIMSOXD
 70
     0
  9
$DIMSAH
 70
     0
  9
$DIMBLK1
  1

  9
$DIMBLK2
  1

  9
$DIMSTYLE
  2
Standard
  9
$DIMCLRD
 70
     0
  9
$DIMCLRE
 70
     0
  9
$DIMCLRT
 70
     0
  9
$DIMTFAC
 40
1.0
  9
$DIMGAP
 40
0.09
  9
$DIMJUST
 70
     0
  9
$DIMSD1
 70
     0
  9
$DIMSD2
 70
     0
  9
$DIMTOLJ
 70
     1
  9
$DIMTZIN
 70
     0
  9
$DIMALTZ
 70
     0
  9
$DIMALTTZ
 70
     0
  9
$DIMUPT
 70
     0
  9
$DIMDEC
 70
     4
  9
$DIMTDEC
 70
     4
  9
$DIMALTU
 70
     2
  9
$DIMALTTD
 70
     2
  9
$DIMTXSTY
  7
Standard
  9
$DIMAUNIT
 70
     0
  9
$DIMADEC
 70
     0
  9
$DIMALTRND
 40
0.0
  9
$DIMAZIN
 70
     0
  9
$DIMDSEP
 70
    46
  9
$DIMATFIT
 70
     3
  9
$DIMFRAC
 70
     0
  9
$DIMLDRBLK
  1

  9
$DIMLUNIT
 70
     2
  9
$DIMLWD
 70
    -2
  9
$DIMLWE
 70
    -2
  9
$DIMTMOVE
 70
     0
  9
$DIMFXL
 40
1.0
  9
$DIMFXLON
 70
     0
  9
$DIMJOGANG
 40
0.7853981633974483
  9
$DIMTFILL
 70
     0
  9
$DIMTFILLCLR
 70
     0
  9
$DIMARCSYM
 70
     0
  9
$DIMLTYPE
  6

  9
$DIMLTEX1
  6

  9
$DIMLTEX2
  6

  9
$LUNITS
 70
     2
  9
$LUPREC
 70
     4
  9
$SKETCHINC
 40
0.1
  9
$FILLETRAD
 40
0.5
  9
$AUNITS
 70
     0
  9
$AUPREC
 70
     0
  9
$MENU
  1
.
  9
$ELEVATION
 40
0.0
  9
$PELEVATION
 40
0.0
  9
$THICKNESS
 40
0.0
  9
$LIMCHECK
 70
     0
  9
$CHAMFERA
 40
0.5
  9
$CHAMFERB
 40
0.5
  9
$CHAMFERC
 40
1.0
  9
$CHAMFERD
 40
0.0
  9
$SKPOLY
 70
     0
  9
$TDCREATE
 40
2457537.654584491
  9
$TDUCREATE
 40
2457537.321251157
  9
$TDUPDATE
 40
2457537.654584502
  9
$TDUUPDATE
 40
2457537.321251169
  9
$TDINDWG
 40
0.0000000116
  9
$TDUSRTIMER
 40
0.0000000116
  9
$USRTIMER
 70
     1
  9
$ANGBASE
 50
0.0
  9
$ANGDIR
 70
     0
  9
$PDMODE
 70
     0
  9
$PDSIZE
 40
0.0
  9
$PLINEWID
 40
0.0
  9
$SPLFRAME
 70
     0
  9
$SPLINETYPE
 70
     6
  9
$SPLINESEGS
 70
     8
  9
$HANDSEED
  5
27A
  9
$SURFTAB1
 70
     6
  9
$SURFTAB2
 70
     6
  9
$SURFTYPE
 70
     6
  9
$SURFU
 70
     6
  9
$SURFV
 70
     6
  9
$UCSBASE
  2

  9
$UCSNAME
  2

  9
$UCSORG
 10
0.0
 20
0.0
 30
0.0
  9
$UCSXDIR
 10
1.0
 20
0.0
 30
0.0
  9
$UCSYDIR
 10
0.0
 20
1.0
 30
0.0
  9
$UCSORTHOREF
  2

  9
$UCSORTHOVIEW
 70
     0
  9
$UCSORGTOP
 10
0.0
 20
0.0
 30
0.0
  9
$UCSORGBOTTOM
 10
0.0
 20
0.0
 30
0.0
  9
$UCSORGLEFT
 10
0.0
 20
0.0
 30
0.0
  9
$UCSORGRIGHT
 10
0.0
 20
0.0
 30
0.0
  9
$UCSORGFRONT
 10
0.0
 20
0.0
 30
0.0
  9
$UCSORGBACK
 10
0.0
 20
0.0
 30
0.0
  9
$PUCSBASE
  2

  9
$PUCSNAME
  2

  9
$PUCSORG
 10
0.0
 20
0.0
 30
0.0
  9
$PUCSXDIR
 10
1.0
 20
0.0
 30
0.0
  9
$PUCSYDIR
 10
0.0
 20
1.0
 30
0.0
  9
$PUCSORTHOREF
  2

  9
$PUCSORTHOVIEW
 70
     0
  9
$PUCSORGTOP
 10
0.0
 20
0.0
 30
0.0
  9
$PUCSORGBOTTOM
 10
0.0
 20
0.0
 30
0.0
  9
$PUCSORGLEFT
 10
0.0
 20
0.0
 30
0.0
  9
$PUCSORGRIGHT
 10
0.0
 20
0.0
 30
0.0
  9
$PUCSORGFRONT
 10
0.0
 20
0.0
 30
0.0
  9
$PUCSORGBACK
 10
0.0
 20
0.0
 30
0.0
  9
$USERI1
 70
     0
  9
$USERI2
 70
     0
  9
$USERI3
 70
     0
  9
$USERI4
 70
     0
  9
$USERI5
 70
     0
  9
$USERR1
 40
0.0
  9
$USERR2
 40
0.0
  9
$USERR3
 40
0.0
  9
$USERR4
 40
0.0
  9
$USERR5
 40
0.0
  9
$WORLDVIEW
 70
     1
  9
$SHADEDGE
 70
     3
  9
$SHADEDIF
 70
    70
  9
$TILEMODE
 70
     1
  9
$MAXACTVP
 70
    64
  9
$PINSBASE
 10
0.0
 20
0.0
 30
0.0
  9
$PLIMCHECK
 70
     0
  9
$PEXTMIN
 10
1.000000000000000E+20
 20
1.000000000000000E+20
 30
1.000000000000000E+20
  9
$PEXTMAX
 10
-1.000000000000000E+20
 20
-1.000000000000000E+20
 30
-1.000000000000000E+20
  9
$PLIMMIN
 10
0.0
 20
0.0
  9
$PLIMMAX
 10
12.0
 20
9.0
  9
$UNITMODE
 70
     0
  9
$VISRETAIN
 70
     1
  9
$PLINEGEN
 70
     0
  9
$PSLTSCALE
 70
     1
  9
$TREEDEPTH
 70
  3020
  9
$CMLSTYLE
  2
Standard
  9
$CMLJUST
 70
     0
  9
$CMLSCALE
 40
1.0
  9
$PROXYGRAPHICS
 70
     1
  9
$MEASUREMENT
 70
     0
  9
$CELWEIGHT
370
    -1
  9
$ENDCAPS
280
     0
  9
$JOINSTYLE
280
     0
  9
$LWDISPLAY
290
     0
  9
$INSUNITS
 70
     4
  9
$HYPERLINKBASE
  1

  9
$STYLESHEET
  1

  9
$XEDIT
290
     1
  9
$CEPSNTYPE
380
     0
  9
$PSTYLEMODE
290
     1
  9
$FINGERPRINTGUID
  2
{A6B12E1B-62D9-4E95-AFD8-2B8B662797BB}
  9
$VERSIONGUID
  2
{FAEB1C32-E019-11D5-929B-00C0DF256EC4}
  9
$EXTNAMES
290
     1
  9
$PSVPSCALE
 40
0.0
  9
$OLESTARTUP
290
     0
  9
$SORTENTS
280
   127
  9
$INDEXCTL
280
     0
  9
$HIDETEXT
280
     1
  9
$XCLIPFRAME
290
     0
  9
$HALOGAP
280
     0
  9
$OBSCOLOR
 70
   257
  9
$OBSLTYPE
280
     0
  9
$INTERSECTIONDISPLAY
280
     0
  9
$INTERSECTIONCOLOR
 70
   257
  9
$DIMASSOC
280
     2
  9
$PROJECTNAME
  1

  9
$CAMERADISPLAY
290
     0
  9
$LENSLENGTH
 40
50.0
  9
$CAMERAHEIGHT
 40
0.0
  9
$STEPSPERSEC
 40
2.0
  9
$STEPSIZE
 40
6.0
  9
$3DDWFPREC
 40
2.0
  9
$PSOLWIDTH
 40
0.25
  9
$PSOLHEIGHT
 40
4.0
  9
$LOFTANG1
 40
1.570796326794897
  9
$LOFTANG2
 40
1.570796326794897
  9
$LOFTMAG1
 40
0.0
  9
$LOFTMAG2
 40
0.0
  9
$LOFTPARAM
 70
     7
  9
$LOFTNORMALS
280
     1
  9
$LATITUDE
 40
37.795
  9
$LONGITUDE
 40
-122.394
  9
$NORTHDIRECTION
 40
0.0
  9
$TIMEZONE
 70
 -8000
  9
$LIGHTGLYPHDISPLAY
280
     1
  9
$TILEMODELIGHTSYNCH
280
     1
  9
$SOLIDHIST
280
     1
  9
$SHOWHIST
280
     1
  9
$DWFFRAME
280
     2
  9
$DGNFRAME
280
     2
  9
$REALWORLDSCALE
290
     1
  9
$INTERFERECOLOR
 62
   256
  9
$CSHADOW
280
     0
  9
$SHADOWPLANELOCATION
 40
0.0
  0
ENDSEC
  0
SECTION
  2
CLASSES
  0
CLASS
  1
ACDBDICTIONARYWDFLT
  2
AcDbDictionaryWithDefault
  3
ObjectDBX Classes
 90
        0
 91
        3
280
     0
281
     0
  0
CLASS
  1
VISUALSTYLE
  2
AcDbVisualStyle
  3
ObjectDBX Classes
 90
     4095
 91
        3
280
     0
281
     0
  0
CLASS
  1
SCALE
  2
AcDbScale
  3
ObjectDBX Classes
 90
     1153
 91
        3
280
     0
281
     0
  0
ENDSEC
  0
SECTION
  2
TABLES
  0
TABLE
  2
VPORT
  5
8
330
0
100
AcDbSymbolTable
 70
     1
  0
VPORT
  5
29
330
8
100
AcDbSymbolTableRecord
100
AcDbViewportTableRecord
  2
*Active
 70
     0
 10
0.0
 20
0.0
 11
1.0
 21
1.0
 12
10.42990654205607
 22
4.5
 13
0.0
 23
0.0
 14
0.5
 24
0.5
 15
0.5
 25
0.5
 16
0.0
 26
0.0
 36
1.0
 17
0.0
 27
0.0
 37
0.0
 40
9.0
 41
1.972972972850329
 42
50.0
 43
0.0
 44
0.0
 50
0.0
 51
0.0
 71
     0
 72
   100
 73
     1
 74
     3
 75
     0
 76
     0
 77
     0
 78
     0
281
     0
 65
     1
110
0.0
120
0.0
130
0.0
111
1.0
121
0.0
131
0.0
112
0.0
122
1.0
132
0.0
 79
     0
146
0.0
 60
     3
 61
     5
292
     1
282
     1
141
0.0
142
0.0
 63
   256
  0
ENDTAB
  0
TABLE
  2
LTYPE
  5
5
330
0
100
AcDbSymbolTable
 70
     1
  0
LTYPE
  5
14
330
5
100
AcDbSymbolTableRecord
100
AcDbLinetypeTableRecord
  2
ByBlock
 70
     0
  3

 72
    65
 73
     0
 40
0.0
  0
LTYPE
  5
15
330
5
100
AcDbSymbolTableRecord
100
AcDbLinetypeTableRecord
  2
ByLayer
 70
     0
  3

 72
    65
 73
     0
 40
0.0
  0
LTYPE
  5
16
330
5
100
AcDbSymbolTableRecord
100
AcDbLinetypeTableRecord
  2
Continuous
 70
     0
  3
Solid line
 72
    65
 73
     0
 40
0.0
  0
ENDTAB
  0
TABLE
  2
LAYER
  5
2
330
0
100
AcDbSymbolTable
 70
     2
  0
LAYER
  5
10
330
2
100
AcDbSymbolTableRecord
100
AcDbLayerTableRecord
  2
0
 70
     0
 62
     7
  6
Continuous
370
    -3
390
F
347
0
  0
LAYER
  5
5E
330
2
100
AcDbSymbolTableRecord
100
AcDbLayerTableRecord
  2
layer 1
 70
     0
 62
     7
  6
Continuous
370
    -3
390
F
347
0
  0
ENDTAB
  0
TABLE
  2
STYLE
  5
3
330
0
100
AcDbSymbolTable
 70
     1
  0
STYLE
  5
11
330
3
100
AcDbSymbolTableRecord
100
AcDbTextStyleTableRecord
  2
Standard
 70
     0
 40
0.0
 41
1.0
 50
0.0
 71
     0
 42
0.2
  3
txt
  4

  0
ENDTAB
  0
TABLE
  2
VIEW
  5
6
330
0
100
AcDbSymbolTable
 70
     0
  0
ENDTAB
  0
TABLE
  2
UCS
  5
7
330
0
100
AcDbSymbolTable
 70
     0
  0
ENDTAB
  0
TABLE
  2
APPID
  5
9
330
0
100
AcDbSymbolTable
 70
     2
  0
APPID
  5
12
330
9
100
AcDbSymbolTableRecord
100
AcDbRegAppTableRecord
  2
ACAD
 70
     0
  0
APPID
  5
5D
330
9
100
AcDbSymbolTableRecord
100
AcDbRegAppTableRecord
  2
ODA
 70
     0
  0
ENDTAB
  0
TABLE
  2
DIMSTYLE
  5
A
330
0
100
AcDbSymbolTable
 70
     1
100
AcDbDimStyleTable
  0
DIMSTYLE
105
27
330
A
100
AcDbSymbolTableRecord
100
AcDbDimStyleTableRecord
  2
Standard
 70
     0
340
11
  0
ENDTAB
  0
TABLE
  2
BLOCK_RECORD
  5
1
330
0
100
AcDbSymbolTable
 70
     1
  0
BLOCK_RECORD
  5
1F
330
1
100
AcDbSymbolTableRecord
100
AcDbBlockTableRecord
  2
*Model_Space
340
22
 70
     0
280
     1
281
     0
  0
BLOCK_RECORD
  5
1B
330
1
100
AcDbSymbolTableRecord
100
AcDbBlockTableRecord
  2
*Paper_Space
340
1E
 70
     0
280
     1
281
     0
  0
BLOCK_RECORD
  5
23
330
1
100
AcDbSymbolTableRecord
100
AcDbBlockTableRecord
  2
*Paper_Space0
340
26
 70
     0
280
     1
281
     0
  0
ENDTAB
  0
ENDSEC
  0
SECTION
  2
BLOCKS
  0
BLOCK
  5
20
330
1F
100
AcDbEntity
  8
0
100
AcDbBlockBegin
  2
*Model_Space
 70
     0
 10
0.0
 20
0.0
 30
0.0
  3
*Model_Space
  1

  0
ENDBLK
  5
21
330
1F
100
AcDbEntity
  8
0
100
AcDbBlockEnd
  0
BLOCK
  5
1C
330
1B
100
AcDbEntity
 67
     1
  8
0
100
AcDbBlockBegin
  2
*Paper_Space
 70
     0
 10
0.0
 20
0.0
 30
0.0
  3
*Paper_Space
  1

  0
ENDBLK
  5
1D
330
1B
100
AcDbEntity
 67
     1
  8
0
100
AcDbBlockEnd
  0
BLOCK
  5
24
330
23
100
AcDbEntity
  8
0
100
AcDbBlockBegin
  2
*Paper_Space0
 70
     0
 10
0.0
 20
0.0
 30
0.0
  3
*Paper_Space0
  1

  0
ENDBLK
  5
25
330
23
100
AcDbEntity
  8
0
100
AcDbBlockEnd
  0
ENDSEC
  0
SECTION
  2
ENTITIES
  0
SPLINE
  5
5F
330
1F
100
AcDbEntity
  8
layer 1
370
     9
100
AcDbSpline
210
0.0
220
0.0
230
1.0
 70
    24
 71
     3
 72
     8
 73
     4
 74
     0
 42
0.0000000001
 43
0.0000000001
 40
0.0
 40
0.0
 40
0.0
 40
0.0
 40
1.0
 40
1.0
 40
1.0
 40
1.0
 10
7.8888
 20
-50.3107
 30
0.0
 10
7.8888
 20
-50.3107
 30
0.0
 10
10.6089
 20
-50.3107
 30
0.0
 10
10.6089
 20
-50.3107
 30
0.0
  0
SPLINE
  5
60
330
1F
100
AcDbEntity
  8
layer 1
370
     9
100
AcDbSpline
210
0.0
220
0.0
230
1.0
 70
    24
 71
     3
 72
     8
 73
     4
 74
     0
 42
0.0000000001
 43
0.0000000001
 40
0.0
 40
0.0
 40
0.0
 40
0.0
 40
1.0
 40
1.0
 40
1.0
 40
1.0
 10
9.7451
 20
-44.9957
 30
0.0
 10
9.7451
 20
-44.9957
 30
0.0
 10
9.7451
 20
-46.2957
 30
0.0
 10
9.7451
 20
-46.2957
 30
0.0
  0
SPLINE
  5
61
330
1F
100
AcDbEntity
  8
layer 1
370
     9
100
AcDbSpline
210
0.0
220
0.0
230
1.0
 70
    24
 71
     3
 72
     8
 73
     4
 74
     0
 42
0.0000000001
 43
0.0000000001
 40
0.0
 40
0.0
 40
0.0
 40
0.0
 40
1.0
 40
1.0
 40
1.0
 40
1.0
 10
9.7451
 20
-46.2957
 30
0.0
 10
9.7451
 20
-46.2957
 30
0.0
 10
7.8537
 20
-46.2957
 30
0.0
 10
7.8537
 20
-46.2957
 30
0.0
  0
SPLINE
  5
62
330
1F
100
AcDbEntity
  8
layer 1
370
     9
100
AcDbSpline
210
0.0
220
0.0
230
1.0
 70
    24
 71
     3
 72
     8
 73
     4
 74
     0
 42
0.0000000001
 43
0.0000000001
 40
0.0
 40
0.0
 40
0.0
 40
0.0
 40
1.0
 40
1.0
 40
1.0
 40
1.0
 10
7.8537
 20
-46.2957
 30
0.0
 10
7.8537
 20
-46.2957
 30
0.0
 10
7.8537
 20
-46.6027
 30
0.0
 10
7.8537
 20
-46.6027
 30
0.0
  0
SPLINE
  5
63
330
1F
100
AcDbEntity
  8
layer 1
370
     9
100
AcDbSpline
210
0.0
220
0.0
230
1.0
 70
    24
 71
     3
 72
     8
 73
     4
 74
     0
 42
0.0000000001
 43
0.0000000001
 40
0.0
 40
0.0
 40
0.0
 40
0.0
 40
1.0
 40
1.0
 40
1.0
 40
1.0
 10
7.8537
 20
-46.6027
 30
0.0
 10
7.8537
 20
-46.6027
 30
0.0
 10
7.6747
 20
-46.6027
 30
0.0
 10
7.6747
 20
-46.6027
 30
0.0
  0
SPLINE
  5
64
330
1F
100
AcDbEntity
  8
layer 1
370
     9
100
AcDbSpline
210
0.0
220
0.0
230
1.0
 70
    24
 71
     3
 72
     8
 73
     4
 74
     0
 42
0.0000000001
 43
0.0000000001
 40
0.0
 40
0.0
 40
0.0
 40
0.0
 40
1.0
 40
1.0
 40
1.0
 40
1.0
 10
7.6747
 20
-46.6027
 30
0.0
 10
7.6747
 20
-46.6027
 30
0.0
 10
7.6747
 20
-50.3107
 30
0.0
 10
7.6747
 20
-50.3107
 30
0.0
  0
SPLINE
  5
65
330
1F
100
AcDbEntity
  8
layer 1
370
     9
100
AcDbSpline
210
0.0
220
0.0
230
1.0
 70
    24
 71
     3
 72
     8
 73
     4
 74
     0
 42
0.0000000001
 43
0.0000000001
 40
0.0
 40
0.0
 40
0.0
 40
0.0
 40
1.0
 40
1.0
 40
1.0
 40
1.0
 10
10.6089
 20
-50.3107
 30
0.0
 10
10.6089
 20
-50.3107
 30
0.0
 10
10.6089
 20
-48.316
 30
0.0
 10
10.6089
 20
-48.316
 30
0.0
  0
SPLINE
  5
66
330
1F
100
AcDbEntity
  8
layer 1
370
     9
100
AcDbSpline
210
0.0
220
0.0
230
1.0
 70
    24
 71
     3
 72
     8
 73
     4
 74
     0
 42
0.0000000001
 43
0.0000000001
 40
0.0
 40
0.0
 40
0.0
 40
0.0
 40
1.0
 40
1.0
 40
1.0
 40
1.0
 10
10.6089
 20
-48.316
 30
0.0
 10
10.6089
 20
-48.316
 30
0.0
 10
14.3989
 20
-48.316
 30
0.0
 10
14.3989
 20
-48.316
 30
0.0
  0
SPLINE
  5
67
330
1F
100
AcDbEntity
  8
layer 1
370
     9
100
AcDbSpline
210
0.0
220
0.0
230
1.0
 70
    24
 71
     3
 72
     8
 73
     4
 74
     0
 42
0.0000000001
 43
0.0000000001
 40
0.0
 40
0.0
 40
0.0
 40
0.0
 40
1.0
 40
1.0
 40
1.0
 40
1.0
 10
14.3989
 20
-48.316
 30
0.0
 10
14.3989
 20
-48.316
 30
0.0
 10
14.3989
 20
-41.9458
 30
0.0
 10
14.3989
 20
-41.9458
 30
0.0
  0
SPLINE
  5
68
330
1F
100
AcDbEntity
  8
layer 1
370
     9
100
AcDbSpline
210
0.0
220
0.0
230
1.0
 70
    24
 71
     3
 72
     8
 73
     4
 74
     0
 42
0.0000000001
 43
0.0000000001
 40
0.0
 40
0.0
 40
0.0
 40
0.0
 40
1.0
 40
1.0
 40
1.0
 40
1.0
 10
14.3989
 20
-41.9458
 30
0.0
 10
14.3989
 20
-41.9458
 30
0.0
 10
10.6089
 20
-41.9458
 30
0.0
 10
10.6089
 20
-41.9458
 30
0.0
  0
SPLINE
  5
69
330
1F
100
AcDbEntity
  8
layer 1
370
     9
100
AcDbSpline
210
0.0
220
0.0
230
1.0
 70
    24
 71
     3
 72
     8
 73
     4
 74
     0
 42
0.0000000001
 43
0.0000000001
 40
0.0
 40
0.0
 40
0.0
 40
0.0
 40
1.0
 40
1.0
 40
1.0
 40
1.0
 10
10.6089
 20
-41.9458
 30
0.0
 10
10.6089
 20
-41.9458
 30
0.0
 10
10.6089
 20
-39.7239
 30
0.0
 10
10.6089
 20
-39.7239
 30
0.0
  0
SPLINE
  5
6A
330
1F
100
AcDbEntity
  8
layer 1
370
     9
100
AcDbSpline
210
0.0
220
0.0
230
1.0
 70
    24
 71
     3
 72
     8
 73
     4
 74
     0
 42
0.0000000001
 43
0.0000000001
 40
0.0
 40
0.0
 40
0.0
 40
0.0
 40
1.0
 40
1.0
 40
1.0
 40
1.0
 10
7.6747
 20
-39.7239
 30
0.0
 10
7.6747
 20
-39.7239
 30
0.0
 10
10.6089
 20
-39.7239
 30
0.0
 10
10.6089
 20
-39.7239
 30
0.0
  0
SPLINE
  5
6B
330
1F
100
AcDbEntity
  8
layer 1
370
     9
100
AcDbSpline
210
0.0
220
0.0
230
1.0
 70
    24
 71
     3
 72
     8
 73
     4
 74
     0
 42
0.0000000001
 43
0.0000000001
 40
0.0
 40
0.0
 40
0.0
 40
0.0
 40
1.0
 40
1.0
 40
1.0
 40
1.0
 10
7.6747
 20
-39.7239
 30
0.0
 10
7.6747
 20
-39.7239
 30
0.0
 10
7.6747
 20
-44.9957
 30
0.0
 10
7.6747
 20
-44.9957
 30
0.0
  0
SPLINE
  5
6C
330
1F
100
AcDbEntity
  8
layer 1
370
     9
100
AcDbSpline
210
0.0
220
0.0
230
1.0
 70
    24
 71
     3
 72
     8
 73
     4
 74
     0
 42
0.0000000001
 43
0.0000000001
 40
0.0
 40
0.0
 40
0.0
 40
0.0
 40
1.0
 40
1.0
 40
1.0
 40
1.0
 10
7.6747
 20
-44.9957
 30
0.0
 10
7.6747
 20
-44.9957
 30
0.0
 10
9.7451
 20
-44.9957
 30
0.0
 10
9.7451
 20
-44.9957
 30
0.0
  0
SPLINE
  5
6D
330
1F
100
AcDbEntity
  8
layer 1
370
     9
100
AcDbSpline
210
0.0
220
0.0
230
1.0
 70
    24
 71
     3
 72
     8
 73
     4
 74
     0
 42
0.0000000001
 43
0.0000000001
 40
0.0
 40
0.0
 40
0.0
 40
0.0
 40
1.0
 40
1.0
 40
1.0
 40
1.0
 10
8.1089
 20
-38.044
 30
0.0
 10
8.1089
 20
-38.044
 30
0.0
 10
12.6089
 20
-38.044
 30
0.0
 10
12.6089
 20
-38.044
 30
0.0
  0
SPLINE
  5
6E
330
1F
100
AcDbEntity
  8
layer 1
370
     9
100
AcDbSpline
210
0.0
220
0.0
230
1.0
 70
    24
 71
     3
 72
     8
 73
     4
 74
     0
 42
0.0000000001
 43
0.0000000001
 40
0.0
 40
0.0
 40
0.0
 40
0.0
 40
1.0
 40
1.0
 40
1.0
 40
1.0
 10
12.6089
 20
-29.679
 30
0.0
 10
12.6089
 20
-29.679
 30
0.0
 10
12.6089
 20
-27.4572
 30
0.0
 10
12.6089
 20
-27.4572
 30
0.0
  0
SPLINE
  5
6F
330
1F
100
AcDbEntity
  8
layer 1
370
     9
100
AcDbSpline
210
0.0
220
0.0
230
1.0
 70
    24
 71
     3
 72
     8
 73
     4
 74
     0
 42
0.0000000001
 43
0.0000000001
 40
0.0
 40
0.0
 40
0.0
 40
0.0
 40
1.0
 40
1.0
 40
1.0
 40
1.0
 10
7.7865
 20
-27.4572
 30
0.0
 10
7.7865
 20
-27.4572
 30
0.0
 10
12.6089
 20
-27.4572
 30
0.0
 10
12.6089
 20
-27.4572
 30
0.0
  0
SPLINE
  5
70
330
1F
100
AcDbEntity
  8
layer 1
370
     9
100
AcDbSpline
210
0.0
220
0.0
230
1.0
 70
    24
 71
     3
 72
     8
 73
     4
 74
     0
 42
0.0000000001
 43
0.0000000001
 40
0.0
 40
0.0
 40
0.0
 40
0.0
 40
1.0
 40
1.0
 40
1.0
 40
1.0
 10
7.7865
 20
-27.4572
 30
0.0
 10
7.7865
 20
-27.4572
 30
0.0
 10
7.7865
 20
-33.236
 30
0.0
 10
7.7865
 20
-33.236
 30
0.0
  0
SPLINE
  5
71
330
1F
100
AcDbEntity
  8
layer 1
370
     9
100
AcDbSpline
210
0.0
220
0.0
230
1.0
 70
    24
 71
     3
 72
     8
 73
     4
 74
     0
 42
0.0000000001
 43
0.0000000001
 40
0.0
 40
0.0
 40
0.0
 40
0.0
 40
1.0
 40
1.0
 40
1.0
 40
1.0
 10
7.7865
 20
-33.236
 30
0.0
 10
7.7865
 20
-33.236
 30
0.0
 10
9.8537
 20
-33.236
 30
0.0
 10
9.8537
 20
-33.236
 30
0.0
  0
SPLINE
  5
72
330
1F
100
AcDbEntity
  8
layer 1
370
     9
100
AcDbSpline
210
0.0
220
0.0
230
1.0
 70
    24
 71
     3
 72
     8
 73
     4
 74
     0
 42
0.0000000001
 43
0.0000000001
 40
0.0
 40
0.0
 40
0.0
 40
0.0
 40
1.0
 40
1.0
 40
1.0
 40
1.0
 10
9.8537
 20
-33.236
 30
0.0
 10
9.8537
 20
-33.236
 30
0.0
 10
9.8537
 20
-34.336
 30
0.0
 10
9.8537
 20
-34.336
 30
0.0
  0
SPLINE
  5
73
330
1F
100
AcDbEntity
  8
layer 1
370
     9
100
AcDbSpline
210
0.0
220
0.0
230
1.0
 70
    24
 71
     3
 72
     8
 73
     4
 74
     0
 42
0.0000000001
 43
0.0000000001
 40
0.0
 40
0.0
 40
0.0
 40
0.0
 40
1.0
 40
1.0
 40
1.0
 40
1.0
 10
9.8537
 20
-34.336
 30
0.0
 10
9.8537
 20
-34.336
 30
0.0
 10
7.7865
 20
-34.336
 30
0.0
 10
7.7865
 20
-34.336
 30
0.0
  0
SPLINE
  5
74
330
1F
100
AcDbEntity
  8
layer 1
370
     9
100
AcDbSpline
210
0.0
220
0.0
230
1.0
 70
    24
 71
     3
 72
     8
 73
     4
 74
     0
 42
0.0000000001
 43
0.0000000001
 40
0.0
 40
0.0
 40
0.0
 40
0.0
 40
1.0
 40
1.0
 40
1.0
 40
1.0
 10
7.7865
 20
-34.336
 30
0.0
 10
7.7865
 20
-34.336
 30
0.0
 10
7.7865
 20
-38.044
 30
0.0
 10
7.7865
 20
-38.044
 30
0.0
  0
SPLINE
  5
75
330
1F
100
AcDbEntity
  8
layer 1
370
     9
100
AcDbSpline
210
0.0
220
0.0
230
1.0
 70
    24
 71
     3
 72
     8
 73
     4
 74
     0
 42
0.0000000001
 43
0.0000000001
 40
0.0
 40
0.0
 40
0.0
 40
0.0
 40
1.0
 40
1.0
 40
1.0
 40
1.0
 10
12.6089
 20
-38.044
 30
0.0
 10
12.6089
 20
-38.044
 30
0.0
 10
12.6089
 20
-36.0493
 30
0.0
 10
12.6089
 20
-36.0493
 30
0.0
  0
SPLINE
  5
76
330
1F
100
AcDbEntity
  8
layer 1
370
     9
100
AcDbSpline
210
0.0
220
0.0
230
1.0
 70
    24
 71
     3
 72
     8
 73
     4
 74
     0
 42
0.0000000001
 43
0.0000000001
 40
0.0
 40
0.0
 40
0.0
 40
0.0
 40
1.0
 40
1.0
 40
1.0
 40
1.0
 10
12.6089
 20
-36.0493
 30
0.0
 10
12.6089
 20
-36.0493
 30
0.0
 10
16.3989
 20
-36.0493
 30
0.0
 10
16.3989
 20
-36.0493
 30
0.0
  0
SPLINE
  5
77
330
1F
100
AcDbEntity
  8
layer 1
370
     9
100
AcDbSpline
210
0.0
220
0.0
230
1.0
 70
    24
 71
     3
 72
     8
 73
     4
 74
     0
 42
0.0000000001
 43
0.0000000001
 40
0.0
 40
0.0
 40
0.0
 40
0.0
 40
1.0
 40
1.0
 40
1.0
 40
1.0
 10
16.3989
 20
-36.0493
 30
0.0
 10
16.3989
 20
-36.0493
 30
0.0
 10
16.3989
 20
-29.679
 30
0.0
 10
16.3989
 20
-29.679
 30
0.0
  0
SPLINE
  5
78
330
1F
100
AcDbEntity
  8
layer 1
370
     9
100
AcDbSpline
210
0.0
220
0.0
230
1.0
 70
    24
 71
     3
 72
     8
 73
     4
 74
     0
 42
0.0000000001
 43
0.0000000001
 40
0.0
 40
0.0
 40
0.0
 40
0.0
 40
1.0
 40
1.0
 40
1.0
 40
1.0
 10
16.3989
 20
-29.679
 30
0.0
 10
16.3989
 20
-29.679
 30
0.0
 10
12.6089
 20
-29.679
 30
0.0
 10
12.6089
 20
-29.679
 30
0.0
  0
SPLINE
  5
79
330
1F
100
AcDbEntity
  8
layer 1
370
     9
100
AcDbSpline
210
0.0
220
0.0
230
1.0
 70
    24
 71
     3
 72
     8
 73
     4
 74
     0
 42
0.0000000001
 43
0.0000000001
 40
0.0
 40
0.0
 40
0.0
 40
0.0
 40
1.0
 40
1.0
 40
1.0
 40
1.0
 10
8.0078
 20
-25.0113
 30
0.0
 10
8.0078
 20
-25.0113
 30
0.0
 10
12.5078
 20
-25.0113
 30
0.0
 10
12.5078
 20
-25.0113
 30
0.0
  0
SPLINE
  5
7A
330
1F
100
AcDbEntity
  8
layer 1
370
     9
100
AcDbSpline
210
0.0
220
0.0
230
1.0
 70
    24
 71
     3
 72
     8
 73
     4
 74
     0
 42
0.0000000001
 43
0.0000000001
 40
0.0
 40
0.0
 40
0.0
 40
0.0
 40
1.0
 40
1.0
 40
1.0
 40
1.0
 10
12.5078
 20
-16.6463
 30
0.0
 10
12.5078
 20
-16.6463
 30
0.0
 10
12.5078
 20
-14.4245
 30
0.0
 10
12.5078
 20
-14.4245
 30
0.0
  0
SPLINE
  5
7B
330
1F
100
AcDbEntity
  8
layer 1
370
     9
100
AcDbSpline
210
0.0
220
0.0
230
1.0
 70
    24
 71
     3
 72
     8
 73
     4
 74
     0
 42
0.0000000001
 43
0.0000000001
 40
0.0
 40
0.0
 40
0.0
 40
0.0
 40
1.0
 40
1.0
 40
1.0
 40
1.0
 10
7.6854
 20
-14.4245
 30
0.0
 10
7.6854
 20
-14.4245
 30
0.0
 10
12.5078
 20
-14.4245
 30
0.0
 10
12.5078
 20
-14.4245
 30
0.0
  0
SPLINE
  5
7C
330
1F
100
AcDbEntity
  8
layer 1
370
     9
100
AcDbSpline
210
0.0
220
0.0
230
1.0
 70
    24
 71
     3
 72
     8
 73
     4
 74
     0
 42
0.0000000001
 43
0.0000000001
 40
0.0
 40
0.0
 40
0.0
 40
0.0
 40
1.0
 40
1.0
 40
1.0
 40
1.0
 10
7.6854
 20
-14.4245
 30
0.0
 10
7.6854
 20
-14.4245
 30
0.0
 10
7.6854
 20
-20.2033
 30
0.0
 10
7.6854
 20
-20.2033
 30
0.0
  0
SPLINE
  5
7D
330
1F
100
AcDbEntity
  8
layer 1
370
     9
100
AcDbSpline
210
0.0
220
0.0
230
1.0
 70
    24
 71
     3
 72
     8
 73
     4
 74
     0
 42
0.0000000001
 43
0.0000000001
 40
0.0
 40
0.0
 40
0.0
 40
0.0
 40
1.0
 40
1.0
 40
1.0
 40
1.0
 10
7.6854
 20
-20.2033
 30
0.0
 10
7.6854
 20
-20.2033
 30
0.0
 10
9.7526
 20
-20.2033
 30
0.0
 10
9.7526
 20
-20.2033
 30
0.0
  0
SPLINE
  5
7E
330
1F
100
AcDbEntity
  8
layer 1
370
     9
100
AcDbSpline
210
0.0
220
0.0
230
1.0
 70
    24
 71
     3
 72
     8
 73
     4
 74
     0
 42
0.0000000001
 43
0.0000000001
 40
0.0
 40
0.0
 40
0.0
 40
0.0
 40
1.0
 40
1.0
 40
1.0
 40
1.0
 10
9.7526
 20
-20.2033
 30
0.0
 10
9.7526
 20
-20.2033
 30
0.0
 10
9.7526
 20
-21.3033
 30
0.0
 10
9.7526
 20
-21.3033
 30
0.0
  0
SPLINE
  5
7F
330
1F
100
AcDbEntity
  8
layer 1
370
     9
100
AcDbSpline
210
0.0
220
0.0
230
1.0
 70
    24
 71
     3
 72
     8
 73
     4
 74
     0
 42
0.0000000001
 43
0.0000000001
 40
0.0
 40
0.0
 40
0.0
 40
0.0
 40
1.0
 40
1.0
 40
1.0
 40
1.0
 10
9.7526
 20
-21.3033
 30
0.0
 10
9.7526
 20
-21.3033
 30
0.0
 10
7.6854
 20
-21.3033
 30
0.0
 10
7.6854
 20
-21.3033
 30
0.0
  0
SPLINE
  5
80
330
1F
100
AcDbEntity
  8
layer 1
370
     9
100
AcDbSpline
210
0.0
220
0.0
230
1.0
 70
    24
 71
     3
 72
     8
 73
     4
 74
     0
 42
0.0000000001
 43
0.0000000001
 40
0.0
 40
0.0
 40
0.0
 40
0.0
 40
1.0
 40
1.0
 40
1.0
 40
1.0
 10
7.6854
 20
-21.3033
 30
0.0
 10
7.6854
 20
-21.3033
 30
0.0
 10
7.6854
 20
-25.0113
 30
0.0
 10
7.6854
 20
-25.0113
 30
0.0
  0
SPLINE
  5
81
330
1F
100
AcDbEntity
  8
layer 1
370
     9
100
AcDbSpline
210
0.0
220
0.0
230
1.0
 70
    24
 71
     3
 72
     8
 73
     4
 74
     0
 42
0.0000000001
 43
0.0000000001
 40
0.0
 40
0.0
 40
0.0
 40
0.0
 40
1.0
 40
1.0
 40
1.0
 40
1.0
 10
12.5078
 20
-25.0113
 30
0.0
 10
12.5078
 20
-25.0113
 30
0.0
 10
12.5078
 20
-23.0166
 30
0.0
 10
12.5078
 20
-23.0166
 30
0.0
  0
SPLINE
  5
82
330
1F
100
AcDbEntity
  8
layer 1
370
     9
100
AcDbSpline
210
0.0
220
0.0
230
1.0
 70
    24
 71
     3
 72
     8
 73
     4
 74
     0
 42
0.0000000001
 43
0.0000000001
 40
0.0
 40
0.0
 40
0.0
 40
0.0
 40
1.0
 40
1.0
 40
1.0
 40
1.0
 10
12.5078
 20
-23.0166
 30
0.0
 10
12.5078
 20
-23.0166
 30
0.0
 10
16.2978
 20
-23.0166
 30
0.0
 10
16.2978
 20
-23.0166
 30
0.0
  0
SPLINE
  5
83
330
1F
100
AcDbEntity
  8
layer 1
370
     9
100
AcDbSpline
210
0.0
220
0.0
230
1.0
 70
    24
 71
     3
 72
     8
 73
     4
 74
     0
 42
0.0000000001
 43
0.0000000001
 40
0.0
 40
0.0
 40
0.0
 40
0.0
 40
1.0
 40
1.0
 40
1.0
 40
1.0
 10
16.2978
 20
-23.0166
 30
0.0
 10
16.2978
 20
-23.0166
 30
0.0
 10
16.2978
 20
-16.6463
 30
0.0
 10
16.2978
 20
-16.6463
 30
0.0
  0
SPLINE
  5
84
330
1F
100
AcDbEntity
  8
layer 1
370
     9
100
AcDbSpline
210
0.0
220
0.0
230
1.0
 70
    24
 71
     3
 72
     8
 73
     4
 74
     0
 42
0.0000000001
 43
0.0000000001
 40
0.0
 40
0.0
 40
0.0
 40
0.0
 40
1.0
 40
1.0
 40
1.0
 40
1.0
 10
16.2978
 20
-16.6463
 30
0.0
 10
16.2978
 20
-16.6463
 30
0.0
 10
12.5078
 20
-16.6463
 30
0.0
 10
12.5078
 20
-16.6463
 30
0.0
  0
SPLINE
  5
85
330
1F
100
AcDbEntity
  8
layer 1
370
     9
100
AcDbSpline
210
0.0
220
0.0
230
1.0
 70
    24
 71
     3
 72
     8
 73
     4
 74
     0
 42
0.0000000001
 43
0.0000000001
 40
0.0
 40
0.0
 40
0.0
 40
0.0
 40
1.0
 40
1.0
 40
1.0
 40
1.0
 10
8.6602
 20
-7.8123
 30
0.0
 10
8.6602
 20
-7.8123
 30
0.0
 10
8.6602
 20
0.1877
 30
0.0
 10
8.6602
 20
0.1877
 30
0.0
  0
SPLINE
  5
86
330
1F
100
AcDbEntity
  8
layer 1
370
     9
100
AcDbSpline
210
0.0
220
0.0
230
1.0
 70
    24
 71
     3
 72
     8
 73
     4
 74
     0
 42
0.0000000001
 43
0.0000000001
 40
0.0
 40
0.0
 40
0.0
 40
0.0
 40
1.0
 40
1.0
 40
1.0
 40
1.0
 10
8.6602
 20
0.1877
 30
0.0
 10
8.6602
 20
0.1877
 30
0.0
 10
7.6602
 20
0.1877
 30
0.0
 10
7.6602
 20
0.1877
 30
0.0
  0
SPLINE
  5
87
330
1F
100
AcDbEntity
  8
layer 1
370
     9
100
AcDbSpline
210
0.0
220
0.0
230
1.0
 70
    24
 71
     3
 72
     8
 73
     4
 74
     0
 42
0.0000000001
 43
0.0000000001
 40
0.0
 40
0.0
 40
0.0
 40
0.0
 40
1.0
 40
1.0
 40
1.0
 40
1.0
 10
5.6602
 20
2.1877
 30
0.0
 10
5.6602
 20
2.1877
 30
0.0
 10
5.6602
 20
8.1877
 30
0.0
 10
5.6602
 20
8.1877
 30
0.0
  0
SPLINE
  5
88
330
1F
100
AcDbEntity
  8
layer 1
370
     9
100
AcDbSpline
210
0.0
220
0.0
230
1.0
 70
    24
 71
     3
 72
     8
 73
     4
 74
     0
 42
0.0000000001
 43
0.0000000001
 40
0.0
 40
0.0
 40
0.0
 40
0.0
 40
1.0
 40
1.0
 40
1.0
 40
1.0
 10
7.6602
 20
10.1877
 30
0.0
 10
7.6602
 20
10.1877
 30
0.0
 10
8.6602
 20
10.1877
 30
0.0
 10
8.6602
 20
10.1877
 30
0.0
  0
SPLINE
  5
89
330
1F
100
AcDbEntity
  8
layer 1
370
     9
100
AcDbSpline
210
0.0
220
0.0
230
1.0
 70
    24
 71
     3
 72
     8
 73
     4
 74
     0
 42
0.0000000001
 43
0.0000000001
 40
0.0
 40
0.0
 40
0.0
 40
0.0
 40
1.0
 40
1.0
 40
1.0
 40
1.0
 10
8.6602
 20
10.1877
 30
0.0
 10
8.6602
 20
10.1877
 30
0.0
 10
8.6602
 20
29.5909
 30
0.0
 10
8.6602
 20
29.5909
 30
0.0
  0
SPLINE
  5
8A
330
1F
100
AcDbEntity
  8
layer 1
370
     9
100
AcDbSpline
210
0.0
220
0.0
230
1.0
 70
    24
 71
     3
 72
     8
 73
     4
 74
     0
 42
0.0000000001
 43
0.0000000001
 40
0.0
 40
0.0
 40
0.0
 40
0.0
 40
1.0
 40
1.0
 40
1.0
 40
1.0
 10
8.6602
 20
29.5909
 30
0.0
 10
8.6602
 20
29.5909
 30
0.0
 10
7.6602
 20
29.5909
 30
0.0
 10
7.6602
 20
29.5909
 30
0.0
  0
SPLINE
  5
8B
330
1F
100
AcDbEntity
  8
layer 1
370
     9
100
AcDbSpline
210
0.0
220
0.0
230
1.0
 70
    24
 71
     3
 72
     8
 73
     4
 74
     0
 42
0.0000000001
 43
0.0000000001
 40
0.0
 40
0.0
 40
0.0
 40
0.0
 40
1.0
 40
1.0
 40
1.0
 40
1.0
 10
5.6602
 20
31.5909
 30
0.0
 10
5.6602
 20
31.5909
 30
0.0
 10
5.6602
 20
37.5909
 30
0.0
 10
5.6602
 20
37.5909
 30
0.0
  0
SPLINE
  5
8C
330
1F
100
AcDbEntity
  8
layer 1
370
     9
100
AcDbSpline
210
0.0
220
0.0
230
1.0
 70
    24
 71
     3
 72
     8
 73
     4
 74
     0
 42
0.0000000001
 43
0.0000000001
 40
0.0
 40
0.0
 40
0.0
 40
0.0
 40
1.0
 40
1.0
 40
1.0
 40
1.0
 10
7.6602
 20
39.5909
 30
0.0
 10
7.6602
 20
39.5909
 30
0.0
 10
8.6602
 20
39.5909
 30
0.0
 10
8.6602
 20
39.5909
 30
0.0
  0
SPLINE
  5
8D
330
1F
100
AcDbEntity
  8
layer 1
370
     9
100
AcDbSpline
210
0.0
220
0.0
230
1.0
 70
    24
 71
     3
 72
     8
 73
     4
 74
     0
 42
0.0000000001
 43
0.0000000001
 40
0.0
 40
0.0
 40
0.0
 40
0.0
 40
1.0
 40
1.0
 40
1.0
 40
1.0
 10
8.6602
 20
39.5909
 30
0.0
 10
8.6602
 20
39.5909
 30
0.0
 10
8.6602
 20
47.5908
 30
0.0
 10
8.6602
 20
47.5908
 30
0.0
  0
SPLINE
  5
8E
330
1F
100
AcDbEntity
  8
layer 1
370
     9
100
AcDbSpline
210
0.0
220
0.0
230
1.0
 70
    27
 71
     3
 72
     8
 73
     4
 74
     0
 42
0.0000000001
 43
0.0000000001
 40
0.0
 40
0.0
 40
0.0
 40
0.0
 40
1.0
 40
1.0
 40
1.0
 40
1.0
 10
19.8702
 20
49.5908
 30
0.0
 10
19.8702
 20
49.5908
 30
0.0
 10
19.8702
 20
49.5908
 30
0.0
 10
19.8702
 20
49.5908
 30
0.0
  0
SPLINE
  5
8F
330
1F
100
AcDbEntity
  8
layer 1
370
     9
100
AcDbSpline
210
0.0
220
0.0
230
1.0
 70
    24
 71
     3
 72
     8
 73
     4
 74
     0
 42
0.0000000001
 43
0.0000000001
 40
0.0
 40
0.0
 40
0.0
 40
0.0
 40
1.0
 40
1.0
 40
1.0
 40
1.0
 10
10.6602
 20
49.5908
 30
0.0
 10
10.6602
 20
49.5908
 30
0.0
 10
19.8702
 20
49.5908
 30
0.0
 10
19.8702
 20
49.5908
 30
0.0
  0
SPLINE
  5
90
330
1F
100
AcDbEntity
  8
layer 1
370
     9
100
AcDbSpline
210
0.0
220
0.0
230
1.0
 70
    27
 71
     3
 72
     8
 73
     4
 74
     0
 42
0.0000000001
 43
0.0000000001
 40
0.0
 40
0.0
 40
0.0
 40
0.0
 40
1.0
 40
1.0
 40
1.0
 40
1.0
 10
21.8702
 20
47.5908
 30
0.0
 10
21.8702
 20
47.5908
 30
0.0
 10
21.8702
 20
47.5908
 30
0.0
 10
21.8702
 20
47.5908
 30
0.0
  0
SPLINE
  5
91
330
1F
100
AcDbEntity
  8
layer 1
370
     9
100
AcDbSpline
210
0.0
220
0.0
230
1.0
 70
    24
 71
     3
 72
     8
 73
     4
 74
     0
 42
0.0000000001
 43
0.0000000001
 40
0.0
 40
0.0
 40
0.0
 40
0.0
 40
1.0
 40
1.0
 40
1.0
 40
1.0
 10
21.8702
 20
47.5908
 30
0.0
 10
21.8702
 20
47.5908
 30
0.0
 10
21.8702
 20
39.5909
 30
0.0
 10
21.8702
 20
39.5909
 30
0.0
  0
SPLINE
  5
92
330
1F
100
AcDbEntity
  8
layer 1
370
     9
100
AcDbSpline
210
0.0
220
0.0
230
1.0
 70
    24
 71
     3
 72
     8
 73
     4
 74
     0
 42
0.0000000001
 43
0.0000000001
 40
0.0
 40
0.0
 40
0.0
 40
0.0
 40
1.0
 40
1.0
 40
1.0
 40
1.0
 10
21.8702
 20
39.5909
 30
0.0
 10
21.8702
 20
39.5909
 30
0.0
 10
22.8702
 20
39.5909
 30
0.0
 10
22.8702
 20
39.5909
 30
0.0
  0
SPLINE
  5
93
330
1F
100
AcDbEntity
  8
layer 1
370
     9
100
AcDbSpline
210
0.0
220
0.0
230
1.0
 70
    24
 71
     3
 72
     8
 73
     4
 74
     0
 42
0.0000000001
 43
0.0000000001
 40
0.0
 40
0.0
 40
0.0
 40
0.0
 40
1.0
 40
1.0
 40
1.0
 40
1.0
 10
24.8702
 20
37.5909
 30
0.0
 10
24.8702
 20
37.5909
 30
0.0
 10
24.8702
 20
31.5909
 30
0.0
 10
24.8702
 20
31.5909
 30
0.0
  0
SPLINE
  5
94
330
1F
100
AcDbEntity
  8
layer 1
370
     9
100
AcDbSpline
210
0.0
220
0.0
230
1.0
 70
    24
 71
     3
 72
     8
 73
     4
 74
     0
 42
0.0000000001
 43
0.0000000001
 40
0.0
 40
0.0
 40
0.0
 40
0.0
 40
1.0
 40
1.0
 40
1.0
 40
1.0
 10
22.8702
 20
29.5909
 30
0.0
 10
22.8702
 20
29.5909
 30
0.0
 10
21.8702
 20
29.5909
 30
0.0
 10
21.8702
 20
29.5909
 30
0.0
  0
SPLINE
  5
95
330
1F
100
AcDbEntity
  8
layer 1
370
     9
100
AcDbSpline
210
0.0
220
0.0
230
1.0
 70
    24
 71
     3
 72
     8
 73
     4
 74
     0
 42
0.0000000001
 43
0.0000000001
 40
0.0
 40
0.0
 40
0.0
 40
0.0
 40
1.0
 40
1.0
 40
1.0
 40
1.0
 10
21.8702
 20
29.5909
 30
0.0
 10
21.8702
 20
29.5909
 30
0.0
 10
21.8702
 20
10.1877
 30
0.0
 10
21.8702
 20
10.1877
 30
0.0
  0
SPLINE
  5
96
330
1F
100
AcDbEntity
  8
layer 1
370
     9
100
AcDbSpline
210
0.0
220
0.0
230
1.0
 70
    24
 71
     3
 72
     8
 73
     4
 74
     0
 42
0.0000000001
 43
0.0000000001
 40
0.0
 40
0.0
 40
0.0
 40
0.0
 40
1.0
 40
1.0
 40
1.0
 40
1.0
 10
21.8702
 20
10.1877
 30
0.0
 10
21.8702
 20
10.1877
 30
0.0
 10
22.8702
 20
10.1877
 30
0.0
 10
22.8702
 20
10.1877
 30
0.0
  0
SPLINE
  5
97
330
1F
100
AcDbEntity
  8
layer 1
370
     9
100
AcDbSpline
210
0.0
220
0.0
230
1.0
 70
    24
 71
     3
 72
     8
 73
     4
 74
     0
 42
0.0000000001
 43
0.0000000001
 40
0.0
 40
0.0
 40
0.0
 40
0.0
 40
1.0
 40
1.0
 40
1.0
 40
1.0
 10
24.8702
 20
8.1877
 30
0.0
 10
24.8702
 20
8.1877
 30
0.0
 10
24.8702
 20
2.1877
 30
0.0
 10
24.8702
 20
2.1877
 30
0.0
  0
SPLINE
  5
98
330
1F
100
AcDbEntity
  8
layer 1
370
     9
100
AcDbSpline
210
0.0
220
0.0
230
1.0
 70
    24
 71
     3
 72
     8
 73
     4
 74
     0
 42
0.0000000001
 43
0.0000000001
 40
0.0
 40
0.0
 40
0.0
 40
0.0
 40
1.0
 40
1.0
 40
1.0
 40
1.0
 10
22.8702
 20
0.1877
 30
0.0
 10
22.8702
 20
0.1877
 30
0.0
 10
21.8702
 20
0.1877
 30
0.0
 10
21.8702
 20
0.1877
 30
0.0
  0
SPLINE
  5
99
330
1F
100
AcDbEntity
  8
layer 1
370
     9
100
AcDbSpline
210
0.0
220
0.0
230
1.0
 70
    24
 71
     3
 72
     8
 73
     4
 74
     0
 42
0.0000000001
 43
0.0000000001
 40
0.0
 40
0.0
 40
0.0
 40
0.0
 40
1.0
 40
1.0
 40
1.0
 40
1.0
 10
21.8702
 20
0.1877
 30
0.0
 10
21.8702
 20
0.1877
 30
0.0
 10
21.8702
 20
-7.8123
 30
0.0
 10
21.8702
 20
-7.8123
 30
0.0
  0
SPLINE
  5
9A
330
1F
100
AcDbEntity
  8
layer 1
370
     9
100
AcDbSpline
210
0.0
220
0.0
230
1.0
 70
    24
 71
     3
 72
     8
 73
     4
 74
     0
 42
0.0000000001
 43
0.0000000001
 40
0.0
 40
0.0
 40
0.0
 40
0.0
 40
1.0
 40
1.0
 40
1.0
 40
1.0
 10
19.8702
 20
-9.8123
 30
0.0
 10
19.8702
 20
-9.8123
 30
0.0
 10
10.6602
 20
-9.8123
 30
0.0
 10
10.6602
 20
-9.8123
 30
0.0
  0
SPLINE
  5
9B
330
1F
100
AcDbEntity
  8
layer 1
370
     9
100
AcDbSpline
210
0.0
220
0.0
230
1.0
 70
     8
 71
     3
 72
    12
 73
     8
 74
     0
 42
0.0000000001
 43
0.0000000001
 40
0.0
 40
0.0
 40
0.0
 40
0.0
 40
0.5
 40
0.5
 40
0.5
 40
0.5
 40
1.0
 40
1.0
 40
1.0
 40
1.0
 10
5.6602
 20
31.5909
 30
0.0
 10
5.6602
 20
31.0604
 30
0.0
 10
5.8709
 20
30.5517
 30
0.0
 10
6.246
 20
30.1766
 30
0.0
 10
6.246
 20
30.1766
 30
0.0
 10
6.6211
 20
29.8016
 30
0.0
 10
7.1298
 20
29.5909
 30
0.0
 10
7.6602
 20
29.5909
 30
0.0
  0
SPLINE
  5
9C
330
1F
100
AcDbEntity
  8
layer 1
370
     9
100
AcDbSpline
210
0.0
220
0.0
230
1.0
 70
     8
 71
     3
 72
    12
 73
     8
 74
     0
 42
0.0000000001
 43
0.0000000001
 40
0.0
 40
0.0
 40
0.0
 40
0.0
 40
0.5
 40
0.5
 40
0.5
 40
0.5
 40
1.0
 40
1.0
 40
1.0
 40
1.0
 10
7.6602
 20
39.5909
 30
0.0
 10
7.1298
 20
39.5909
 30
0.0
 10
6.6211
 20
39.3801
 30
0.0
 10
6.246
 20
39.0051
 30
0.0
 10
6.246
 20
39.0051
 30
0.0
 10
5.8709
 20
38.63
 30
0.0
 10
5.6602
 20
38.1213
 30
0.0
 10
5.6602
 20
37.5909
 30
0.0
  0
SPLINE
  5
9D
330
1F
100
AcDbEntity
  8
layer 1
370
     9
100
AcDbSpline
210
0.0
220
0.0
230
1.0
 70
     8
 71
     3
 72
    12
 73
     8
 74
     0
 42
0.0000000001
 43
0.0000000001
 40
0.0
 40
0.0
 40
0.0
 40
0.0
 40
0.5
 40
0.5
 40
0.5
 40
0.5
 40
1.0
 40
1.0
 40
1.0
 40
1.0
 10
5.6602
 20
2.1877
 30
0.0
 10
5.6602
 20
1.6573
 30
0.0
 10
5.8709
 20
1.1485
 30
0.0
 10
6.246
 20
0.7735
 30
0.0
 10
6.246
 20
0.7735
 30
0.0
 10
6.6211
 20
0.3984
 30
0.0
 10
7.1298
 20
0.1877
 30
0.0
 10
7.6602
 20
0.1877
 30
0.0
  0
SPLINE
  5
9E
330
1F
100
AcDbEntity
  8
layer 1
370
     9
100
AcDbSpline
210
0.0
220
0.0
230
1.0
 70
     8
 71
     3
 72
    12
 73
     8
 74
     0
 42
0.0000000001
 43
0.0000000001
 40
0.0
 40
0.0
 40
0.0
 40
0.0
 40
0.5
 40
0.5
 40
0.5
 40
0.5
 40
1.0
 40
1.0
 40
1.0
 40
1.0
 10
7.6602
 20
10.1877
 30
0.0
 10
7.1298
 20
10.1877
 30
0.0
 10
6.6211
 20
9.977
 30
0.0
 10
6.246
 20
9.6019
 30
0.0
 10
6.246
 20
9.6019
 30
0.0
 10
5.8709
 20
9.2268
 30
0.0
 10
5.6602
 20
8.7181
 30
0.0
 10
5.6602
 20
8.1877
 30
0.0
  0
SPLINE
  5
9F
330
1F
100
AcDbEntity
  8
layer 1
370
     9
100
AcDbSpline
210
0.0
220
0.0
230
1.0
 70
     8
 71
     3
 72
     8
 73
     4
 74
     0
 42
0.0000000001
 43
0.0000000001
 40
0.0
 40
0.0
 40
0.0
 40
0.0
 40
1.0
 40
1.0
 40
1.0
 40
1.0
 10
24.8702
 20
37.5909
 30
0.0
 10
24.8702
 20
38.6954
 30
0.0
 10
23.9748
 20
39.5908
 30
0.0
 10
22.8702
 20
39.5909
 30
0.0
  0
SPLINE
  5
A0
330
1F
100
AcDbEntity
  8
layer 1
370
     9
100
AcDbSpline
210
0.0
220
0.0
230
1.0
 70
     8
 71
     3
 72
     8
 73
     4
 74
     0
 42
0.0000000001
 43
0.0000000001
 40
0.0
 40
0.0
 40
0.0
 40
0.0
 40
1.0
 40
1.0
 40
1.0
 40
1.0
 10
22.8702
 20
29.5909
 30
0.0
 10
23.9748
 20
29.5909
 30
0.0
 10
24.8702
 20
30.4863
 30
0.0
 10
24.8702
 20
31.5908
 30
0.0
  0
SPLINE
  5
A1
330
1F
100
AcDbEntity
  8
layer 1
370
     9
100
AcDbSpline
210
0.0
220
0.0
230
1.0
 70
     8
 71
     3
 72
    12
 73
     8
 74
     0
 42
0.0000000001
 43
0.0000000001
 40
0.0
 40
0.0
 40
0.0
 40
0.0
 40
0.5
 40
0.5
 40
0.5
 40
0.5
 40
1.0
 40
1.0
 40
1.0
 40
1.0
 10
24.8702
 20
8.1877
 30
0.0
 10
24.8702
 20
8.7181
 30
0.0
 10
24.6595
 20
9.2268
 30
0.0
 10
24.2844
 20
9.6019
 30
0.0
 10
24.2844
 20
9.6019
 30
0.0
 10
23.9093
 20
9.977
 30
0.0
 10
23.4006
 20
10.1877
 30
0.0
 10
22.8702
 20
10.1877
 30
0.0
  0
SPLINE
  5
A2
330
1F
100
AcDbEntity
  8
layer 1
370
     9
100
AcDbSpline
210
0.0
220
0.0
230
1.0
 70
     8
 71
     3
 72
     8
 73
     4
 74
     0
 42
0.0000000001
 43
0.0000000001
 40
0.0
 40
0.0
 40
0.0
 40
0.0
 40
1.0
 40
1.0
 40
1.0
 40
1.0
 10
22.8702
 20
0.1877
 30
0.0
 10
23.9748
 20
0.1877
 30
0.0
 10
24.8702
 20
1.0831
 30
0.0
 10
24.8702
 20
2.1877
 30
0.0
  0
SPLINE
  5
A3
330
1F
100
AcDbEntity
  8
layer 1
370
     9
100
AcDbSpline
210
0.0
220
0.0
230
1.0
 70
     8
 71
     3
 72
    12
 73
     8
 74
     0
 42
0.0000000001
 43
0.0000000001
 40
0.0
 40
0.0
 40
0.0
 40
0.0
 40
0.5
 40
0.5
 40
0.5
 40
0.5
 40
1.0
 40
1.0
 40
1.0
 40
1.0
 10
21.8702
 20
47.5908
 30
0.0
 10
21.8702
 20
48.1212
 30
0.0
 10
21.6595
 20
48.6299
 30
0.0
 10
21.2844
 20
49.005
 30
0.0
 10
21.2844
 20
49.005
 30
0.0
 10
20.9093
 20
49.38
 30
0.0
 10
20.4006
 20
49.5908
 30
0.0
 10
19.8702
 20
49.5908
 30
0.0
  0
SPLINE
  5
A4
330
1F
100
AcDbEntity
  8
layer 1
370
     9
100
AcDbSpline
210
0.0
220
0.0
230
1.0
 70
     8
 71
     3
 72
    12
 73
     8
 74
     0
 42
0.0000000001
 43
0.0000000001
 40
0.0
 40
0.0
 40
0.0
 40
0.0
 40
0.5
 40
0.5
 40
0.5
 40
0.5
 40
1.0
 40
1.0
 40
1.0
 40
1.0
 10
10.6602
 20
49.5908
 30
0.0
 10
10.1298
 20
49.5908
 30
0.0
 10
9.6211
 20
49.38
 30
0.0
 10
9.246
 20
49.005
 30
0.0
 10
9.246
 20
49.005
 30
0.0
 10
8.8709
 20
48.6299
 30
0.0
 10
8.6602
 20
48.1212
 30
0.0
 10
8.6602
 20
47.5908
 30
0.0
  0
SPLINE
  5
A5
330
1F
100
AcDbEntity
  8
layer 1
370
     9
100
AcDbSpline
210
0.0
220
0.0
230
1.0
 70
     8
 71
     3
 72
    12
 73
     8
 74
     0
 42
0.0000000001
 43
0.0000000001
 40
0.0
 40
0.0
 40
0.0
 40
0.0
 40
0.5
 40
0.5
 40
0.5
 40
0.5
 40
1.0
 40
1.0
 40
1.0
 40
1.0
 10
19.8702
 20
-9.8123
 30
0.0
 10
20.4006
 20
-9.8123
 30
0.0
 10
20.9093
 20
-9.6016
 30
0.0
 10
21.2844
 20
-9.2265
 30
0.0
 10
21.2844
 20
-9.2265
 30
0.0
 10
21.6595
 20
-8.8515
 30
0.0
 10
21.8702
 20
-8.3427
 30
0.0
 10
21.8702
 20
-7.8123
 30
0.0
  0
SPLINE
  5
A6
330
1F
100
AcDbEntity
  8
layer 1
370
     9
100
AcDbSpline
210
0.0
220
0.0
230
1.0
 70
     8
 71
     3
 72
    12
 73
     8
 74
     0
 42
0.0000000001
 43
0.0000000001
 40
0.0
 40
0.0
 40
0.0
 40
0.0
 40
0.5
 40
0.5
 40
0.5
 40
0.5
 40
1.0
 40
1.0
 40
1.0
 40
1.0
 10
8.6602
 20
-7.8123
 30
0.0
 10
8.6602
 20
-8.3427
 30
0.0
 10
8.8709
 20
-8.8515
 30
0.0
 10
9.246
 20
-9.2265
 30
0.0
 10
9.246
 20
-9.2265
 30
0.0
 10
9.6211
 20
-9.6016
 30
0.0
 10
10.1298
 20
-9.8123
 30
0.0
 10
10.6602
 20
-9.8123
 30
0.0
  0
SPLINE
  5
A7
330
1F
100
AcDbEntity
  8
layer 1
370
     9
100
AcDbSpline
210
0.0
220
0.0
230
1.0
 70
    24
 71
     3
 72
     8
 73
     4
 74
     0
 42
0.0000000001
 43
0.0000000001
 40
0.0
 40
0.0
 40
0.0
 40
0.0
 40
1.0
 40
1.0
 40
1.0
 40
1.0
 10
44.9197
 20
36.8174
 30
0.0
 10
44.9197
 20
36.8174
 30
0.0
 10
44.3143
 20
36.8174
 30
0.0
 10
44.3143
 20
36.8174
 30
0.0
  0
SPLINE
  5
A8
330
1F
100
AcDbEntity
  8
layer 1
370
     9
100
AcDbSpline
210
0.0
220
0.0
230
1.0
 70
     8
 71
     3
 72
    16
 73
    12
 74
     0
 42
0.0000000001
 43
0.0000000001
 40
0.0
 40
0.0
 40
0.0
 40
0.0
 40
0.3333333333333333
 40
0.3333333333333333
 40
0.3333333333333333
 40
0.3333333333333333
 40
0.6666666666666666
 40
0.6666666666666666
 40
0.6666666666666666
 40
0.6666666666666666
 40
1.0
 40
1.0
 40
1.0
 40
1.0
 10
44.292
 20
39.8174
 30
0.0
 10
43.6396
 20
41.1382
 30
0.0
 10
42.2184
 20
41.897
 30
0.0
 10
40.7578
 20
41.704
 30
0.0
 10
40.7578
 20
41.704
 30
0.0
 10
39.2973
 20
41.5111
 30
0.0
 10
38.1218
 20
40.4094
 30
0.0
 10
37.8348
 20
38.9644
 30
0.0
 10
37.8348
 20
38.9644
 30
0.0
 10
37.5478
 20
37.5194
 30
0.0
 10
38.213
 20
36.0521
 30
0.0
 10
39.4889
 20
35.3156
 30
0.0
  0
SPLINE
  5
A9
330
1F
100
AcDbEntity
  8
layer 1
370
     9
100
AcDbSpline
210
0.0
220
0.0
230
1.0
 70
    24
 71
     3
 72
     8
 73
     4
 74
     0
 42
0.0000000001
 43
0.0000000001
 40
0.0
 40
0.0
 40
0.0
 40
0.0
 40
1.0
 40
1.0
 40
1.0
 40
1.0
 10
44.292
 20
39.8174
 30
0.0
 10
44.292
 20
39.8174
 30
0.0
 10
44.9197
 20
39.8174
 30
0.0
 10
44.9197
 20
39.8174
 30
0.0
  0
SPLINE
  5
AA
330
1F
100
AcDbEntity
  8
layer 1
370
     9
100
AcDbSpline
210
0.0
220
0.0
230
1.0
 70
     8
 71
     3
 72
    12
 73
     8
 74
     0
 42
0.0000000001
 43
0.0000000001
 40
0.0
 40
0.0
 40
0.0
 40
0.0
 40
0.5
 40
0.5
 40
0.5
 40
0.5
 40
1.0
 40
1.0
 40
1.0
 40
1.0
 10
45.9197
 20
44.5908
 30
0.0
 10
46.4501
 20
44.5908
 30
0.0
 10
46.9588
 20
44.8015
 30
0.0
 10
47.3339
 20
45.1765
 30
0.0
 10
47.3339
 20
45.1765
 30
0.0
 10
47.709
 20
45.5516
 30
0.0
 10
47.9197
 20
46.0603
 30
0.0
 10
47.9197
 20
46.5908
 30
0.0
  0
SPLINE
  5
AB
330
1F
100
AcDbEntity
  8
layer 1
370
     9
100
AcDbSpline
210
0.0
220
0.0
230
1.0
 70
     8
 71
     3
 72
    12
 73
     8
 74
     0
 42
0.0000000001
 43
0.0000000001
 40
0.0
 40
0.0
 40
0.0
 40
0.0
 40
0.5
 40
0.5
 40
0.5
 40
0.5
 40
1.0
 40
1.0
 40
1.0
 40
1.0
 10
28.7097
 20
46.5908
 30
0.0
 10
28.7097
 20
46.0603
 30
0.0
 10
28.9204
 20
45.5516
 30
0.0
 10
29.2955
 20
45.1765
 30
0.0
 10
29.2955
 20
45.1765
 30
0.0
 10
29.6705
 20
44.8015
 30
0.0
 10
30.1792
 20
44.5908
 30
0.0
 10
30.7097
 20
44.5908
 30
0.0
  0
SPLINE
  5
AC
330
1F
100
AcDbEntity
  8
layer 1
370
     9
100
AcDbSpline
210
0.0
220
0.0
230
1.0
 70
     8
 71
     3
 72
    12
 73
     8
 74
     0
 42
0.0000000001
 43
0.0000000001
 40
0.0
 40
0.0
 40
0.0
 40
0.0
 40
0.5
 40
0.5
 40
0.5
 40
0.5
 40
1.0
 40
1.0
 40
1.0
 40
1.0
 10
30.7097
 20
-5.1523
 30
0.0
 10
30.1792
 20
-5.1523
 30
0.0
 10
29.6705
 20
-5.363
 30
0.0
 10
29.2955
 20
-5.7381
 30
0.0
 10
29.2955
 20
-5.7381
 30
0.0
 10
28.9204
 20
-6.1132
 30
0.0
 10
28.7097
 20
-6.6219
 30
0.0
 10
28.7097
 20
-7.1523
 30
0.0
  0
SPLINE
  5
AD
330
1F
100
AcDbEntity
  8
layer 1
370
     9
100
AcDbSpline
210
0.0
220
0.0
230
1.0
 70
    24
 71
     3
 72
     8
 73
     4
 74
     0
 42
0.0000000001
 43
0.0000000001
 40
0.0
 40
0.0
 40
0.0
 40
0.0
 40
1.0
 40
1.0
 40
1.0
 40
1.0
 10
44.9197
 20
3.2574
 30
0.0
 10
44.9197
 20
3.2574
 30
0.0
 10
44.9197
 20
19.8174
 30
0.0
 10
44.9197
 20
19.8174
 30
0.0
  0
SPLINE
  5
AE
330
1F
100
AcDbEntity
  8
layer 1
370
     9
100
AcDbSpline
210
0.0
220
0.0
230
1.0
 70
    24
 71
     3
 72
     8
 73
     4
 74
     0
 42
0.0000000001
 43
0.0000000001
 40
0.0
 40
0.0
 40
0.0
 40
0.0
 40
1.0
 40
1.0
 40
1.0
 40
1.0
 10
44.9197
 20
32.4539
 30
0.0
 10
44.9197
 20
32.4539
 30
0.0
 10
44.9197
 20
36.8174
 30
0.0
 10
44.9197
 20
36.8174
 30
0.0
  0
SPLINE
  5
AF
330
1F
100
AcDbEntity
  8
layer 1
370
     9
100
AcDbSpline
210
0.0
220
0.0
230
1.0
 70
    24
 71
     3
 72
     8
 73
     4
 74
     0
 42
0.0000000001
 43
0.0000000001
 40
0.0
 40
0.0
 40
0.0
 40
0.0
 40
1.0
 40
1.0
 40
1.0
 40
1.0
 10
33.7097
 20
32.4539
 30
0.0
 10
33.7097
 20
32.4539
 30
0.0
 10
34.3202
 20
32.4539
 30
0.0
 10
34.3202
 20
32.4539
 30
0.0
  0
SPLINE
  5
B0
330
1F
100
AcDbEntity
  8
layer 1
370
     9
100
AcDbSpline
210
0.0
220
0.0
230
1.0
 70
    24
 71
     3
 72
     8
 73
     4
 74
     0
 42
0.0000000001
 43
0.0000000001
 40
0.0
 40
0.0
 40
0.0
 40
0.0
 40
1.0
 40
1.0
 40
1.0
 40
1.0
 10
34.3202
 20
13.3816
 30
0.0
 10
34.3202
 20
13.3816
 30
0.0
 10
33.7097
 20
13.3816
 30
0.0
 10
33.7097
 20
13.3816
 30
0.0
  0
SPLINE
  5
B1
330
1F
100
AcDbEntity
  8
layer 1
370
     9
100
AcDbSpline
210
0.0
220
0.0
230
1.0
 70
    24
 71
     3
 72
     8
 73
     4
 74
     0
 42
0.0000000001
 43
0.0000000001
 40
0.0
 40
0.0
 40
0.0
 40
0.0
 40
1.0
 40
1.0
 40
1.0
 40
1.0
 10
31.7097
 20
-5.1523
 30
0.0
 10
31.7097
 20
-5.1523
 30
0.0
 10
30.7097
 20
-5.1523
 30
0.0
 10
30.7097
 20
-5.1523
 30
0.0
  0
SPLINE
  5
B2
330
1F
100
AcDbEntity
  8
layer 1
370
     9
100
AcDbSpline
210
0.0
220
0.0
230
1.0
 70
    27
 71
     3
 72
     8
 73
     4
 74
     0
 42
0.0000000001
 43
0.0000000001
 40
0.0
 40
0.0
 40
0.0
 40
0.0
 40
1.0
 40
1.0
 40
1.0
 40
1.0
 10
31.7097
 20
44.5908
 30
0.0
 10
31.7097
 20
44.5908
 30
0.0
 10
31.7097
 20
44.5908
 30
0.0
 10
31.7097
 20
44.5908
 30
0.0
  0
SPLINE
  5
B3
330
1F
100
AcDbEntity
  8
layer 1
370
     9
100
AcDbSpline
210
0.0
220
0.0
230
1.0
 70
    24
 71
     3
 72
     8
 73
     4
 74
     0
 42
0.0000000001
 43
0.0000000001
 40
0.0
 40
0.0
 40
0.0
 40
0.0
 40
1.0
 40
1.0
 40
1.0
 40
1.0
 10
30.7097
 20
44.5908
 30
0.0
 10
30.7097
 20
44.5908
 30
0.0
 10
31.7097
 20
44.5908
 30
0.0
 10
31.7097
 20
44.5908
 30
0.0
  0
SPLINE
  5
B4
330
1F
100
AcDbEntity
  8
layer 1
370
     9
100
AcDbSpline
210
0.0
220
0.0
230
1.0
 70
    27
 71
     3
 72
     8
 73
     4
 74
     0
 42
0.0000000001
 43
0.0000000001
 40
0.0
 40
0.0
 40
0.0
 40
0.0
 40
1.0
 40
1.0
 40
1.0
 40
1.0
 10
47.9197
 20
49.5908
 30
0.0
 10
47.9197
 20
49.5908
 30
0.0
 10
47.9197
 20
49.5908
 30
0.0
 10
47.9197
 20
49.5908
 30
0.0
  0
SPLINE
  5
B5
330
1F
100
AcDbEntity
  8
layer 1
370
     9
100
AcDbSpline
210
0.0
220
0.0
230
1.0
 70
    24
 71
     3
 72
     8
 73
     4
 74
     0
 42
0.0000000001
 43
0.0000000001
 40
0.0
 40
0.0
 40
0.0
 40
0.0
 40
1.0
 40
1.0
 40
1.0
 40
1.0
 10
47.9197
 20
46.5908
 30
0.0
 10
47.9197
 20
46.5908
 30
0.0
 10
47.9197
 20
49.5908
 30
0.0
 10
47.9197
 20
49.5908
 30
0.0
  0
SPLINE
  5
B6
330
1F
100
AcDbEntity
  8
layer 1
370
     9
100
AcDbSpline
210
0.0
220
0.0
230
1.0
 70
    24
 71
     3
 72
     8
 73
     4
 74
     0
 42
0.0000000001
 43
0.0000000001
 40
0.0
 40
0.0
 40
0.0
 40
0.0
 40
1.0
 40
1.0
 40
1.0
 40
1.0
 10
34.3202
 20
32.4539
 30
0.0
 10
34.3202
 20
32.4539
 30
0.0
 10
38.0225
 20
32.4539
 30
0.0
 10
38.0225
 20
32.4539
 30
0.0
  0
SPLINE
  5
B7
330
1F
100
AcDbEntity
  8
layer 1
370
     9
100
AcDbSpline
210
0.0
220
0.0
230
1.0
 70
    24
 71
     3
 72
     8
 73
     4
 74
     0
 42
0.0000000001
 43
0.0000000001
 40
0.0
 40
0.0
 40
0.0
 40
0.0
 40
1.0
 40
1.0
 40
1.0
 40
1.0
 10
39.0225
 20
14.5258
 30
0.0
 10
39.0225
 20
14.5258
 30
0.0
 10
39.0225
 20
14.3816
 30
0.0
 10
39.0225
 20
14.3816
 30
0.0
  0
SPLINE
  5
B8
330
1F
100
AcDbEntity
  8
layer 1
370
     9
100
AcDbSpline
210
0.0
220
0.0
230
1.0
 70
     8
 71
     3
 72
    12
 73
     8
 74
     0
 42
0.0000000001
 43
0.0000000001
 40
0.0
 40
0.0
 40
0.0
 40
0.0
 40
0.5
 40
0.5
 40
0.5
 40
0.5
 40
1.0
 40
1.0
 40
1.0
 40
1.0
 10
39.4889
 20
35.3156
 30
0.0
 10
40.3201
 20
34.8359
 30
0.0
 10
41.3139
 20
34.7252
 30
0.0
 10
42.2303
 20
35.0104
 30
0.0
 10
42.2303
 20
35.0104
 30
0.0
 10
43.1466
 20
35.2956
 30
0.0
 10
43.9021
 20
35.9507
 30
0.0
 10
44.3143
 20
36.8174
 30
0.0
  0
SPLINE
  5
B9
330
1F
100
AcDbEntity
  8
layer 1
370
     9
100
AcDbSpline
210
0.0
220
0.0
230
1.0
 70
    24
 71
     3
 72
     8
 73
     4
 74
     0
 42
0.0000000001
 43
0.0000000001
 40
0.0
 40
0.0
 40
0.0
 40
0.0
 40
1.0
 40
1.0
 40
1.0
 40
1.0
 10
31.7097
 20
-9.8123
 30
0.0
 10
31.7097
 20
-9.8123
 30
0.0
 10
47.9197
 20
-9.8123
 30
0.0
 10
47.9197
 20
-9.8123
 30
0.0
  0
SPLINE
  5
BA
330
1F
100
AcDbEntity
  8
layer 1
370
     9
100
AcDbSpline
210
0.0
220
0.0
230
1.0
 70
    27
 71
     3
 72
     8
 73
     4
 74
     0
 42
0.0000000001
 43
0.0000000001
 40
0.0
 40
0.0
 40
0.0
 40
0.0
 40
1.0
 40
1.0
 40
1.0
 40
1.0
 10
44.9197
 20
49.5908
 30
0.0
 10
44.9197
 20
49.5908
 30
0.0
 10
44.9197
 20
49.5908
 30
0.0
 10
44.9197
 20
49.5908
 30
0.0
  0
SPLINE
  5
BB
330
1F
100
AcDbEntity
  8
layer 1
370
     9
100
AcDbSpline
210
0.0
220
0.0
230
1.0
 70
    24
 71
     3
 72
     8
 73
     4
 74
     0
 42
0.0000000001
 43
0.0000000001
 40
0.0
 40
0.0
 40
0.0
 40
0.0
 40
1.0
 40
1.0
 40
1.0
 40
1.0
 10
31.7097
 20
49.5908
 30
0.0
 10
31.7097
 20
49.5908
 30
0.0
 10
44.9197
 20
49.5908
 30
0.0
 10
44.9197
 20
49.5908
 30
0.0
  0
SPLINE
  5
BC
330
1F
100
AcDbEntity
  8
layer 1
370
     9
100
AcDbSpline
210
0.0
220
0.0
230
1.0
 70
    24
 71
     3
 72
     8
 73
     4
 74
     0
 42
0.0000000001
 43
0.0000000001
 40
0.0
 40
0.0
 40
0.0
 40
0.0
 40
1.0
 40
1.0
 40
1.0
 40
1.0
 10
47.9197
 20
-7.1486
 30
0.0
 10
47.9197
 20
-7.1486
 30
0.0
 10
47.9197
 20
-9.8123
 30
0.0
 10
47.9197
 20
-9.8123
 30
0.0
  0
SPLINE
  5
BD
330
1F
100
AcDbEntity
  8
layer 1
370
     9
100
AcDbSpline
210
0.0
220
0.0
230
1.0
 70
    24
 71
     3
 72
     8
 73
     4
 74
     0
 42
0.0000000001
 43
0.0000000001
 40
0.0
 40
0.0
 40
0.0
 40
0.0
 40
1.0
 40
1.0
 40
1.0
 40
1.0
 10
45.9197
 20
-5.1486
 30
0.0
 10
45.9197
 20
-5.1486
 30
0.0
 10
37.263
 20
-5.1486
 30
0.0
 10
37.263
 20
-5.1486
 30
0.0
  0
SPLINE
  5
BE
330
1F
100
AcDbEntity
  8
layer 1
370
     9
100
AcDbSpline
210
0.0
220
0.0
230
1.0
 70
    24
 71
     3
 72
     8
 73
     4
 74
     0
 42
0.0000000001
 43
0.0000000001
 40
0.0
 40
0.0
 40
0.0
 40
0.0
 40
1.0
 40
1.0
 40
1.0
 40
1.0
 10
37.263
 20
3.2574
 30
0.0
 10
37.263
 20
3.2574
 30
0.0
 10
44.9197
 20
3.2574
 30
0.0
 10
44.9197
 20
3.2574
 30
0.0
  0
SPLINE
  5
BF
330
1F
100
AcDbEntity
  8
layer 1
370
     9
100
AcDbSpline
210
0.0
220
0.0
230
1.0
 70
    24
 71
     3
 72
     8
 73
     4
 74
     0
 42
0.0000000001
 43
0.0000000001
 40
0.0
 40
0.0
 40
0.0
 40
0.0
 40
1.0
 40
1.0
 40
1.0
 40
1.0
 10
44.9197
 20
39.8174
 30
0.0
 10
44.9197
 20
39.8174
 30
0.0
 10
44.9197
 20
44.5908
 30
0.0
 10
44.9197
 20
44.5908
 30
0.0
  0
SPLINE
  5
C0
330
1F
100
AcDbEntity
  8
layer 1
370
     9
100
AcDbSpline
210
0.0
220
0.0
230
1.0
 70
     8
 71
     3
 72
    12
 73
     8
 74
     0
 42
0.0000000001
 43
0.0000000001
 40
0.0
 40
0.0
 40
0.0
 40
0.0
 40
0.5
 40
0.5
 40
0.5
 40
0.5
 40
1.0
 40
1.0
 40
1.0
 40
1.0
 10
47.9197
 20
-7.1486
 30
0.0
 10
47.9197
 20
-6.6182
 30
0.0
 10
47.709
 20
-6.1095
 30
0.0
 10
47.3339
 20
-5.7344
 30
0.0
 10
47.3339
 20
-5.7344
 30
0.0
 10
46.9588
 20
-5.3593
 30
0.0
 10
46.4501
 20
-5.1486
 30
0.0
 10
45.9197
 20
-5.1486
 30
0.0
  0
SPLINE
  5
C1
330
1F
100
AcDbEntity
  8
layer 1
370
     9
100
AcDbSpline
210
0.0
220
0.0
230
1.0
 70
    27
 71
     3
 72
     8
 73
     4
 74
     0
 42
0.0000000001
 43
0.0000000001
 40
0.0
 40
0.0
 40
0.0
 40
0.0
 40
1.0
 40
1.0
 40
1.0
 40
1.0
 10
45.9197
 20
44.5908
 30
0.0
 10
45.9197
 20
44.5908
 30
0.0
 10
45.9197
 20
44.5908
 30
0.0
 10
45.9197
 20
44.5908
 30
0.0
  0
SPLINE
  5
C2
330
1F
100
AcDbEntity
  8
layer 1
370
     9
100
AcDbSpline
210
0.0
220
0.0
230
1.0
 70
    24
 71
     3
 72
     8
 73
     4
 74
     0
 42
0.0000000001
 43
0.0000000001
 40
0.0
 40
0.0
 40
0.0
 40
0.0
 40
1.0
 40
1.0
 40
1.0
 40
1.0
 10
44.9197
 20
44.5908
 30
0.0
 10
44.9197
 20
44.5908
 30
0.0
 10
45.9197
 20
44.5908
 30
0.0
 10
45.9197
 20
44.5908
 30
0.0
  0
SPLINE
  5
C3
330
1F
100
AcDbEntity
  8
layer 1
370
     9
100
AcDbSpline
210
0.0
220
0.0
230
1.0
 70
    27
 71
     3
 72
     8
 73
     4
 74
     0
 42
0.0000000001
 43
0.0000000001
 40
0.0
 40
0.0
 40
0.0
 40
0.0
 40
1.0
 40
1.0
 40
1.0
 40
1.0
 10
47.9197
 20
49.5908
 30
0.0
 10
47.9197
 20
49.5908
 30
0.0
 10
47.9197
 20
49.5908
 30
0.0
 10
47.9197
 20
49.5908
 30
0.0
  0
SPLINE
  5
C4
330
1F
100
AcDbEntity
  8
layer 1
370
     9
100
AcDbSpline
210
0.0
220
0.0
230
1.0
 70
    24
 71
     3
 72
     8
 73
     4
 74
     0
 42
0.0000000001
 43
0.0000000001
 40
0.0
 40
0.0
 40
0.0
 40
0.0
 40
1.0
 40
1.0
 40
1.0
 40
1.0
 10
47.9197
 20
49.5908
 30
0.0
 10
47.9197
 20
49.5908
 30
0.0
 10
44.9197
 20
49.5908
 30
0.0
 10
44.9197
 20
49.5908
 30
0.0
  0
SPLINE
  5
C5
330
1F
100
AcDbEntity
  8
layer 1
370
     9
100
AcDbSpline
210
0.0
220
0.0
230
1.0
 70
    24
 71
     3
 72
     8
 73
     4
 74
     0
 42
0.0000000001
 43
0.0000000001
 40
0.0
 40
0.0
 40
0.0
 40
0.0
 40
1.0
 40
1.0
 40
1.0
 40
1.0
 10
28.7097
 20
-7.1523
 30
0.0
 10
28.7097
 20
-7.1523
 30
0.0
 10
28.7097
 20
-9.8123
 30
0.0
 10
28.7097
 20
-9.8123
 30
0.0
  0
SPLINE
  5
C6
330
1F
100
AcDbEntity
  8
layer 1
370
     9
100
AcDbSpline
210
0.0
220
0.0
230
1.0
 70
    24
 71
     3
 72
     8
 73
     4
 74
     0
 42
0.0000000001
 43
0.0000000001
 40
0.0
 40
0.0
 40
0.0
 40
0.0
 40
1.0
 40
1.0
 40
1.0
 40
1.0
 10
28.7097
 20
-9.8123
 30
0.0
 10
28.7097
 20
-9.8123
 30
0.0
 10
31.7097
 20
-9.8123
 30
0.0
 10
31.7097
 20
-9.8123
 30
0.0
  0
SPLINE
  5
C7
330
1F
100
AcDbEntity
  8
layer 1
370
     9
100
AcDbSpline
210
0.0
220
0.0
230
1.0
 70
    27
 71
     3
 72
     8
 73
     4
 74
     0
 42
0.0000000001
 43
0.0000000001
 40
0.0
 40
0.0
 40
0.0
 40
0.0
 40
1.0
 40
1.0
 40
1.0
 40
1.0
 10
28.7097
 20
49.5908
 30
0.0
 10
28.7097
 20
49.5908
 30
0.0
 10
28.7097
 20
49.5908
 30
0.0
 10
28.7097
 20
49.5908
 30
0.0
  0
SPLINE
  5
C8
330
1F
100
AcDbEntity
  8
layer 1
370
     9
100
AcDbSpline
210
0.0
220
0.0
230
1.0
 70
    24
 71
     3
 72
     8
 73
     4
 74
     0
 42
0.0000000001
 43
0.0000000001
 40
0.0
 40
0.0
 40
0.0
 40
0.0
 40
1.0
 40
1.0
 40
1.0
 40
1.0
 10
28.7097
 20
49.5908
 30
0.0
 10
28.7097
 20
49.5908
 30
0.0
 10
28.7097
 20
46.5908
 30
0.0
 10
28.7097
 20
46.5908
 30
0.0
  0
SPLINE
  5
C9
330
1F
100
AcDbEntity
  8
layer 1
370
     9
100
AcDbSpline
210
0.0
220
0.0
230
1.0
 70
    27
 71
     3
 72
     8
 73
     4
 74
     0
 42
0.0000000001
 43
0.0000000001
 40
0.0
 40
0.0
 40
0.0
 40
0.0
 40
1.0
 40
1.0
 40
1.0
 40
1.0
 10
31.7097
 20
49.5908
 30
0.0
 10
31.7097
 20
49.5908
 30
0.0
 10
31.7097
 20
49.5908
 30
0.0
 10
31.7097
 20
49.5908
 30
0.0
  0
SPLINE
  5
CA
330
1F
100
AcDbEntity
  8
layer 1
370
     9
100
AcDbSpline
210
0.0
220
0.0
230
1.0
 70
    24
 71
     3
 72
     8
 73
     4
 74
     0
 42
0.0000000001
 43
0.0000000001
 40
0.0
 40
0.0
 40
0.0
 40
0.0
 40
1.0
 40
1.0
 40
1.0
 40
1.0
 10
31.7097
 20
49.5908
 30
0.0
 10
31.7097
 20
49.5908
 30
0.0
 10
28.7097
 20
49.5908
 30
0.0
 10
28.7097
 20
49.5908
 30
0.0
  0
SPLINE
  5
CB
330
1F
100
AcDbEntity
  8
layer 1
370
     9
100
AcDbSpline
210
0.0
220
0.0
230
1.0
 70
    24
 71
     3
 72
     8
 73
     4
 74
     0
 42
0.0000000001
 43
0.0000000001
 40
0.0
 40
0.0
 40
0.0
 40
0.0
 40
1.0
 40
1.0
 40
1.0
 40
1.0
 10
45.9197
 20
32.4539
 30
0.0
 10
45.9197
 20
32.4539
 30
0.0
 10
44.9197
 20
32.4539
 30
0.0
 10
44.9197
 20
32.4539
 30
0.0
  0
SPLINE
  5
CC
330
1F
100
AcDbEntity
  8
layer 1
370
     9
100
AcDbSpline
210
0.0
220
0.0
230
1.0
 70
     8
 71
     3
 72
     8
 73
     4
 74
     0
 42
0.0000000001
 43
0.0000000001
 40
0.0
 40
0.0
 40
0.0
 40
0.0
 40
1.0
 40
1.0
 40
1.0
 40
1.0
 10
47.9197
 20
30.4539
 30
0.0
 10
47.9197
 20
31.5585
 30
0.0
 10
47.0243
 20
32.4539
 30
0.0
 10
45.9197
 20
32.4539
 30
0.0
  0
SPLINE
  5
CD
330
1F
100
AcDbEntity
  8
layer 1
370
     9
100
AcDbSpline
210
0.0
220
0.0
230
1.0
 70
    24
 71
     3
 72
     8
 73
     4
 74
     0
 42
0.0000000001
 43
0.0000000001
 40
0.0
 40
0.0
 40
0.0
 40
0.0
 40
1.0
 40
1.0
 40
1.0
 40
1.0
 10
44.9197
 20
19.8174
 30
0.0
 10
44.9197
 20
19.8174
 30
0.0
 10
45.9197
 20
19.8174
 30
0.0
 10
45.9197
 20
19.8174
 30
0.0
  0
SPLINE
  5
CE
330
1F
100
AcDbEntity
  8
layer 1
370
     9
100
AcDbSpline
210
0.0
220
0.0
230
1.0
 70
    24
 71
     3
 72
     8
 73
     4
 74
     0
 42
0.0000000001
 43
0.0000000001
 40
0.0
 40
0.0
 40
0.0
 40
0.0
 40
1.0
 40
1.0
 40
1.0
 40
1.0
 10
47.9197
 20
21.8174
 30
0.0
 10
47.9197
 20
21.8174
 30
0.0
 10
47.9197
 20
30.4539
 30
0.0
 10
47.9197
 20
30.4539
 30
0.0
  0
SPLINE
  5
CF
330
1F
100
AcDbEntity
  8
layer 1
370
     9
100
AcDbSpline
210
0.0
220
0.0
230
1.0
 70
     8
 71
     3
 72
     8
 73
     4
 74
     0
 42
0.0000000001
 43
0.0000000001
 40
0.0
 40
0.0
 40
0.0
 40
0.0
 40
1.0
 40
1.0
 40
1.0
 40
1.0
 10
45.9197
 20
19.8174
 30
0.0
 10
47.0242
 20
19.8174
 30
0.0
 10
47.9197
 20
20.7128
 30
0.0
 10
47.9197
 20
21.8174
 30
0.0
  0
SPLINE
  5
D0
330
1F
100
AcDbEntity
  8
layer 1
370
     9
100
AcDbSpline
210
0.0
220
0.0
230
1.0
 70
    27
 71
     3
 72
     8
 73
     4
 74
     0
 42
0.0000000001
 43
0.0000000001
 40
0.0
 40
0.0
 40
0.0
 40
0.0
 40
1.0
 40
1.0
 40
1.0
 40
1.0
 10
31.7097
 20
44.5908
 30
0.0
 10
31.7097
 20
44.5908
 30
0.0
 10
31.7097
 20
44.5908
 30
0.0
 10
31.7097
 20
44.5908
 30
0.0
  0
SPLINE
  5
D1
330
1F
100
AcDbEntity
  8
layer 1
370
     9
100
AcDbSpline
210
0.0
220
0.0
230
1.0
 70
    24
 71
     3
 72
     8
 73
     4
 74
     0
 42
0.0000000001
 43
0.0000000001
 40
0.0
 40
0.0
 40
0.0
 40
0.0
 40
1.0
 40
1.0
 40
1.0
 40
1.0
 10
31.7097
 20
44.5908
 30
0.0
 10
31.7097
 20
44.5908
 30
0.0
 10
31.7097
 20
34.4539
 30
0.0
 10
31.7097
 20
34.4539
 30
0.0
  0
SPLINE
  5
D2
330
1F
100
AcDbEntity
  8
layer 1
370
     9
100
AcDbSpline
210
0.0
220
0.0
230
1.0
 70
     8
 71
     3
 72
    12
 73
     8
 74
     0
 42
0.0000000001
 43
0.0000000001
 40
0.0
 40
0.0
 40
0.0
 40
0.0
 40
0.5
 40
0.5
 40
0.5
 40
0.5
 40
1.0
 40
1.0
 40
1.0
 40
1.0
 10
31.7097
 20
34.4539
 30
0.0
 10
31.7097
 20
33.9235
 30
0.0
 10
31.9204
 20
33.4148
 30
0.0
 10
32.2955
 20
33.0397
 30
0.0
 10
32.2955
 20
33.0397
 30
0.0
 10
32.6705
 20
32.6646
 30
0.0
 10
33.1792
 20
32.4539
 30
0.0
 10
33.7097
 20
32.4539
 30
0.0
  0
SPLINE
  5
D3
330
1F
100
AcDbEntity
  8
layer 1
370
     9
100
AcDbSpline
210
0.0
220
0.0
230
1.0
 70
    24
 71
     3
 72
     8
 73
     4
 74
     0
 42
0.0000000001
 43
0.0000000001
 40
0.0
 40
0.0
 40
0.0
 40
0.0
 40
1.0
 40
1.0
 40
1.0
 40
1.0
 10
31.7097
 20
11.3816
 30
0.0
 10
31.7097
 20
11.3816
 30
0.0
 10
31.7097
 20
-5.1523
 30
0.0
 10
31.7097
 20
-5.1523
 30
0.0
  0
SPLINE
  5
D4
330
1F
100
AcDbEntity
  8
layer 1
370
     9
100
AcDbSpline
210
0.0
220
0.0
230
1.0
 70
     8
 71
     3
 72
    12
 73
     8
 74
     0
 42
0.0000000001
 43
0.0000000001
 40
0.0
 40
0.0
 40
0.0
 40
0.0
 40
0.5
 40
0.5
 40
0.5
 40
0.5
 40
1.0
 40
1.0
 40
1.0
 40
1.0
 10
33.7097
 20
13.3816
 30
0.0
 10
33.1792
 20
13.3816
 30
0.0
 10
32.6705
 20
13.1709
 30
0.0
 10
32.2955
 20
12.7958
 30
0.0
 10
32.2955
 20
12.7958
 30
0.0
 10
31.9204
 20
12.4207
 30
0.0
 10
31.7097
 20
11.912
 30
0.0
 10
31.7097
 20
11.3816
 30
0.0
  0
SPLINE
  5
D5
330
1F
100
AcDbEntity
  8
layer 1
370
     9
100
AcDbSpline
210
0.0
220
0.0
230
1.0
 70
    24
 71
     3
 72
     8
 73
     4
 74
     0
 42
0.0000000001
 43
0.0000000001
 40
0.0
 40
0.0
 40
0.0
 40
0.0
 40
1.0
 40
1.0
 40
1.0
 40
1.0
 10
39.0225
 20
31.4539
 30
0.0
 10
39.0225
 20
31.4539
 30
0.0
 10
39.0225
 20
25.4413
 30
0.0
 10
39.0225
 20
25.4413
 30
0.0
  0
SPLINE
  5
D6
330
1F
100
AcDbEntity
  8
layer 1
370
     9
100
AcDbSpline
210
0.0
220
0.0
230
1.0
 70
     8
 71
     3
 72
     8
 73
     4
 74
     0
 42
0.0000000001
 43
0.0000000001
 40
0.0
 40
0.0
 40
0.0
 40
0.0
 40
1.0
 40
1.0
 40
1.0
 40
1.0
 10
39.0225
 20
31.4539
 30
0.0
 10
39.0225
 20
32.0062
 30
0.0
 10
38.5747
 20
32.4539
 30
0.0
 10
38.0225
 20
32.4539
 30
0.0
  0
SPLINE
  5
D7
330
1F
100
AcDbEntity
  8
layer 1
370
     9
100
AcDbSpline
210
0.0
220
0.0
230
1.0
 70
     8
 71
     3
 72
     8
 73
     4
 74
     0
 42
0.0000000001
 43
0.0000000001
 40
0.0
 40
0.0
 40
0.0
 40
0.0
 40
1.0
 40
1.0
 40
1.0
 40
1.0
 10
42.0695
 20
23.4413
 30
0.0
 10
42.0695
 20
23.9935
 30
0.0
 10
41.6218
 20
24.4413
 30
0.0
 10
41.0695
 20
24.4413
 30
0.0
  0
SPLINE
  5
D8
330
1F
100
AcDbEntity
  8
layer 1
370
     9
100
AcDbSpline
210
0.0
220
0.0
230
1.0
 70
    24
 71
     3
 72
     8
 73
     4
 74
     0
 42
0.0000000001
 43
0.0000000001
 40
0.0
 40
0.0
 40
0.0
 40
0.0
 40
1.0
 40
1.0
 40
1.0
 40
1.0
 10
42.0695
 20
23.4413
 30
0.0
 10
42.0695
 20
23.4413
 30
0.0
 10
42.0695
 20
16.5258
 30
0.0
 10
42.0695
 20
16.5258
 30
0.0
  0
SPLINE
  5
D9
330
1F
100
AcDbEntity
  8
layer 1
370
     9
100
AcDbSpline
210
0.0
220
0.0
230
1.0
 70
     8
 71
     3
 72
     8
 73
     4
 74
     0
 42
0.0000000001
 43
0.0000000001
 40
0.0
 40
0.0
 40
0.0
 40
0.0
 40
1.0
 40
1.0
 40
1.0
 40
1.0
 10
41.0695
 20
15.5258
 30
0.0
 10
41.6218
 20
15.5258
 30
0.0
 10
42.0695
 20
15.9735
 30
0.0
 10
42.0695
 20
16.5258
 30
0.0
  0
SPLINE
  5
DA
330
1F
100
AcDbEntity
  8
layer 1
370
     9
100
AcDbSpline
210
0.0
220
0.0
230
1.0
 70
    24
 71
     3
 72
     8
 73
     4
 74
     0
 42
0.0000000001
 43
0.0000000001
 40
0.0
 40
0.0
 40
0.0
 40
0.0
 40
1.0
 40
1.0
 40
1.0
 40
1.0
 10
40.0225
 20
24.4413
 30
0.0
 10
40.0225
 20
24.4413
 30
0.0
 10
41.0695
 20
24.4413
 30
0.0
 10
41.0695
 20
24.4413
 30
0.0
  0
SPLINE
  5
DB
330
1F
100
AcDbEntity
  8
layer 1
370
     9
100
AcDbSpline
210
0.0
220
0.0
230
1.0
 70
     8
 71
     3
 72
    12
 73
     8
 74
     0
 42
0.0000000001
 43
0.0000000001
 40
0.0
 40
0.0
 40
0.0
 40
0.0
 40
0.5
 40
0.5
 40
0.5
 40
0.5
 40
1.0
 40
1.0
 40
1.0
 40
1.0
 10
39.0225
 20
25.4413
 30
0.0
 10
39.0225
 20
25.176
 30
0.0
 10
39.1278
 20
24.9217
 30
0.0
 10
39.3154
 20
24.7342
 30
0.0
 10
39.3154
 20
24.7342
 30
0.0
 10
39.5029
 20
24.5466
 30
0.0
 10
39.7572
 20
24.4413
 30
0.0
 10
40.0225
 20
24.4413
 30
0.0
  0
SPLINE
  5
DC
330
1F
100
AcDbEntity
  8
layer 1
370
     9
100
AcDbSpline
210
0.0
220
0.0
230
1.0
 70
    24
 71
     3
 72
     8
 73
     4
 74
     0
 42
0.0000000001
 43
0.0000000001
 40
0.0
 40
0.0
 40
0.0
 40
0.0
 40
1.0
 40
1.0
 40
1.0
 40
1.0
 10
41.0695
 20
15.5258
 30
0.0
 10
41.0695
 20
15.5258
 30
0.0
 10
40.0225
 20
15.5258
 30
0.0
 10
40.0225
 20
15.5258
 30
0.0
  0
SPLINE
  5
DD
330
1F
100
AcDbEntity
  8
layer 1
370
     9
100
AcDbSpline
210
0.0
220
0.0
230
1.0
 70
     8
 71
     3
 72
    12
 73
     8
 74
     0
 42
0.0000000001
 43
0.0000000001
 40
0.0
 40
0.0
 40
0.0
 40
0.0
 40
0.5
 40
0.5
 40
0.5
 40
0.5
 40
1.0
 40
1.0
 40
1.0
 40
1.0
 10
40.0225
 20
15.5258
 30
0.0
 10
39.7572
 20
15.5258
 30
0.0
 10
39.5029
 20
15.4204
 30
0.0
 10
39.3154
 20
15.2329
 30
0.0
 10
39.3154
 20
15.2329
 30
0.0
 10
39.1278
 20
15.0454
 30
0.0
 10
39.0225
 20
14.791
 30
0.0
 10
39.0225
 20
14.5258
 30
0.0
  0
SPLINE
  5
DE
330
1F
100
AcDbEntity
  8
layer 1
370
     9
100
AcDbSpline
210
0.0
220
0.0
230
1.0
 70
    24
 71
     3
 72
     8
 73
     4
 74
     0
 42
0.0000000001
 43
0.0000000001
 40
0.0
 40
0.0
 40
0.0
 40
0.0
 40
1.0
 40
1.0
 40
1.0
 40
1.0
 10
38.0225
 20
13.3816
 30
0.0
 10
38.0225
 20
13.3816
 30
0.0
 10
34.3202
 20
13.3816
 30
0.0
 10
34.3202
 20
13.3816
 30
0.0
  0
SPLINE
  5
DF
330
1F
100
AcDbEntity
  8
layer 1
370
     9
100
AcDbSpline
210
0.0
220
0.0
230
1.0
 70
     8
 71
     3
 72
    12
 73
     8
 74
     0
 42
0.0000000001
 43
0.0000000001
 40
0.0
 40
0.0
 40
0.0
 40
0.0
 40
0.5
 40
0.5
 40
0.5
 40
0.5
 40
1.0
 40
1.0
 40
1.0
 40
1.0
 10
38.0225
 20
13.3816
 30
0.0
 10
38.2877
 20
13.3816
 30
0.0
 10
38.542
 20
13.4869
 30
0.0
 10
38.7296
 20
13.6745
 30
0.0
 10
38.7296
 20
13.6745
 30
0.0
 10
38.9171
 20
13.862
 30
0.0
 10
39.0225
 20
14.1164
 30
0.0
 10
39.0225
 20
14.3816
 30
0.0
  0
SPLINE
  5
E0
330
1F
100
AcDbEntity
  8
layer 1
370
     9
100
AcDbSpline
210
0.0
220
0.0
230
1.0
 70
     8
 71
     3
 72
    12
 73
     8
 74
     0
 42
0.0000000001
 43
0.0000000001
 40
0.0
 40
0.0
 40
0.0
 40
0.0
 40
0.5
 40
0.5
 40
0.5
 40
0.5
 40
1.0
 40
1.0
 40
1.0
 40
1.0
 10
37.263
 20
3.2574
 30
0.0
 10
36.7326
 20
3.2574
 30
0.0
 10
36.2239
 20
3.0467
 30
0.0
 10
35.8488
 20
2.6716
 30
0.0
 10
35.8488
 20
2.6716
 30
0.0
 10
35.4737
 20
2.2965
 30
0.0
 10
35.263
 20
1.7878
 30
0.0
 10
35.263
 20
1.2574
 30
0.0
  0
SPLINE
  5
E1
330
1F
100
AcDbEntity
  8
layer 1
370
     9
100
AcDbSpline
210
0.0
220
0.0
230
1.0
 70
    24
 71
     3
 72
     8
 73
     4
 74
     0
 42
0.0000000001
 43
0.0000000001
 40
0.0
 40
0.0
 40
0.0
 40
0.0
 40
1.0
 40
1.0
 40
1.0
 40
1.0
 10
35.263
 20
-3.1486
 30
0.0
 10
35.263
 20
-3.1486
 30
0.0
 10
35.263
 20
1.2574
 30
0.0
 10
35.263
 20
1.2574
 30
0.0
  0
SPLINE
  5
E2
330
1F
100
AcDbEntity
  8
layer 1
370
     9
100
AcDbSpline
210
0.0
220
0.0
230
1.0
 70
     8
 71
     3
 72
    12
 73
     8
 74
     0
 42
0.0000000001
 43
0.0000000001
 40
0.0
 40
0.0
 40
0.0
 40
0.0
 40
0.5
 40
0.5
 40
0.5
 40
0.5
 40
1.0
 40
1.0
 40
1.0
 40
1.0
 10
35.263
 20
-3.1486
 30
0.0
 10
35.263
 20
-3.6791
 30
0.0
 10
35.4737
 20
-4.1878
 30
0.0
 10
35.8488
 20
-4.5628
 30
0.0
 10
35.8488
 20
-4.5628
 30
0.0
 10
36.2239
 20
-4.9379
 30
0.0
 10
36.7326
 20
-5.1486
 30
0.0
 10
37.263
 20
-5.1486
 30
0.0
  0
SPLINE
  5
E3
330
1F
100
AcDbEntity
  8
layer 1
370
     9
100
AcDbSpline
210
0.0
220
0.0
230
1.0
 70
    27
 71
     3
 72
     8
 73
     4
 74
     0
 42
0.0000000001
 43
0.0000000001
 40
0.0
 40
0.0
 40
0.0
 40
0.0
 40
1.0
 40
1.0
 40
1.0
 40
1.0
 10
49.6961
 20
64.1936
 30
0.0
 10
49.6961
 20
64.1936
 30
0.0
 10
49.6961
 20
64.1936
 30
0.0
 10
49.6961
 20
64.1936
 30
0.0
  0
SPLINE
  5
E4
330
1F
100
AcDbEntity
  8
layer 1
370
     9
100
AcDbSpline
210
0.0
220
0.0
230
1.0
 70
    24
 71
     3
 72
     8
 73
     4
 74
     0
 42
0.0000000001
 43
0.0000000001
 40
0.0
 40
0.0
 40
0.0
 40
0.0
 40
1.0
 40
1.0
 40
1.0
 40
1.0
 10
49.6961
 20
63.1936
 30
0.0
 10
49.6961
 20
63.1936
 30
0.0
 10
49.6961
 20
64.1936
 30
0.0
 10
49.6961
 20
64.1936
 30
0.0
  0
SPLINE
  5
E5
330
1F
100
AcDbEntity
  8
layer 1
370
     9
100
AcDbSpline
210
0.0
220
0.0
230
1.0
 70
    27
 71
     3
 72
     8
 73
     4
 74
     0
 42
0.0000000001
 43
0.0000000001
 40
0.0
 40
0.0
 40
0.0
 40
0.0
 40
1.0
 40
1.0
 40
1.0
 40
1.0
 10
47.6961
 20
66.1936
 30
0.0
 10
47.6961
 20
66.1936
 30
0.0
 10
47.6961
 20
66.1936
 30
0.0
 10
47.6961
 20
66.1936
 30
0.0
  0
SPLINE
  5
E6
330
1F
100
AcDbEntity
  8
layer 1
370
     9
100
AcDbSpline
210
0.0
220
0.0
230
1.0
 70
    24
 71
     3
 72
     8
 73
     4
 74
     0
 42
0.0000000001
 43
0.0000000001
 40
0.0
 40
0.0
 40
0.0
 40
0.0
 40
1.0
 40
1.0
 40
1.0
 40
1.0
 10
47.6961
 20
66.1936
 30
0.0
 10
47.6961
 20
66.1936
 30
0.0
 10
46.6961
 20
66.1936
 30
0.0
 10
46.6961
 20
66.1936
 30
0.0
  0
SPLINE
  5
E7
330
1F
100
AcDbEntity
  8
layer 1
370
     9
100
AcDbSpline
210
0.0
220
0.0
230
1.0
 70
    27
 71
     3
 72
     8
 73
     4
 74
     0
 42
0.0000000001
 43
0.0000000001
 40
0.0
 40
0.0
 40
0.0
 40
0.0
 40
1.0
 40
1.0
 40
1.0
 40
1.0
 10
46.6961
 20
123.6292
 30
0.0
 10
46.6961
 20
123.6292
 30
0.0
 10
46.6961
 20
123.6292
 30
0.0
 10
46.6961
 20
123.6292
 30
0.0
  0
SPLINE
  5
E8
330
1F
100
AcDbEntity
  8
layer 1
370
     9
100
AcDbSpline
210
0.0
220
0.0
230
1.0
 70
    24
 71
     3
 72
     8
 73
     4
 74
     0
 42
0.0000000001
 43
0.0000000001
 40
0.0
 40
0.0
 40
0.0
 40
0.0
 40
1.0
 40
1.0
 40
1.0
 40
1.0
 10
46.6961
 20
66.1936
 30
0.0
 10
46.6961
 20
66.1936
 30
0.0
 10
46.6961
 20
123.6292
 30
0.0
 10
46.6961
 20
123.6292
 30
0.0
  0
SPLINE
  5
E9
330
1F
100
AcDbEntity
  8
layer 1
370
     9
100
AcDbSpline
210
0.0
220
0.0
230
1.0
 70
    27
 71
     3
 72
     8
 73
     4
 74
     0
 42
0.0000000001
 43
0.0000000001
 40
0.0
 40
0.0
 40
0.0
 40
0.0
 40
1.0
 40
1.0
 40
1.0
 40
1.0
 10
47.6961
 20
123.6292
 30
0.0
 10
47.6961
 20
123.6292
 30
0.0
 10
47.6961
 20
123.6292
 30
0.0
 10
47.6961
 20
123.6292
 30
0.0
  0
SPLINE
  5
EA
330
1F
100
AcDbEntity
  8
layer 1
370
     9
100
AcDbSpline
210
0.0
220
0.0
230
1.0
 70
    24
 71
     3
 72
     8
 73
     4
 74
     0
 42
0.0000000001
 43
0.0000000001
 40
0.0
 40
0.0
 40
0.0
 40
0.0
 40
1.0
 40
1.0
 40
1.0
 40
1.0
 10
46.6961
 20
123.6292
 30
0.0
 10
46.6961
 20
123.6292
 30
0.0
 10
47.6961
 20
123.6292
 30
0.0
 10
47.6961
 20
123.6292
 30
0.0
  0
SPLINE
  5
EB
330
1F
100
AcDbEntity
  8
layer 1
370
     9
100
AcDbSpline
210
0.0
220
0.0
230
1.0
 70
    27
 71
     3
 72
     8
 73
     4
 74
     0
 42
0.0000000001
 43
0.0000000001
 40
0.0
 40
0.0
 40
0.0
 40
0.0
 40
1.0
 40
1.0
 40
1.0
 40
1.0
 10
49.6961
 20
126.6292
 30
0.0
 10
49.6961
 20
126.6292
 30
0.0
 10
49.6961
 20
126.6292
 30
0.0
 10
49.6961
 20
126.6292
 30
0.0
  0
SPLINE
  5
EC
330
1F
100
AcDbEntity
  8
layer 1
370
     9
100
AcDbSpline
210
0.0
220
0.0
230
1.0
 70
    24
 71
     3
 72
     8
 73
     4
 74
     0
 42
0.0000000001
 43
0.0000000001
 40
0.0
 40
0.0
 40
0.0
 40
0.0
 40
1.0
 40
1.0
 40
1.0
 40
1.0
 10
49.6961
 20
125.6292
 30
0.0
 10
49.6961
 20
125.6292
 30
0.0
 10
49.6961
 20
126.6292
 30
0.0
 10
49.6961
 20
126.6292
 30
0.0
  0
SPLINE
  5
ED
330
1F
100
AcDbEntity
  8
layer 1
370
     9
100
AcDbSpline
210
0.0
220
0.0
230
1.0
 70
    27
 71
     3
 72
     8
 73
     4
 74
     0
 42
0.0000000001
 43
0.0000000001
 40
0.0
 40
0.0
 40
0.0
 40
0.0
 40
1.0
 40
1.0
 40
1.0
 40
1.0
 10
47.6961
 20
128.6292
 30
0.0
 10
47.6961
 20
128.6292
 30
0.0
 10
47.6961
 20
128.6292
 30
0.0
 10
47.6961
 20
128.6292
 30
0.0
  0
SPLINE
  5
EE
330
1F
100
AcDbEntity
  8
layer 1
370
     9
100
AcDbSpline
210
0.0
220
0.0
230
1.0
 70
    24
 71
     3
 72
     8
 73
     4
 74
     0
 42
0.0000000001
 43
0.0000000001
 40
0.0
 40
0.0
 40
0.0
 40
0.0
 40
1.0
 40
1.0
 40
1.0
 40
1.0
 10
47.6961
 20
128.6292
 30
0.0
 10
47.6961
 20
128.6292
 30
0.0
 10
46.6961
 20
128.6292
 30
0.0
 10
46.6961
 20
128.6292
 30
0.0
  0
SPLINE
  5
EF
330
1F
100
AcDbEntity
  8
layer 1
370
     9
100
AcDbSpline
210
0.0
220
0.0
230
1.0
 70
    27
 71
     3
 72
     8
 73
     4
 74
     0
 42
0.0000000001
 43
0.0000000001
 40
0.0
 40
0.0
 40
0.0
 40
0.0
 40
1.0
 40
1.0
 40
1.0
 40
1.0
 10
46.6961
 20
134.4598
 30
0.0
 10
46.6961
 20
134.4598
 30
0.0
 10
46.6961
 20
134.4598
 30
0.0
 10
46.6961
 20
134.4598
 30
0.0
  0
SPLINE
  5
F0
330
1F
100
AcDbEntity
  8
layer 1
370
     9
100
AcDbSpline
210
0.0
220
0.0
230
1.0
 70
    24
 71
     3
 72
     8
 73
     4
 74
     0
 42
0.0000000001
 43
0.0000000001
 40
0.0
 40
0.0
 40
0.0
 40
0.0
 40
1.0
 40
1.0
 40
1.0
 40
1.0
 10
46.6961
 20
128.6292
 30
0.0
 10
46.6961
 20
128.6292
 30
0.0
 10
46.6961
 20
134.4598
 30
0.0
 10
46.6961
 20
134.4598
 30
0.0
  0
SPLINE
  5
F1
330
1F
100
AcDbEntity
  8
layer 1
370
     9
100
AcDbSpline
210
0.0
220
0.0
230
1.0
 70
    27
 71
     3
 72
     8
 73
     4
 74
     0
 42
0.0000000001
 43
0.0000000001
 40
0.0
 40
0.0
 40
0.0
 40
0.0
 40
1.0
 40
1.0
 40
1.0
 40
1.0
 10
44.6961
 20
136.4598
 30
0.0
 10
44.6961
 20
136.4598
 30
0.0
 10
44.6961
 20
136.4598
 30
0.0
 10
44.6961
 20
136.4598
 30
0.0
  0
SPLINE
  5
F2
330
1F
100
AcDbEntity
  8
layer 1
370
     9
100
AcDbSpline
210
0.0
220
0.0
230
1.0
 70
    24
 71
     3
 72
     8
 73
     4
 74
     0
 42
0.0000000001
 43
0.0000000001
 40
0.0
 40
0.0
 40
0.0
 40
0.0
 40
1.0
 40
1.0
 40
1.0
 40
1.0
 10
44.6961
 20
136.4598
 30
0.0
 10
44.6961
 20
136.4598
 30
0.0
 10
35.4861
 20
136.4598
 30
0.0
 10
35.4861
 20
136.4598
 30
0.0
  0
SPLINE
  5
F3
330
1F
100
AcDbEntity
  8
layer 1
370
     9
100
AcDbSpline
210
0.0
220
0.0
230
1.0
 70
    27
 71
     3
 72
     8
 73
     4
 74
     0
 42
0.0000000001
 43
0.0000000001
 40
0.0
 40
0.0
 40
0.0
 40
0.0
 40
1.0
 40
1.0
 40
1.0
 40
1.0
 10
33.4861
 20
134.4598
 30
0.0
 10
33.4861
 20
134.4598
 30
0.0
 10
33.4861
 20
134.4598
 30
0.0
 10
33.4861
 20
134.4598
 30
0.0
  0
SPLINE
  5
F4
330
1F
100
AcDbEntity
  8
layer 1
370
     9
100
AcDbSpline
210
0.0
220
0.0
230
1.0
 70
    24
 71
     3
 72
     8
 73
     4
 74
     0
 42
0.0000000001
 43
0.0000000001
 40
0.0
 40
0.0
 40
0.0
 40
0.0
 40
1.0
 40
1.0
 40
1.0
 40
1.0
 10
33.4861
 20
134.4598
 30
0.0
 10
33.4861
 20
134.4598
 30
0.0
 10
33.4861
 20
128.6292
 30
0.0
 10
33.4861
 20
128.6292
 30
0.0
  0
SPLINE
  5
F5
330
1F
100
AcDbEntity
  8
layer 1
370
     9
100
AcDbSpline
210
0.0
220
0.0
230
1.0
 70
    27
 71
     3
 72
     8
 73
     4
 74
     0
 42
0.0000000001
 43
0.0000000001
 40
0.0
 40
0.0
 40
0.0
 40
0.0
 40
1.0
 40
1.0
 40
1.0
 40
1.0
 10
33.4861
 20
128.6292
 30
0.0
 10
33.4861
 20
128.6292
 30
0.0
 10
33.4861
 20
128.6292
 30
0.0
 10
33.4861
 20
128.6292
 30
0.0
  0
SPLINE
  5
F6
330
1F
100
AcDbEntity
  8
layer 1
370
     9
100
AcDbSpline
210
0.0
220
0.0
230
1.0
 70
    24
 71
     3
 72
     8
 73
     4
 74
     0
 42
0.0000000001
 43
0.0000000001
 40
0.0
 40
0.0
 40
0.0
 40
0.0
 40
1.0
 40
1.0
 40
1.0
 40
1.0
 10
33.4861
 20
128.6292
 30
0.0
 10
33.4861
 20
128.6292
 30
0.0
 10
32.4861
 20
128.6292
 30
0.0
 10
32.4861
 20
128.6292
 30
0.0
  0
SPLINE
  5
F7
330
1F
100
AcDbEntity
  8
layer 1
370
     9
100
AcDbSpline
210
0.0
220
0.0
230
1.0
 70
    27
 71
     3
 72
     8
 73
     4
 74
     0
 42
0.0000000001
 43
0.0000000001
 40
0.0
 40
0.0
 40
0.0
 40
0.0
 40
1.0
 40
1.0
 40
1.0
 40
1.0
 10
30.4861
 20
126.6292
 30
0.0
 10
30.4861
 20
126.6292
 30
0.0
 10
30.4861
 20
126.6292
 30
0.0
 10
30.4861
 20
126.6292
 30
0.0
  0
SPLINE
  5
F8
330
1F
100
AcDbEntity
  8
layer 1
370
     9
100
AcDbSpline
210
0.0
220
0.0
230
1.0
 70
    24
 71
     3
 72
     8
 73
     4
 74
     0
 42
0.0000000001
 43
0.0000000001
 40
0.0
 40
0.0
 40
0.0
 40
0.0
 40
1.0
 40
1.0
 40
1.0
 40
1.0
 10
30.4861
 20
126.6292
 30
0.0
 10
30.4861
 20
126.6292
 30
0.0
 10
30.4861
 20
125.6292
 30
0.0
 10
30.4861
 20
125.6292
 30
0.0
  0
SPLINE
  5
F9
330
1F
100
AcDbEntity
  8
layer 1
370
     9
100
AcDbSpline
210
0.0
220
0.0
230
1.0
 70
    27
 71
     3
 72
     8
 73
     4
 74
     0
 42
0.0000000001
 43
0.0000000001
 40
0.0
 40
0.0
 40
0.0
 40
0.0
 40
1.0
 40
1.0
 40
1.0
 40
1.0
 10
33.4861
 20
123.6292
 30
0.0
 10
33.4861
 20
123.6292
 30
0.0
 10
33.4861
 20
123.6292
 30
0.0
 10
33.4861
 20
123.6292
 30
0.0
  0
SPLINE
  5
FA
330
1F
100
AcDbEntity
  8
layer 1
370
     9
100
AcDbSpline
210
0.0
220
0.0
230
1.0
 70
    24
 71
     3
 72
     8
 73
     4
 74
     0
 42
0.0000000001
 43
0.0000000001
 40
0.0
 40
0.0
 40
0.0
 40
0.0
 40
1.0
 40
1.0
 40
1.0
 40
1.0
 10
32.4861
 20
123.6292
 30
0.0
 10
32.4861
 20
123.6292
 30
0.0
 10
33.4861
 20
123.6292
 30
0.0
 10
33.4861
 20
123.6292
 30
0.0
  0
SPLINE
  5
FB
330
1F
100
AcDbEntity
  8
layer 1
370
     9
100
AcDbSpline
210
0.0
220
0.0
230
1.0
 70
    27
 71
     3
 72
     8
 73
     4
 74
     0
 42
0.0000000001
 43
0.0000000001
 40
0.0
 40
0.0
 40
0.0
 40
0.0
 40
1.0
 40
1.0
 40
1.0
 40
1.0
 10
33.4861
 20
123.6292
 30
0.0
 10
33.4861
 20
123.6292
 30
0.0
 10
33.4861
 20
123.6292
 30
0.0
 10
33.4861
 20
123.6292
 30
0.0
  0
SPLINE
  5
FC
330
1F
100
AcDbEntity
  8
layer 1
370
     9
100
AcDbSpline
210
0.0
220
0.0
230
1.0
 70
    24
 71
     3
 72
     8
 73
     4
 74
     0
 42
0.0000000001
 43
0.0000000001
 40
0.0
 40
0.0
 40
0.0
 40
0.0
 40
1.0
 40
1.0
 40
1.0
 40
1.0
 10
33.4861
 20
123.6292
 30
0.0
 10
33.4861
 20
123.6292
 30
0.0
 10
33.4861
 20
66.1936
 30
0.0
 10
33.4861
 20
66.1936
 30
0.0
  0
SPLINE
  5
FD
330
1F
100
AcDbEntity
  8
layer 1
370
     9
100
AcDbSpline
210
0.0
220
0.0
230
1.0
 70
    27
 71
     3
 72
     8
 73
     4
 74
     0
 42
0.0000000001
 43
0.0000000001
 40
0.0
 40
0.0
 40
0.0
 40
0.0
 40
1.0
 40
1.0
 40
1.0
 40
1.0
 10
33.4861
 20
66.1936
 30
0.0
 10
33.4861
 20
66.1936
 30
0.0
 10
33.4861
 20
66.1936
 30
0.0
 10
33.4861
 20
66.1936
 30
0.0
  0
SPLINE
  5
FE
330
1F
100
AcDbEntity
  8
layer 1
370
     9
100
AcDbSpline
210
0.0
220
0.0
230
1.0
 70
    24
 71
     3
 72
     8
 73
     4
 74
     0
 42
0.0000000001
 43
0.0000000001
 40
0.0
 40
0.0
 40
0.0
 40
0.0
 40
1.0
 40
1.0
 40
1.0
 40
1.0
 10
33.4861
 20
66.1936
 30
0.0
 10
33.4861
 20
66.1936
 30
0.0
 10
32.4861
 20
66.1936
 30
0.0
 10
32.4861
 20
66.1936
 30
0.0
  0
SPLINE
  5
FF
330
1F
100
AcDbEntity
  8
layer 1
370
     9
100
AcDbSpline
210
0.0
220
0.0
230
1.0
 70
    27
 71
     3
 72
     8
 73
     4
 74
     0
 42
0.0000000001
 43
0.0000000001
 40
0.0
 40
0.0
 40
0.0
 40
0.0
 40
1.0
 40
1.0
 40
1.0
 40
1.0
 10
30.4861
 20
64.1936
 30
0.0
 10
30.4861
 20
64.1936
 30
0.0
 10
30.4861
 20
64.1936
 30
0.0
 10
30.4861
 20
64.1936
 30
0.0
  0
SPLINE
  5
100
330
1F
100
AcDbEntity
  8
layer 1
370
     9
100
AcDbSpline
210
0.0
220
0.0
230
1.0
 70
    24
 71
     3
 72
     8
 73
     4
 74
     0
 42
0.0000000001
 43
0.0000000001
 40
0.0
 40
0.0
 40
0.0
 40
0.0
 40
1.0
 40
1.0
 40
1.0
 40
1.0
 10
30.4861
 20
64.1936
 30
0.0
 10
30.4861
 20
64.1936
 30
0.0
 10
30.4861
 20
63.1936
 30
0.0
 10
30.4861
 20
63.1936
 30
0.0
  0
SPLINE
  5
101
330
1F
100
AcDbEntity
  8
layer 1
370
     9
100
AcDbSpline
210
0.0
220
0.0
230
1.0
 70
    27
 71
     3
 72
     8
 73
     4
 74
     0
 42
0.0000000001
 43
0.0000000001
 40
0.0
 40
0.0
 40
0.0
 40
0.0
 40
1.0
 40
1.0
 40
1.0
 40
1.0
 10
33.4861
 20
61.1936
 30
0.0
 10
33.4861
 20
61.1936
 30
0.0
 10
33.4861
 20
61.1936
 30
0.0
 10
33.4861
 20
61.1936
 30
0.0
  0
SPLINE
  5
102
330
1F
100
AcDbEntity
  8
layer 1
370
     9
100
AcDbSpline
210
0.0
220
0.0
230
1.0
 70
    24
 71
     3
 72
     8
 73
     4
 74
     0
 42
0.0000000001
 43
0.0000000001
 40
0.0
 40
0.0
 40
0.0
 40
0.0
 40
1.0
 40
1.0
 40
1.0
 40
1.0
 10
32.4861
 20
61.1936
 30
0.0
 10
32.4861
 20
61.1936
 30
0.0
 10
33.4861
 20
61.1936
 30
0.0
 10
33.4861
 20
61.1936
 30
0.0
  0
SPLINE
  5
103
330
1F
100
AcDbEntity
  8
layer 1
370
     9
100
AcDbSpline
210
0.0
220
0.0
230
1.0
 70
    27
 71
     3
 72
     8
 73
     4
 74
     0
 42
0.0000000001
 43
0.0000000001
 40
0.0
 40
0.0
 40
0.0
 40
0.0
 40
1.0
 40
1.0
 40
1.0
 40
1.0
 10
33.4861
 20
61.1936
 30
0.0
 10
33.4861
 20
61.1936
 30
0.0
 10
33.4861
 20
61.1936
 30
0.0
 10
33.4861
 20
61.1936
 30
0.0
  0
SPLINE
  5
104
330
1F
100
AcDbEntity
  8
layer 1
370
     9
100
AcDbSpline
210
0.0
220
0.0
230
1.0
 70
    24
 71
     3
 72
     8
 73
     4
 74
     0
 42
0.0000000001
 43
0.0000000001
 40
0.0
 40
0.0
 40
0.0
 40
0.0
 40
1.0
 40
1.0
 40
1.0
 40
1.0
 10
33.4861
 20
61.1936
 30
0.0
 10
33.4861
 20
61.1936
 30
0.0
 10
33.4861
 20
53.363
 30
0.0
 10
33.4861
 20
53.363
 30
0.0
  0
SPLINE
  5
105
330
1F
100
AcDbEntity
  8
layer 1
370
     9
100
AcDbSpline
210
0.0
220
0.0
230
1.0
 70
    27
 71
     3
 72
     8
 73
     4
 74
     0
 42
0.0000000001
 43
0.0000000001
 40
0.0
 40
0.0
 40
0.0
 40
0.0
 40
1.0
 40
1.0
 40
1.0
 40
1.0
 10
44.6961
 20
51.363
 30
0.0
 10
44.6961
 20
51.363
 30
0.0
 10
44.6961
 20
51.363
 30
0.0
 10
44.6961
 20
51.363
 30
0.0
  0
SPLINE
  5
106
330
1F
100
AcDbEntity
  8
layer 1
370
     9
100
AcDbSpline
210
0.0
220
0.0
230
1.0
 70
    24
 71
     3
 72
     8
 73
     4
 74
     0
 42
0.0000000001
 43
0.0000000001
 40
0.0
 40
0.0
 40
0.0
 40
0.0
 40
1.0
 40
1.0
 40
1.0
 40
1.0
 10
35.4861
 20
51.363
 30
0.0
 10
35.4861
 20
51.363
 30
0.0
 10
44.6961
 20
51.363
 30
0.0
 10
44.6961
 20
51.363
 30
0.0
  0
SPLINE
  5
107
330
1F
100
AcDbEntity
  8
layer 1
370
     9
100
AcDbSpline
210
0.0
220
0.0
230
1.0
 70
    27
 71
     3
 72
     8
 73
     4
 74
     0
 42
0.0000000001
 43
0.0000000001
 40
0.0
 40
0.0
 40
0.0
 40
0.0
 40
1.0
 40
1.0
 40
1.0
 40
1.0
 10
46.6961
 20
61.1936
 30
0.0
 10
46.6961
 20
61.1936
 30
0.0
 10
46.6961
 20
61.1936
 30
0.0
 10
46.6961
 20
61.1936
 30
0.0
  0
SPLINE
  5
108
330
1F
100
AcDbEntity
  8
layer 1
370
     9
100
AcDbSpline
210
0.0
220
0.0
230
1.0
 70
    24
 71
     3
 72
     8
 73
     4
 74
     0
 42
0.0000000001
 43
0.0000000001
 40
0.0
 40
0.0
 40
0.0
 40
0.0
 40
1.0
 40
1.0
 40
1.0
 40
1.0
 10
46.6961
 20
53.363
 30
0.0
 10
46.6961
 20
53.363
 30
0.0
 10
46.6961
 20
61.1936
 30
0.0
 10
46.6961
 20
61.1936
 30
0.0
  0
SPLINE
  5
109
330
1F
100
AcDbEntity
  8
layer 1
370
     9
100
AcDbSpline
210
0.0
220
0.0
230
1.0
 70
    27
 71
     3
 72
     8
 73
     4
 74
     0
 42
0.0000000001
 43
0.0000000001
 40
0.0
 40
0.0
 40
0.0
 40
0.0
 40
1.0
 40
1.0
 40
1.0
 40
1.0
 10
47.6961
 20
61.1936
 30
0.0
 10
47.6961
 20
61.1936
 30
0.0
 10
47.6961
 20
61.1936
 30
0.0
 10
47.6961
 20
61.1936
 30
0.0
  0
SPLINE
  5
10A
330
1F
100
AcDbEntity
  8
layer 1
370
     9
100
AcDbSpline
210
0.0
220
0.0
230
1.0
 70
    24
 71
     3
 72
     8
 73
     4
 74
     0
 42
0.0000000001
 43
0.0000000001
 40
0.0
 40
0.0
 40
0.0
 40
0.0
 40
1.0
 40
1.0
 40
1.0
 40
1.0
 10
46.6961
 20
61.1936
 30
0.0
 10
46.6961
 20
61.1936
 30
0.0
 10
47.6961
 20
61.1936
 30
0.0
 10
47.6961
 20
61.1936
 30
0.0
  0
SPLINE
  5
10B
330
1F
100
AcDbEntity
  8
layer 1
370
     9
100
AcDbSpline
210
0.0
220
0.0
230
1.0
 70
    27
 71
     3
 72
     8
 73
     4
 74
     0
 42
0.0000000001
 43
0.0000000001
 40
0.0
 40
0.0
 40
0.0
 40
0.0
 40
1.0
 40
1.0
 40
1.0
 40
1.0
 10
43.8927
 20
111.1679
 30
0.0
 10
43.8927
 20
111.1679
 30
0.0
 10
43.8927
 20
111.1679
 30
0.0
 10
43.8927
 20
111.1679
 30
0.0
  0
SPLINE
  5
10C
330
1F
100
AcDbEntity
  8
layer 1
370
     9
100
AcDbSpline
210
0.0
220
0.0
230
1.0
 70
    24
 71
     3
 72
     8
 73
     4
 74
     0
 42
0.0000000001
 43
0.0000000001
 40
0.0
 40
0.0
 40
0.0
 40
0.0
 40
1.0
 40
1.0
 40
1.0
 40
1.0
 10
43.8927
 20
111.1679
 30
0.0
 10
43.8927
 20
111.1679
 30
0.0
 10
40.8927
 20
111.1679
 30
0.0
 10
40.8927
 20
111.1679
 30
0.0
  0
SPLINE
  5
10D
330
1F
100
AcDbEntity
  8
layer 1
370
     9
100
AcDbSpline
210
0.0
220
0.0
230
1.0
 70
    27
 71
     3
 72
     8
 73
     4
 74
     0
 42
0.0000000001
 43
0.0000000001
 40
0.0
 40
0.0
 40
0.0
 40
0.0
 40
1.0
 40
1.0
 40
1.0
 40
1.0
 10
40.8927
 20
121.9527
 30
0.0
 10
40.8927
 20
121.9527
 30
0.0
 10
40.8927
 20
121.9527
 30
0.0
 10
40.8927
 20
121.9527
 30
0.0
  0
SPLINE
  5
10E
330
1F
100
AcDbEntity
  8
layer 1
370
     9
100
AcDbSpline
210
0.0
220
0.0
230
1.0
 70
    24
 71
     3
 72
     8
 73
     4
 74
     0
 42
0.0000000001
 43
0.0000000001
 40
0.0
 40
0.0
 40
0.0
 40
0.0
 40
1.0
 40
1.0
 40
1.0
 40
1.0
 10
40.8927
 20
111.1679
 30
0.0
 10
40.8927
 20
111.1679
 30
0.0
 10
40.8927
 20
121.9527
 30
0.0
 10
40.8927
 20
121.9527
 30
0.0
  0
SPLINE
  5
10F
330
1F
100
AcDbEntity
  8
layer 1
370
     9
100
AcDbSpline
210
0.0
220
0.0
230
1.0
 70
    27
 71
     3
 72
     8
 73
     4
 74
     0
 42
0.0000000001
 43
0.0000000001
 40
0.0
 40
0.0
 40
0.0
 40
0.0
 40
1.0
 40
1.0
 40
1.0
 40
1.0
 10
43.8927
 20
121.9527
 30
0.0
 10
43.8927
 20
121.9527
 30
0.0
 10
43.8927
 20
121.9527
 30
0.0
 10
43.8927
 20
121.9527
 30
0.0
  0
SPLINE
  5
110
330
1F
100
AcDbEntity
  8
layer 1
370
     9
100
AcDbSpline
210
0.0
220
0.0
230
1.0
 70
    24
 71
     3
 72
     8
 73
     4
 74
     0
 42
0.0000000001
 43
0.0000000001
 40
0.0
 40
0.0
 40
0.0
 40
0.0
 40
1.0
 40
1.0
 40
1.0
 40
1.0
 10
40.8927
 20
121.9527
 30
0.0
 10
40.8927
 20
121.9527
 30
0.0
 10
43.8927
 20
121.9527
 30
0.0
 10
43.8927
 20
121.9527
 30
0.0
  0
SPLINE
  5
111
330
1F
100
AcDbEntity
  8
layer 1
370
     9
100
AcDbSpline
210
0.0
220
0.0
230
1.0
 70
    27
 71
     3
 72
     8
 73
     4
 74
     0
 42
0.0000000001
 43
0.0000000001
 40
0.0
 40
0.0
 40
0.0
 40
0.0
 40
1.0
 40
1.0
 40
1.0
 40
1.0
 10
43.8927
 20
121.9527
 30
0.0
 10
43.8927
 20
121.9527
 30
0.0
 10
43.8927
 20
121.9527
 30
0.0
 10
43.8927
 20
121.9527
 30
0.0
  0
SPLINE
  5
112
330
1F
100
AcDbEntity
  8
layer 1
370
     9
100
AcDbSpline
210
0.0
220
0.0
230
1.0
 70
    24
 71
     3
 72
     8
 73
     4
 74
     0
 42
0.0000000001
 43
0.0000000001
 40
0.0
 40
0.0
 40
0.0
 40
0.0
 40
1.0
 40
1.0
 40
1.0
 40
1.0
 10
43.8927
 20
121.9527
 30
0.0
 10
43.8927
 20
121.9527
 30
0.0
 10
43.8927
 20
111.1679
 30
0.0
 10
43.8927
 20
111.1679
 30
0.0
  0
SPLINE
  5
113
330
1F
100
AcDbEntity
  8
layer 1
370
     9
100
AcDbSpline
210
0.0
220
0.0
230
1.0
 70
     8
 71
     3
 72
    12
 73
     8
 74
     0
 42
0.0000000001
 43
0.0000000001
 40
0.0
 40
0.0
 40
0.0
 40
0.0
 40
0.5
 40
0.5
 40
0.5
 40
0.5
 40
1.0
 40
1.0
 40
1.0
 40
1.0
 10
44.6961
 20
51.363
 30
0.0
 10
45.2266
 20
51.363
 30
0.0
 10
45.7353
 20
51.5737
 30
0.0
 10
46.1103
 20
51.9488
 30
0.0
 10
46.1103
 20
51.9488
 30
0.0
 10
46.4854
 20
52.3239
 30
0.0
 10
46.6961
 20
52.8326
 30
0.0
 10
46.6961
 20
53.363
 30
0.0
  0
SPLINE
  5
114
330
1F
100
AcDbEntity
  8
layer 1
370
     9
100
AcDbSpline
210
0.0
220
0.0
230
1.0
 70
     8
 71
     3
 72
    12
 73
     8
 74
     0
 42
0.0000000001
 43
0.0000000001
 40
0.0
 40
0.0
 40
0.0
 40
0.0
 40
0.5
 40
0.5
 40
0.5
 40
0.5
 40
1.0
 40
1.0
 40
1.0
 40
1.0
 10
46.6961
 20
134.4598
 30
0.0
 10
46.6961
 20
134.9902
 30
0.0
 10
46.4854
 20
135.4989
 30
0.0
 10
46.1103
 20
135.874
 30
0.0
 10
46.1103
 20
135.874
 30
0.0
 10
45.7353
 20
136.249
 30
0.0
 10
45.2266
 20
136.4598
 30
0.0
 10
44.6961
 20
136.4598
 30
0.0
  0
SPLINE
  5
115
330
1F
100
AcDbEntity
  8
layer 1
370
     9
100
AcDbSpline
210
0.0
220
0.0
230
1.0
 70
     8
 71
     3
 72
    12
 73
     8
 74
     0
 42
0.0000000001
 43
0.0000000001
 40
0.0
 40
0.0
 40
0.0
 40
0.0
 40
0.5
 40
0.5
 40
0.5
 40
0.5
 40
1.0
 40
1.0
 40
1.0
 40
1.0
 10
30.4861
 20
125.6292
 30
0.0
 10
30.4861
 20
125.0987
 30
0.0
 10
30.6968
 20
124.59
 30
0.0
 10
31.0719
 20
124.2149
 30
0.0
 10
31.0719
 20
124.2149
 30
0.0
 10
31.447
 20
123.8399
 30
0.0
 10
31.9557
 20
123.6292
 30
0.0
 10
32.4861
 20
123.6292
 30
0.0
  0
SPLINE
  5
116
330
1F
100
AcDbEntity
  8
layer 1
370
     9
100
AcDbSpline
210
0.0
220
0.0
230
1.0
 70
     8
 71
     3
 72
    12
 73
     8
 74
     0
 42
0.0000000001
 43
0.0000000001
 40
0.0
 40
0.0
 40
0.0
 40
0.0
 40
0.5
 40
0.5
 40
0.5
 40
0.5
 40
1.0
 40
1.0
 40
1.0
 40
1.0
 10
32.4861
 20
128.6292
 30
0.0
 10
31.9557
 20
128.6292
 30
0.0
 10
31.447
 20
128.4184
 30
0.0
 10
31.0719
 20
128.0434
 30
0.0
 10
31.0719
 20
128.0434
 30
0.0
 10
30.6968
 20
127.6683
 30
0.0
 10
30.4861
 20
127.1596
 30
0.0
 10
30.4861
 20
126.6292
 30
0.0
  0
SPLINE
  5
117
330
1F
100
AcDbEntity
  8
layer 1
370
     9
100
AcDbSpline
210
0.0
220
0.0
230
1.0
 70
     8
 71
     3
 72
    12
 73
     8
 74
     0
 42
0.0000000001
 43
0.0000000001
 40
0.0
 40
0.0
 40
0.0
 40
0.0
 40
0.5
 40
0.5
 40
0.5
 40
0.5
 40
1.0
 40
1.0
 40
1.0
 40
1.0
 10
33.4861
 20
53.363
 30
0.0
 10
33.4861
 20
52.8326
 30
0.0
 10
33.6968
 20
52.3239
 30
0.0
 10
34.0719
 20
51.9488
 30
0.0
 10
34.0719
 20
51.9488
 30
0.0
 10
34.447
 20
51.5737
 30
0.0
 10
34.9557
 20
51.363
 30
0.0
 10
35.4861
 20
51.363
 30
0.0
  0
SPLINE
  5
118
330
1F
100
AcDbEntity
  8
layer 1
370
     9
100
AcDbSpline
210
0.0
220
0.0
230
1.0
 70
     8
 71
     3
 72
    12
 73
     8
 74
     0
 42
0.0000000001
 43
0.0000000001
 40
0.0
 40
0.0
 40
0.0
 40
0.0
 40
0.5
 40
0.5
 40
0.5
 40
0.5
 40
1.0
 40
1.0
 40
1.0
 40
1.0
 10
30.4861
 20
63.1936
 30
0.0
 10
30.4861
 20
62.6632
 30
0.0
 10
30.6968
 20
62.1545
 30
0.0
 10
31.0719
 20
61.7794
 30
0.0
 10
31.0719
 20
61.7794
 30
0.0
 10
31.447
 20
61.4043
 30
0.0
 10
31.9557
 20
61.1936
 30
0.0
 10
32.4861
 20
61.1936
 30
0.0
  0
SPLINE
  5
119
330
1F
100
AcDbEntity
  8
layer 1
370
     9
100
AcDbSpline
210
0.0
220
0.0
230
1.0
 70
     8
 71
     3
 72
    12
 73
     8
 74
     0
 42
0.0000000001
 43
0.0000000001
 40
0.0
 40
0.0
 40
0.0
 40
0.0
 40
0.5
 40
0.5
 40
0.5
 40
0.5
 40
1.0
 40
1.0
 40
1.0
 40
1.0
 10
32.4861
 20
66.1936
 30
0.0
 10
31.9557
 20
66.1936
 30
0.0
 10
31.447
 20
65.9829
 30
0.0
 10
31.0719
 20
65.6078
 30
0.0
 10
31.0719
 20
65.6078
 30
0.0
 10
30.6968
 20
65.2327
 30
0.0
 10
30.4861
 20
64.724
 30
0.0
 10
30.4861
 20
64.1936
 30
0.0
  0
SPLINE
  5
11A
330
1F
100
AcDbEntity
  8
layer 1
370
     9
100
AcDbSpline
210
0.0
220
0.0
230
1.0
 70
     8
 71
     3
 72
    12
 73
     8
 74
     0
 42
0.0000000001
 43
0.0000000001
 40
0.0
 40
0.0
 40
0.0
 40
0.0
 40
0.5
 40
0.5
 40
0.5
 40
0.5
 40
1.0
 40
1.0
 40
1.0
 40
1.0
 10
35.4861
 20
136.4598
 30
0.0
 10
34.9557
 20
136.4598
 30
0.0
 10
34.447
 20
136.249
 30
0.0
 10
34.0719
 20
135.874
 30
0.0
 10
34.0719
 20
135.874
 30
0.0
 10
33.6968
 20
135.4989
 30
0.0
 10
33.4861
 20
134.9902
 30
0.0
 10
33.4861
 20
134.4598
 30
0.0
  0
SPLINE
  5
11B
330
1F
100
AcDbEntity
  8
layer 1
370
     9
100
AcDbSpline
210
0.0
220
0.0
230
1.0
 70
     8
 71
     3
 72
    12
 73
     8
 74
     0
 42
0.0000000001
 43
0.0000000001
 40
0.0
 40
0.0
 40
0.0
 40
0.0
 40
0.5
 40
0.5
 40
0.5
 40
0.5
 40
1.0
 40
1.0
 40
1.0
 40
1.0
 10
49.6961
 20
126.6292
 30
0.0
 10
49.6961
 20
127.1596
 30
0.0
 10
49.4854
 20
127.6683
 30
0.0
 10
49.1103
 20
128.0434
 30
0.0
 10
49.1103
 20
128.0434
 30
0.0
 10
48.7353
 20
128.4184
 30
0.0
 10
48.2266
 20
128.6292
 30
0.0
 10
47.6961
 20
128.6292
 30
0.0
  0
SPLINE
  5
11C
330
1F
100
AcDbEntity
  8
layer 1
370
     9
100
AcDbSpline
210
0.0
220
0.0
230
1.0
 70
     8
 71
     3
 72
    12
 73
     8
 74
     0
 42
0.0000000001
 43
0.0000000001
 40
0.0
 40
0.0
 40
0.0
 40
0.0
 40
0.5
 40
0.5
 40
0.5
 40
0.5
 40
1.0
 40
1.0
 40
1.0
 40
1.0
 10
47.6961
 20
123.6292
 30
0.0
 10
48.2266
 20
123.6292
 30
0.0
 10
48.7353
 20
123.8399
 30
0.0
 10
49.1103
 20
124.2149
 30
0.0
 10
49.1103
 20
124.2149
 30
0.0
 10
49.4854
 20
124.59
 30
0.0
 10
49.6961
 20
125.0987
 30
0.0
 10
49.6961
 20
125.6292
 30
0.0
  0
SPLINE
  5
11D
330
1F
100
AcDbEntity
  8
layer 1
370
     9
100
AcDbSpline
210
0.0
220
0.0
230
1.0
 70
     8
 71
     3
 72
    12
 73
     8
 74
     0
 42
0.0000000001
 43
0.0000000001
 40
0.0
 40
0.0
 40
0.0
 40
0.0
 40
0.5
 40
0.5
 40
0.5
 40
0.5
 40
1.0
 40
1.0
 40
1.0
 40
1.0
 10
49.6961
 20
64.1936
 30
0.0
 10
49.6961
 20
64.724
 30
0.0
 10
49.4854
 20
65.2327
 30
0.0
 10
49.1103
 20
65.6078
 30
0.0
 10
49.1103
 20
65.6078
 30
0.0
 10
48.7353
 20
65.9829
 30
0.0
 10
48.2266
 20
66.1936
 30
0.0
 10
47.6961
 20
66.1936
 30
0.0
  0
SPLINE
  5
11E
330
1F
100
AcDbEntity
  8
layer 1
370
     9
100
AcDbSpline
210
0.0
220
0.0
230
1.0
 70
     8
 71
     3
 72
     8
 73
     4
 74
     0
 42
0.0000000001
 43
0.0000000001
 40
0.0
 40
0.0
 40
0.0
 40
0.0
 40
1.0
 40
1.0
 40
1.0
 40
1.0
 10
47.6961
 20
61.1936
 30
0.0
 10
48.8007
 20
61.1936
 30
0.0
 10
49.6961
 20
62.089
 30
0.0
 10
49.6961
 20
63.1936
 30
0.0
  0
SPLINE
  5
11F
330
1F
100
AcDbEntity
  8
layer 1
370
     9
100
AcDbSpline
210
0.0
220
0.0
230
1.0
 70
    11
 71
     3
 72
    20
 73
    16
 74
     0
 42
0.0000000001
 43
0.0000000001
 40
0.0
 40
0.0
 40
0.0
 40
0.0
 40
0.25
 40
0.25
 40
0.25
 40
0.25
 40
0.5
 40
0.5
 40
0.5
 40
0.5
 40
0.75
 40
0.75
 40
0.75
 40
0.75
 40
1.0
 40
1.0
 40
1.0
 40
1.0
 10
38.0911
 20
61.3128
 30
0.0
 10
38.0911
 20
62.1413
 30
0.0
 10
37.4195
 20
62.8128
 30
0.0
 10
36.5911
 20
62.8128
 30
0.0
 10
36.5911
 20
62.8128
 30
0.0
 10
35.7627
 20
62.8128
 30
0.0
 10
35.0911
 20
62.1413
 30
0.0
 10
35.0911
 20
61.3128
 30
0.0
 10
35.0911
 20
61.3128
 30
0.0
 10
35.0911
 20
60.4844
 30
0.0
 10
35.7627
 20
59.8128
 30
0.0
 10
36.5911
 20
59.8128
 30
0.0
 10
36.5911
 20
59.8128
 30
0.0
 10
37.4195
 20
59.8128
 30
0.0
 10
38.0911
 20
60.4844
 30
0.0
 10
38.0911
 20
61.3128
 30
0.0
  0
SPLINE
  5
120
330
1F
100
AcDbEntity
  8
layer 1
370
     9
100
AcDbSpline
210
0.0
220
0.0
230
1.0
 70
    11
 71
     3
 72
    20
 73
    16
 74
     0
 42
0.0000000001
 43
0.0000000001
 40
0.0
 40
0.0
 40
0.0
 40
0.0
 40
0.25
 40
0.25
 40
0.25
 40
0.25
 40
0.5
 40
0.5
 40
0.5
 40
0.5
 40
0.75
 40
0.75
 40
0.75
 40
0.75
 40
1.0
 40
1.0
 40
1.0
 40
1.0
 10
38.0911
 20
104.3128
 30
0.0
 10
38.0911
 20
105.1413
 30
0.0
 10
37.4195
 20
105.8128
 30
0.0
 10
36.5911
 20
105.8128
 30
0.0
 10
36.5911
 20
105.8128
 30
0.0
 10
35.7627
 20
105.8128
 30
0.0
 10
35.0911
 20
105.1413
 30
0.0
 10
35.0911
 20
104.3128
 30
0.0
 10
35.0911
 20
104.3128
 30
0.0
 10
35.0911
 20
103.4844
 30
0.0
 10
35.7627
 20
102.8128
 30
0.0
 10
36.5911
 20
102.8128
 30
0.0
 10
36.5911
 20
102.8128
 30
0.0
 10
37.4195
 20
102.8128
 30
0.0
 10
38.0911
 20
103.4844
 30
0.0
 10
38.0911
 20
104.3128
 30
0.0
  0
SPLINE
  5
121
330
1F
100
AcDbEntity
  8
layer 1
370
     9
100
AcDbSpline
210
0.0
220
0.0
230
1.0
 70
    27
 71
     3
 72
     8
 73
     4
 74
     0
 42
0.0000000001
 43
0.0000000001
 40
0.0
 40
0.0
 40
0.0
 40
0.0
 40
1.0
 40
1.0
 40
1.0
 40
1.0
 10
27.3884
 20
64.1936
 30
0.0
 10
27.3884
 20
64.1936
 30
0.0
 10
27.3884
 20
64.1936
 30
0.0
 10
27.3884
 20
64.1936
 30
0.0
  0
SPLINE
  5
122
330
1F
100
AcDbEntity
  8
layer 1
370
     9
100
AcDbSpline
210
0.0
220
0.0
230
1.0
 70
    24
 71
     3
 72
     8
 73
     4
 74
     0
 42
0.0000000001
 43
0.0000000001
 40
0.0
 40
0.0
 40
0.0
 40
0.0
 40
1.0
 40
1.0
 40
1.0
 40
1.0
 10
27.3884
 20
63.1936
 30
0.0
 10
27.3884
 20
63.1936
 30
0.0
 10
27.3884
 20
64.1936
 30
0.0
 10
27.3884
 20
64.1936
 30
0.0
  0
SPLINE
  5
123
330
1F
100
AcDbEntity
  8
layer 1
370
     9
100
AcDbSpline
210
0.0
220
0.0
230
1.0
 70
    27
 71
     3
 72
     8
 73
     4
 74
     0
 42
0.0000000001
 43
0.0000000001
 40
0.0
 40
0.0
 40
0.0
 40
0.0
 40
1.0
 40
1.0
 40
1.0
 40
1.0
 10
25.3884
 20
66.1936
 30
0.0
 10
25.3884
 20
66.1936
 30
0.0
 10
25.3884
 20
66.1936
 30
0.0
 10
25.3884
 20
66.1936
 30
0.0
  0
SPLINE
  5
124
330
1F
100
AcDbEntity
  8
layer 1
370
     9
100
AcDbSpline
210
0.0
220
0.0
230
1.0
 70
    24
 71
     3
 72
     8
 73
     4
 74
     0
 42
0.0000000001
 43
0.0000000001
 40
0.0
 40
0.0
 40
0.0
 40
0.0
 40
1.0
 40
1.0
 40
1.0
 40
1.0
 10
25.3884
 20
66.1936
 30
0.0
 10
25.3884
 20
66.1936
 30
0.0
 10
24.3884
 20
66.1936
 30
0.0
 10
24.3884
 20
66.1936
 30
0.0
  0
SPLINE
  5
125
330
1F
100
AcDbEntity
  8
layer 1
370
     9
100
AcDbSpline
210
0.0
220
0.0
230
1.0
 70
    27
 71
     3
 72
     8
 73
     4
 74
     0
 42
0.0000000001
 43
0.0000000001
 40
0.0
 40
0.0
 40
0.0
 40
0.0
 40
1.0
 40
1.0
 40
1.0
 40
1.0
 10
24.3884
 20
123.6292
 30
0.0
 10
24.3884
 20
123.6292
 30
0.0
 10
24.3884
 20
123.6292
 30
0.0
 10
24.3884
 20
123.6292
 30
0.0
  0
SPLINE
  5
126
330
1F
100
AcDbEntity
  8
layer 1
370
     9
100
AcDbSpline
210
0.0
220
0.0
230
1.0
 70
    24
 71
     3
 72
     8
 73
     4
 74
     0
 42
0.0000000001
 43
0.0000000001
 40
0.0
 40
0.0
 40
0.0
 40
0.0
 40
1.0
 40
1.0
 40
1.0
 40
1.0
 10
24.3884
 20
66.1936
 30
0.0
 10
24.3884
 20
66.1936
 30
0.0
 10
24.3884
 20
123.6292
 30
0.0
 10
24.3884
 20
123.6292
 30
0.0
  0
SPLINE
  5
127
330
1F
100
AcDbEntity
  8
layer 1
370
     9
100
AcDbSpline
210
0.0
220
0.0
230
1.0
 70
    27
 71
     3
 72
     8
 73
     4
 74
     0
 42
0.0000000001
 43
0.0000000001
 40
0.0
 40
0.0
 40
0.0
 40
0.0
 40
1.0
 40
1.0
 40
1.0
 40
1.0
 10
25.3884
 20
123.6292
 30
0.0
 10
25.3884
 20
123.6292
 30
0.0
 10
25.3884
 20
123.6292
 30
0.0
 10
25.3884
 20
123.6292
 30
0.0
  0
SPLINE
  5
128
330
1F
100
AcDbEntity
  8
layer 1
370
     9
100
AcDbSpline
210
0.0
220
0.0
230
1.0
 70
    24
 71
     3
 72
     8
 73
     4
 74
     0
 42
0.0000000001
 43
0.0000000001
 40
0.0
 40
0.0
 40
0.0
 40
0.0
 40
1.0
 40
1.0
 40
1.0
 40
1.0
 10
24.3884
 20
123.6292
 30
0.0
 10
24.3884
 20
123.6292
 30
0.0
 10
25.3884
 20
123.6292
 30
0.0
 10
25.3884
 20
123.6292
 30
0.0
  0
SPLINE
  5
129
330
1F
100
AcDbEntity
  8
layer 1
370
     9
100
AcDbSpline
210
0.0
220
0.0
230
1.0
 70
    27
 71
     3
 72
     8
 73
     4
 74
     0
 42
0.0000000001
 43
0.0000000001
 40
0.0
 40
0.0
 40
0.0
 40
0.0
 40
1.0
 40
1.0
 40
1.0
 40
1.0
 10
27.3884
 20
126.6292
 30
0.0
 10
27.3884
 20
126.6292
 30
0.0
 10
27.3884
 20
126.6292
 30
0.0
 10
27.3884
 20
126.6292
 30
0.0
  0
SPLINE
  5
12A
330
1F
100
AcDbEntity
  8
layer 1
370
     9
100
AcDbSpline
210
0.0
220
0.0
230
1.0
 70
    24
 71
     3
 72
     8
 73
     4
 74
     0
 42
0.0000000001
 43
0.0000000001
 40
0.0
 40
0.0
 40
0.0
 40
0.0
 40
1.0
 40
1.0
 40
1.0
 40
1.0
 10
27.3884
 20
125.6292
 30
0.0
 10
27.3884
 20
125.6292
 30
0.0
 10
27.3884
 20
126.6292
 30
0.0
 10
27.3884
 20
126.6292
 30
0.0
  0
SPLINE
  5
12B
330
1F
100
AcDbEntity
  8
layer 1
370
     9
100
AcDbSpline
210
0.0
220
0.0
230
1.0
 70
    27
 71
     3
 72
     8
 73
     4
 74
     0
 42
0.0000000001
 43
0.0000000001
 40
0.0
 40
0.0
 40
0.0
 40
0.0
 40
1.0
 40
1.0
 40
1.0
 40
1.0
 10
25.3884
 20
128.6292
 30
0.0
 10
25.3884
 20
128.6292
 30
0.0
 10
25.3884
 20
128.6292
 30
0.0
 10
25.3884
 20
128.6292
 30
0.0
  0
SPLINE
  5
12C
330
1F
100
AcDbEntity
  8
layer 1
370
     9
100
AcDbSpline
210
0.0
220
0.0
230
1.0
 70
    24
 71
     3
 72
     8
 73
     4
 74
     0
 42
0.0000000001
 43
0.0000000001
 40
0.0
 40
0.0
 40
0.0
 40
0.0
 40
1.0
 40
1.0
 40
1.0
 40
1.0
 10
25.3884
 20
128.6292
 30
0.0
 10
25.3884
 20
128.6292
 30
0.0
 10
24.3884
 20
128.6292
 30
0.0
 10
24.3884
 20
128.6292
 30
0.0
  0
SPLINE
  5
12D
330
1F
100
AcDbEntity
  8
layer 1
370
     9
100
AcDbSpline
210
0.0
220
0.0
230
1.0
 70
    27
 71
     3
 72
     8
 73
     4
 74
     0
 42
0.0000000001
 43
0.0000000001
 40
0.0
 40
0.0
 40
0.0
 40
0.0
 40
1.0
 40
1.0
 40
1.0
 40
1.0
 10
24.3884
 20
134.4598
 30
0.0
 10
24.3884
 20
134.4598
 30
0.0
 10
24.3884
 20
134.4598
 30
0.0
 10
24.3884
 20
134.4598
 30
0.0
  0
SPLINE
  5
12E
330
1F
100
AcDbEntity
  8
layer 1
370
     9
100
AcDbSpline
210
0.0
220
0.0
230
1.0
 70
    24
 71
     3
 72
     8
 73
     4
 74
     0
 42
0.0000000001
 43
0.0000000001
 40
0.0
 40
0.0
 40
0.0
 40
0.0
 40
1.0
 40
1.0
 40
1.0
 40
1.0
 10
24.3884
 20
128.6292
 30
0.0
 10
24.3884
 20
128.6292
 30
0.0
 10
24.3884
 20
134.4598
 30
0.0
 10
24.3884
 20
134.4598
 30
0.0
  0
SPLINE
  5
12F
330
1F
100
AcDbEntity
  8
layer 1
370
     9
100
AcDbSpline
210
0.0
220
0.0
230
1.0
 70
    27
 71
     3
 72
     8
 73
     4
 74
     0
 42
0.0000000001
 43
0.0000000001
 40
0.0
 40
0.0
 40
0.0
 40
0.0
 40
1.0
 40
1.0
 40
1.0
 40
1.0
 10
22.3884
 20
136.4598
 30
0.0
 10
22.3884
 20
136.4598
 30
0.0
 10
22.3884
 20
136.4598
 30
0.0
 10
22.3884
 20
136.4598
 30
0.0
  0
SPLINE
  5
130
330
1F
100
AcDbEntity
  8
layer 1
370
     9
100
AcDbSpline
210
0.0
220
0.0
230
1.0
 70
    24
 71
     3
 72
     8
 73
     4
 74
     0
 42
0.0000000001
 43
0.0000000001
 40
0.0
 40
0.0
 40
0.0
 40
0.0
 40
1.0
 40
1.0
 40
1.0
 40
1.0
 10
22.3884
 20
136.4598
 30
0.0
 10
22.3884
 20
136.4598
 30
0.0
 10
13.1784
 20
136.4598
 30
0.0
 10
13.1784
 20
136.4598
 30
0.0
  0
SPLINE
  5
131
330
1F
100
AcDbEntity
  8
layer 1
370
     9
100
AcDbSpline
210
0.0
220
0.0
230
1.0
 70
    27
 71
     3
 72
     8
 73
     4
 74
     0
 42
0.0000000001
 43
0.0000000001
 40
0.0
 40
0.0
 40
0.0
 40
0.0
 40
1.0
 40
1.0
 40
1.0
 40
1.0
 10
11.1784
 20
134.4598
 30
0.0
 10
11.1784
 20
134.4598
 30
0.0
 10
11.1784
 20
134.4598
 30
0.0
 10
11.1784
 20
134.4598
 30
0.0
  0
SPLINE
  5
132
330
1F
100
AcDbEntity
  8
layer 1
370
     9
100
AcDbSpline
210
0.0
220
0.0
230
1.0
 70
    24
 71
     3
 72
     8
 73
     4
 74
     0
 42
0.0000000001
 43
0.0000000001
 40
0.0
 40
0.0
 40
0.0
 40
0.0
 40
1.0
 40
1.0
 40
1.0
 40
1.0
 10
11.1784
 20
134.4598
 30
0.0
 10
11.1784
 20
134.4598
 30
0.0
 10
11.1784
 20
128.6292
 30
0.0
 10
11.1784
 20
128.6292
 30
0.0
  0
SPLINE
  5
133
330
1F
100
AcDbEntity
  8
layer 1
370
     9
100
AcDbSpline
210
0.0
220
0.0
230
1.0
 70
    27
 71
     3
 72
     8
 73
     4
 74
     0
 42
0.0000000001
 43
0.0000000001
 40
0.0
 40
0.0
 40
0.0
 40
0.0
 40
1.0
 40
1.0
 40
1.0
 40
1.0
 10
11.1784
 20
128.6292
 30
0.0
 10
11.1784
 20
128.6292
 30
0.0
 10
11.1784
 20
128.6292
 30
0.0
 10
11.1784
 20
128.6292
 30
0.0
  0
SPLINE
  5
134
330
1F
100
AcDbEntity
  8
layer 1
370
     9
100
AcDbSpline
210
0.0
220
0.0
230
1.0
 70
    24
 71
     3
 72
     8
 73
     4
 74
     0
 42
0.0000000001
 43
0.0000000001
 40
0.0
 40
0.0
 40
0.0
 40
0.0
 40
1.0
 40
1.0
 40
1.0
 40
1.0
 10
11.1784
 20
128.6292
 30
0.0
 10
11.1784
 20
128.6292
 30
0.0
 10
10.1784
 20
128.6292
 30
0.0
 10
10.1784
 20
128.6292
 30
0.0
  0
SPLINE
  5
135
330
1F
100
AcDbEntity
  8
layer 1
370
     9
100
AcDbSpline
210
0.0
220
0.0
230
1.0
 70
    27
 71
     3
 72
     8
 73
     4
 74
     0
 42
0.0000000001
 43
0.0000000001
 40
0.0
 40
0.0
 40
0.0
 40
0.0
 40
1.0
 40
1.0
 40
1.0
 40
1.0
 10
8.1784
 20
126.6292
 30
0.0
 10
8.1784
 20
126.6292
 30
0.0
 10
8.1784
 20
126.6292
 30
0.0
 10
8.1784
 20
126.6292
 30
0.0
  0
SPLINE
  5
136
330
1F
100
AcDbEntity
  8
layer 1
370
     9
100
AcDbSpline
210
0.0
220
0.0
230
1.0
 70
    24
 71
     3
 72
     8
 73
     4
 74
     0
 42
0.0000000001
 43
0.0000000001
 40
0.0
 40
0.0
 40
0.0
 40
0.0
 40
1.0
 40
1.0
 40
1.0
 40
1.0
 10
8.1784
 20
126.6292
 30
0.0
 10
8.1784
 20
126.6292
 30
0.0
 10
8.1784
 20
125.6292
 30
0.0
 10
8.1784
 20
125.6292
 30
0.0
  0
SPLINE
  5
137
330
1F
100
AcDbEntity
  8
layer 1
370
     9
100
AcDbSpline
210
0.0
220
0.0
230
1.0
 70
    27
 71
     3
 72
     8
 73
     4
 74
     0
 42
0.0000000001
 43
0.0000000001
 40
0.0
 40
0.0
 40
0.0
 40
0.0
 40
1.0
 40
1.0
 40
1.0
 40
1.0
 10
11.1784
 20
123.6292
 30
0.0
 10
11.1784
 20
123.6292
 30
0.0
 10
11.1784
 20
123.6292
 30
0.0
 10
11.1784
 20
123.6292
 30
0.0
  0
SPLINE
  5
138
330
1F
100
AcDbEntity
  8
layer 1
370
     9
100
AcDbSpline
210
0.0
220
0.0
230
1.0
 70
    24
 71
     3
 72
     8
 73
     4
 74
     0
 42
0.0000000001
 43
0.0000000001
 40
0.0
 40
0.0
 40
0.0
 40
0.0
 40
1.0
 40
1.0
 40
1.0
 40
1.0
 10
10.1784
 20
123.6292
 30
0.0
 10
10.1784
 20
123.6292
 30
0.0
 10
11.1784
 20
123.6292
 30
0.0
 10
11.1784
 20
123.6292
 30
0.0
  0
SPLINE
  5
139
330
1F
100
AcDbEntity
  8
layer 1
370
     9
100
AcDbSpline
210
0.0
220
0.0
230
1.0
 70
    27
 71
     3
 72
     8
 73
     4
 74
     0
 42
0.0000000001
 43
0.0000000001
 40
0.0
 40
0.0
 40
0.0
 40
0.0
 40
1.0
 40
1.0
 40
1.0
 40
1.0
 10
11.1784
 20
123.6292
 30
0.0
 10
11.1784
 20
123.6292
 30
0.0
 10
11.1784
 20
123.6292
 30
0.0
 10
11.1784
 20
123.6292
 30
0.0
  0
SPLINE
  5
13A
330
1F
100
AcDbEntity
  8
layer 1
370
     9
100
AcDbSpline
210
0.0
220
0.0
230
1.0
 70
    24
 71
     3
 72
     8
 73
     4
 74
     0
 42
0.0000000001
 43
0.0000000001
 40
0.0
 40
0.0
 40
0.0
 40
0.0
 40
1.0
 40
1.0
 40
1.0
 40
1.0
 10
11.1784
 20
123.6292
 30
0.0
 10
11.1784
 20
123.6292
 30
0.0
 10
11.1784
 20
66.1936
 30
0.0
 10
11.1784
 20
66.1936
 30
0.0
  0
SPLINE
  5
13B
330
1F
100
AcDbEntity
  8
layer 1
370
     9
100
AcDbSpline
210
0.0
220
0.0
230
1.0
 70
    27
 71
     3
 72
     8
 73
     4
 74
     0
 42
0.0000000001
 43
0.0000000001
 40
0.0
 40
0.0
 40
0.0
 40
0.0
 40
1.0
 40
1.0
 40
1.0
 40
1.0
 10
11.1784
 20
66.1936
 30
0.0
 10
11.1784
 20
66.1936
 30
0.0
 10
11.1784
 20
66.1936
 30
0.0
 10
11.1784
 20
66.1936
 30
0.0
  0
SPLINE
  5
13C
330
1F
100
AcDbEntity
  8
layer 1
370
     9
100
AcDbSpline
210
0.0
220
0.0
230
1.0
 70
    24
 71
     3
 72
     8
 73
     4
 74
     0
 42
0.0000000001
 43
0.0000000001
 40
0.0
 40
0.0
 40
0.0
 40
0.0
 40
1.0
 40
1.0
 40
1.0
 40
1.0
 10
11.1784
 20
66.1936
 30
0.0
 10
11.1784
 20
66.1936
 30
0.0
 10
10.1784
 20
66.1936
 30
0.0
 10
10.1784
 20
66.1936
 30
0.0
  0
SPLINE
  5
13D
330
1F
100
AcDbEntity
  8
layer 1
370
     9
100
AcDbSpline
210
0.0
220
0.0
230
1.0
 70
    27
 71
     3
 72
     8
 73
     4
 74
     0
 42
0.0000000001
 43
0.0000000001
 40
0.0
 40
0.0
 40
0.0
 40
0.0
 40
1.0
 40
1.0
 40
1.0
 40
1.0
 10
8.1784
 20
64.1936
 30
0.0
 10
8.1784
 20
64.1936
 30
0.0
 10
8.1784
 20
64.1936
 30
0.0
 10
8.1784
 20
64.1936
 30
0.0
  0
SPLINE
  5
13E
330
1F
100
AcDbEntity
  8
layer 1
370
     9
100
AcDbSpline
210
0.0
220
0.0
230
1.0
 70
    24
 71
     3
 72
     8
 73
     4
 74
     0
 42
0.0000000001
 43
0.0000000001
 40
0.0
 40
0.0
 40
0.0
 40
0.0
 40
1.0
 40
1.0
 40
1.0
 40
1.0
 10
8.1784
 20
64.1936
 30
0.0
 10
8.1784
 20
64.1936
 30
0.0
 10
8.1784
 20
63.1936
 30
0.0
 10
8.1784
 20
63.1936
 30
0.0
  0
SPLINE
  5
13F
330
1F
100
AcDbEntity
  8
layer 1
370
     9
100
AcDbSpline
210
0.0
220
0.0
230
1.0
 70
    27
 71
     3
 72
     8
 73
     4
 74
     0
 42
0.0000000001
 43
0.0000000001
 40
0.0
 40
0.0
 40
0.0
 40
0.0
 40
1.0
 40
1.0
 40
1.0
 40
1.0
 10
11.1784
 20
61.1936
 30
0.0
 10
11.1784
 20
61.1936
 30
0.0
 10
11.1784
 20
61.1936
 30
0.0
 10
11.1784
 20
61.1936
 30
0.0
  0
SPLINE
  5
140
330
1F
100
AcDbEntity
  8
layer 1
370
     9
100
AcDbSpline
210
0.0
220
0.0
230
1.0
 70
    24
 71
     3
 72
     8
 73
     4
 74
     0
 42
0.0000000001
 43
0.0000000001
 40
0.0
 40
0.0
 40
0.0
 40
0.0
 40
1.0
 40
1.0
 40
1.0
 40
1.0
 10
10.1784
 20
61.1936
 30
0.0
 10
10.1784
 20
61.1936
 30
0.0
 10
11.1784
 20
61.1936
 30
0.0
 10
11.1784
 20
61.1936
 30
0.0
  0
SPLINE
  5
141
330
1F
100
AcDbEntity
  8
layer 1
370
     9
100
AcDbSpline
210
0.0
220
0.0
230
1.0
 70
    27
 71
     3
 72
     8
 73
     4
 74
     0
 42
0.0000000001
 43
0.0000000001
 40
0.0
 40
0.0
 40
0.0
 40
0.0
 40
1.0
 40
1.0
 40
1.0
 40
1.0
 10
11.1784
 20
61.1936
 30
0.0
 10
11.1784
 20
61.1936
 30
0.0
 10
11.1784
 20
61.1936
 30
0.0
 10
11.1784
 20
61.1936
 30
0.0
  0
SPLINE
  5
142
330
1F
100
AcDbEntity
  8
layer 1
370
     9
100
AcDbSpline
210
0.0
220
0.0
230
1.0
 70
    24
 71
     3
 72
     8
 73
     4
 74
     0
 42
0.0000000001
 43
0.0000000001
 40
0.0
 40
0.0
 40
0.0
 40
0.0
 40
1.0
 40
1.0
 40
1.0
 40
1.0
 10
11.1784
 20
61.1936
 30
0.0
 10
11.1784
 20
61.1936
 30
0.0
 10
11.1784
 20
53.363
 30
0.0
 10
11.1784
 20
53.363
 30
0.0
  0
SPLINE
  5
143
330
1F
100
AcDbEntity
  8
layer 1
370
     9
100
AcDbSpline
210
0.0
220
0.0
230
1.0
 70
    27
 71
     3
 72
     8
 73
     4
 74
     0
 42
0.0000000001
 43
0.0000000001
 40
0.0
 40
0.0
 40
0.0
 40
0.0
 40
1.0
 40
1.0
 40
1.0
 40
1.0
 10
22.3884
 20
51.363
 30
0.0
 10
22.3884
 20
51.363
 30
0.0
 10
22.3884
 20
51.363
 30
0.0
 10
22.3884
 20
51.363
 30
0.0
  0
SPLINE
  5
144
330
1F
100
AcDbEntity
  8
layer 1
370
     9
100
AcDbSpline
210
0.0
220
0.0
230
1.0
 70
    24
 71
     3
 72
     8
 73
     4
 74
     0
 42
0.0000000001
 43
0.0000000001
 40
0.0
 40
0.0
 40
0.0
 40
0.0
 40
1.0
 40
1.0
 40
1.0
 40
1.0
 10
13.1784
 20
51.363
 30
0.0
 10
13.1784
 20
51.363
 30
0.0
 10
22.3884
 20
51.363
 30
0.0
 10
22.3884
 20
51.363
 30
0.0
  0
SPLINE
  5
145
330
1F
100
AcDbEntity
  8
layer 1
370
     9
100
AcDbSpline
210
0.0
220
0.0
230
1.0
 70
    27
 71
     3
 72
     8
 73
     4
 74
     0
 42
0.0000000001
 43
0.0000000001
 40
0.0
 40
0.0
 40
0.0
 40
0.0
 40
1.0
 40
1.0
 40
1.0
 40
1.0
 10
24.3884
 20
61.1936
 30
0.0
 10
24.3884
 20
61.1936
 30
0.0
 10
24.3884
 20
61.1936
 30
0.0
 10
24.3884
 20
61.1936
 30
0.0
  0
SPLINE
  5
146
330
1F
100
AcDbEntity
  8
layer 1
370
     9
100
AcDbSpline
210
0.0
220
0.0
230
1.0
 70
    24
 71
     3
 72
     8
 73
     4
 74
     0
 42
0.0000000001
 43
0.0000000001
 40
0.0
 40
0.0
 40
0.0
 40
0.0
 40
1.0
 40
1.0
 40
1.0
 40
1.0
 10
24.3884
 20
53.363
 30
0.0
 10
24.3884
 20
53.363
 30
0.0
 10
24.3884
 20
61.1936
 30
0.0
 10
24.3884
 20
61.1936
 30
0.0
  0
SPLINE
  5
147
330
1F
100
AcDbEntity
  8
layer 1
370
     9
100
AcDbSpline
210
0.0
220
0.0
230
1.0
 70
    27
 71
     3
 72
     8
 73
     4
 74
     0
 42
0.0000000001
 43
0.0000000001
 40
0.0
 40
0.0
 40
0.0
 40
0.0
 40
1.0
 40
1.0
 40
1.0
 40
1.0
 10
25.3884
 20
61.1936
 30
0.0
 10
25.3884
 20
61.1936
 30
0.0
 10
25.3884
 20
61.1936
 30
0.0
 10
25.3884
 20
61.1936
 30
0.0
  0
SPLINE
  5
148
330
1F
100
AcDbEntity
  8
layer 1
370
     9
100
AcDbSpline
210
0.0
220
0.0
230
1.0
 70
    24
 71
     3
 72
     8
 73
     4
 74
     0
 42
0.0000000001
 43
0.0000000001
 40
0.0
 40
0.0
 40
0.0
 40
0.0
 40
1.0
 40
1.0
 40
1.0
 40
1.0
 10
24.3884
 20
61.1936
 30
0.0
 10
24.3884
 20
61.1936
 30
0.0
 10
25.3884
 20
61.1936
 30
0.0
 10
25.3884
 20
61.1936
 30
0.0
  0
SPLINE
  5
149
330
1F
100
AcDbEntity
  8
layer 1
370
     9
100
AcDbSpline
210
0.0
220
0.0
230
1.0
 70
     8
 71
     3
 72
    12
 73
     8
 74
     0
 42
0.0000000001
 43
0.0000000001
 40
0.0
 40
0.0
 40
0.0
 40
0.0
 40
0.5
 40
0.5
 40
0.5
 40
0.5
 40
1.0
 40
1.0
 40
1.0
 40
1.0
 10
24.3884
 20
134.4598
 30
0.0
 10
24.3884
 20
134.9902
 30
0.0
 10
24.1777
 20
135.4989
 30
0.0
 10
23.8026
 20
135.874
 30
0.0
 10
23.8026
 20
135.874
 30
0.0
 10
23.4275
 20
136.249
 30
0.0
 10
22.9188
 20
136.4598
 30
0.0
 10
22.3884
 20
136.4598
 30
0.0
  0
SPLINE
  5
14A
330
1F
100
AcDbEntity
  8
layer 1
370
     9
100
AcDbSpline
210
0.0
220
0.0
230
1.0
 70
     8
 71
     3
 72
    12
 73
     8
 74
     0
 42
0.0000000001
 43
0.0000000001
 40
0.0
 40
0.0
 40
0.0
 40
0.0
 40
0.5
 40
0.5
 40
0.5
 40
0.5
 40
1.0
 40
1.0
 40
1.0
 40
1.0
 10
27.3884
 20
126.6292
 30
0.0
 10
27.3884
 20
127.1596
 30
0.0
 10
27.1777
 20
127.6683
 30
0.0
 10
26.8026
 20
128.0434
 30
0.0
 10
26.8026
 20
128.0434
 30
0.0
 10
26.4275
 20
128.4184
 30
0.0
 10
25.9188
 20
128.6292
 30
0.0
 10
25.3884
 20
128.6292
 30
0.0
  0
SPLINE
  5
14B
330
1F
100
AcDbEntity
  8
layer 1
370
     9
100
AcDbSpline
210
0.0
220
0.0
230
1.0
 70
     8
 71
     3
 72
    12
 73
     8
 74
     0
 42
0.0000000001
 43
0.0000000001
 40
0.0
 40
0.0
 40
0.0
 40
0.0
 40
0.5
 40
0.5
 40
0.5
 40
0.5
 40
1.0
 40
1.0
 40
1.0
 40
1.0
 10
25.3884
 20
123.6292
 30
0.0
 10
25.9188
 20
123.6292
 30
0.0
 10
26.4275
 20
123.8399
 30
0.0
 10
26.8026
 20
124.2149
 30
0.0
 10
26.8026
 20
124.2149
 30
0.0
 10
27.1777
 20
124.59
 30
0.0
 10
27.3884
 20
125.0987
 30
0.0
 10
27.3884
 20
125.6292
 30
0.0
  0
SPLINE
  5
14C
330
1F
100
AcDbEntity
  8
layer 1
370
     9
100
AcDbSpline
210
0.0
220
0.0
230
1.0
 70
     8
 71
     3
 72
    12
 73
     8
 74
     0
 42
0.0000000001
 43
0.0000000001
 40
0.0
 40
0.0
 40
0.0
 40
0.0
 40
0.5
 40
0.5
 40
0.5
 40
0.5
 40
1.0
 40
1.0
 40
1.0
 40
1.0
 10
27.3884
 20
64.1936
 30
0.0
 10
27.3884
 20
64.724
 30
0.0
 10
27.1777
 20
65.2327
 30
0.0
 10
26.8026
 20
65.6078
 30
0.0
 10
26.8026
 20
65.6078
 30
0.0
 10
26.4275
 20
65.9829
 30
0.0
 10
25.9188
 20
66.1936
 30
0.0
 10
25.3884
 20
66.1936
 30
0.0
  0
SPLINE
  5
14D
330
1F
100
AcDbEntity
  8
layer 1
370
     9
100
AcDbSpline
210
0.0
220
0.0
230
1.0
 70
     8
 71
     3
 72
     8
 73
     4
 74
     0
 42
0.0000000001
 43
0.0000000001
 40
0.0
 40
0.0
 40
0.0
 40
0.0
 40
1.0
 40
1.0
 40
1.0
 40
1.0
 10
25.3884
 20
61.1936
 30
0.0
 10
26.4929
 20
61.1936
 30
0.0
 10
27.3884
 20
62.089
 30
0.0
 10
27.3884
 20
63.1936
 30
0.0
  0
SPLINE
  5
14E
330
1F
100
AcDbEntity
  8
layer 1
370
     9
100
AcDbSpline
210
0.0
220
0.0
230
1.0
 70
     8
 71
     3
 72
    12
 73
     8
 74
     0
 42
0.0000000001
 43
0.0000000001
 40
0.0
 40
0.0
 40
0.0
 40
0.0
 40
0.5
 40
0.5
 40
0.5
 40
0.5
 40
1.0
 40
1.0
 40
1.0
 40
1.0
 10
11.1784
 20
53.363
 30
0.0
 10
11.1784
 20
52.8326
 30
0.0
 10
11.3891
 20
52.3239
 30
0.0
 10
11.7642
 20
51.9488
 30
0.0
 10
11.7642
 20
51.9488
 30
0.0
 10
12.1392
 20
51.5737
 30
0.0
 10
12.6479
 20
51.363
 30
0.0
 10
13.1784
 20
51.363
 30
0.0
  0
SPLINE
  5
14F
330
1F
100
AcDbEntity
  8
layer 1
370
     9
100
AcDbSpline
210
0.0
220
0.0
230
1.0
 70
     8
 71
     3
 72
    12
 73
     8
 74
     0
 42
0.0000000001
 43
0.0000000001
 40
0.0
 40
0.0
 40
0.0
 40
0.0
 40
0.5
 40
0.5
 40
0.5
 40
0.5
 40
1.0
 40
1.0
 40
1.0
 40
1.0
 10
8.1784
 20
63.1936
 30
0.0
 10
8.1784
 20
62.6632
 30
0.0
 10
8.3891
 20
62.1545
 30
0.0
 10
8.7642
 20
61.7794
 30
0.0
 10
8.7642
 20
61.7794
 30
0.0
 10
9.1392
 20
61.4043
 30
0.0
 10
9.6479
 20
61.1936
 30
0.0
 10
10.1784
 20
61.1936
 30
0.0
  0
SPLINE
  5
150
330
1F
100
AcDbEntity
  8
layer 1
370
     9
100
AcDbSpline
210
0.0
220
0.0
230
1.0
 70
     8
 71
     3
 72
    12
 73
     8
 74
     0
 42
0.0000000001
 43
0.0000000001
 40
0.0
 40
0.0
 40
0.0
 40
0.0
 40
0.5
 40
0.5
 40
0.5
 40
0.5
 40
1.0
 40
1.0
 40
1.0
 40
1.0
 10
10.1784
 20
66.1936
 30
0.0
 10
9.6479
 20
66.1936
 30
0.0
 10
9.1392
 20
65.9829
 30
0.0
 10
8.7642
 20
65.6078
 30
0.0
 10
8.7642
 20
65.6078
 30
0.0
 10
8.3891
 20
65.2327
 30
0.0
 10
8.1784
 20
64.724
 30
0.0
 10
8.1784
 20
64.1936
 30
0.0
  0
SPLINE
  5
151
330
1F
100
AcDbEntity
  8
layer 1
370
     9
100
AcDbSpline
210
0.0
220
0.0
230
1.0
 70
     8
 71
     3
 72
    12
 73
     8
 74
     0
 42
0.0000000001
 43
0.0000000001
 40
0.0
 40
0.0
 40
0.0
 40
0.0
 40
0.5
 40
0.5
 40
0.5
 40
0.5
 40
1.0
 40
1.0
 40
1.0
 40
1.0
 10
8.1784
 20
125.6292
 30
0.0
 10
8.1784
 20
125.0987
 30
0.0
 10
8.3891
 20
124.59
 30
0.0
 10
8.7642
 20
124.2149
 30
0.0
 10
8.7642
 20
124.2149
 30
0.0
 10
9.1392
 20
123.8399
 30
0.0
 10
9.6479
 20
123.6292
 30
0.0
 10
10.1784
 20
123.6292
 30
0.0
  0
SPLINE
  5
152
330
1F
100
AcDbEntity
  8
layer 1
370
     9
100
AcDbSpline
210
0.0
220
0.0
230
1.0
 70
     8
 71
     3
 72
    12
 73
     8
 74
     0
 42
0.0000000001
 43
0.0000000001
 40
0.0
 40
0.0
 40
0.0
 40
0.0
 40
0.5
 40
0.5
 40
0.5
 40
0.5
 40
1.0
 40
1.0
 40
1.0
 40
1.0
 10
10.1784
 20
128.6292
 30
0.0
 10
9.6479
 20
128.6292
 30
0.0
 10
9.1392
 20
128.4184
 30
0.0
 10
8.7642
 20
128.0434
 30
0.0
 10
8.7642
 20
128.0434
 30
0.0
 10
8.3891
 20
127.6683
 30
0.0
 10
8.1784
 20
127.1596
 30
0.0
 10
8.1784
 20
126.6292
 30
0.0
  0
SPLINE
  5
153
330
1F
100
AcDbEntity
  8
layer 1
370
     9
100
AcDbSpline
210
0.0
220
0.0
230
1.0
 70
     8
 71
     3
 72
    12
 73
     8
 74
     0
 42
0.0000000001
 43
0.0000000001
 40
0.0
 40
0.0
 40
0.0
 40
0.0
 40
0.5
 40
0.5
 40
0.5
 40
0.5
 40
1.0
 40
1.0
 40
1.0
 40
1.0
 10
13.1784
 20
136.4598
 30
0.0
 10
12.6479
 20
136.4598
 30
0.0
 10
12.1392
 20
136.249
 30
0.0
 10
11.7642
 20
135.874
 30
0.0
 10
11.7642
 20
135.874
 30
0.0
 10
11.3891
 20
135.4989
 30
0.0
 10
11.1784
 20
134.9902
 30
0.0
 10
11.1784
 20
134.4598
 30
0.0
  0
SPLINE
  5
154
330
1F
100
AcDbEntity
  8
layer 1
370
     9
100
AcDbSpline
210
0.0
220
0.0
230
1.0
 70
     8
 71
     3
 72
    12
 73
     8
 74
     0
 42
0.0000000001
 43
0.0000000001
 40
0.0
 40
0.0
 40
0.0
 40
0.0
 40
0.5
 40
0.5
 40
0.5
 40
0.5
 40
1.0
 40
1.0
 40
1.0
 40
1.0
 10
22.3884
 20
51.363
 30
0.0
 10
22.9188
 20
51.363
 30
0.0
 10
23.4275
 20
51.5737
 30
0.0
 10
23.8026
 20
51.9488
 30
0.0
 10
23.8026
 20
51.9488
 30
0.0
 10
24.1777
 20
52.3239
 30
0.0
 10
24.3884
 20
52.8326
 30
0.0
 10
24.3884
 20
53.363
 30
0.0
  0
SPLINE
  5
155
330
1F
100
AcDbEntity
  8
layer 1
370
     9
100
AcDbSpline
210
0.0
220
0.0
230
1.0
 70
    11
 71
     3
 72
    20
 73
    16
 74
     0
 42
0.0000000001
 43
0.0000000001
 40
0.0
 40
0.0
 40
0.0
 40
0.0
 40
0.25
 40
0.25
 40
0.25
 40
0.25
 40
0.5
 40
0.5
 40
0.5
 40
0.5
 40
0.75
 40
0.75
 40
0.75
 40
0.75
 40
1.0
 40
1.0
 40
1.0
 40
1.0
 10
15.7834
 20
61.3128
 30
0.0
 10
15.7834
 20
62.1413
 30
0.0
 10
15.1118
 20
62.8128
 30
0.0
 10
14.2834
 20
62.8128
 30
0.0
 10
14.2834
 20
62.8128
 30
0.0
 10
13.4549
 20
62.8128
 30
0.0
 10
12.7834
 20
62.1413
 30
0.0
 10
12.7834
 20
61.3128
 30
0.0
 10
12.7834
 20
61.3128
 30
0.0
 10
12.7834
 20
60.4844
 30
0.0
 10
13.4549
 20
59.8128
 30
0.0
 10
14.2834
 20
59.8128
 30
0.0
 10
14.2834
 20
59.8128
 30
0.0
 10
15.1118
 20
59.8128
 30
0.0
 10
15.7834
 20
60.4844
 30
0.0
 10
15.7834
 20
61.3128
 30
0.0
  0
SPLINE
  5
156
330
1F
100
AcDbEntity
  8
layer 1
370
     9
100
AcDbSpline
210
0.0
220
0.0
230
1.0
 70
    11
 71
     3
 72
    20
 73
    16
 74
     0
 42
0.0000000001
 43
0.0000000001
 40
0.0
 40
0.0
 40
0.0
 40
0.0
 40
0.25
 40
0.25
 40
0.25
 40
0.25
 40
0.5
 40
0.5
 40
0.5
 40
0.5
 40
0.75
 40
0.75
 40
0.75
 40
0.75
 40
1.0
 40
1.0
 40
1.0
 40
1.0
 10
15.7834
 20
104.3128
 30
0.0
 10
15.7834
 20
105.1413
 30
0.0
 10
15.1118
 20
105.8128
 30
0.0
 10
14.2834
 20
105.8128
 30
0.0
 10
14.2834
 20
105.8128
 30
0.0
 10
13.4549
 20
105.8128
 30
0.0
 10
12.7834
 20
105.1413
 30
0.0
 10
12.7834
 20
104.3128
 30
0.0
 10
12.7834
 20
104.3128
 30
0.0
 10
12.7834
 20
103.4844
 30
0.0
 10
13.4549
 20
102.8128
 30
0.0
 10
14.2834
 20
102.8128
 30
0.0
 10
14.2834
 20
102.8128
 30
0.0
 10
15.1118
 20
102.8128
 30
0.0
 10
15.7834
 20
103.4844
 30
0.0
 10
15.7834
 20
104.3128
 30
0.0
  0
SPLINE
  5
157
330
1F
100
AcDbEntity
  8
layer 1
370
     9
100
AcDbSpline
210
0.0
220
0.0
230
1.0
 70
    27
 71
     3
 72
     8
 73
     4
 74
     0
 42
0.0000000001
 43
0.0000000001
 40
0.0
 40
0.0
 40
0.0
 40
0.0
 40
1.0
 40
1.0
 40
1.0
 40
1.0
 10
0.1752
 20
134.8622
 30
0.0
 10
0.1752
 20
134.8622
 30
0.0
 10
0.1752
 20
134.8622
 30
0.0
 10
0.1752
 20
134.8622
 30
0.0
  0
SPLINE
  5
158
330
1F
100
AcDbEntity
  8
layer 1
370
     9
100
AcDbSpline
210
0.0
220
0.0
230
1.0
 70
    24
 71
     3
 72
     8
 73
     4
 74
     0
 42
0.0000000001
 43
0.0000000001
 40
0.0
 40
0.0
 40
0.0
 40
0.0
 40
1.0
 40
1.0
 40
1.0
 40
1.0
 10
0.1752
 20
133.8327
 30
0.0
 10
0.1752
 20
133.8327
 30
0.0
 10
0.1752
 20
134.8622
 30
0.0
 10
0.1752
 20
134.8622
 30
0.0
  0
SPLINE
  5
159
330
1F
100
AcDbEntity
  8
layer 1
370
     9
100
AcDbSpline
210
0.0
220
0.0
230
1.0
 70
     8
 71
     3
 72
    12
 73
     8
 74
     0
 42
0.0000000001
 43
0.0000000001
 40
0.0
 40
0.0
 40
0.0
 40
0.0
 40
0.5
 40
0.5
 40
0.5
 40
0.5
 40
1.0
 40
1.0
 40
1.0
 40
1.0
 10
0.1752
 20
134.8622
 30
0.0
 10
0.1752
 20
135.3927
 30
0.0
 10
-0.0355
 20
135.9014
 30
0.0
 10
-0.4106
 20
136.2764
 30
0.0
 10
-0.4106
 20
136.2764
 30
0.0
 10
-0.7856
 20
136.6515
 30
0.0
 10
-1.2943
 20
136.8622
 30
0.0
 10
-1.8248
 20
136.8622
 30
0.0
  0
SPLINE
  5
15A
330
1F
100
AcDbEntity
  8
layer 1
370
     9
100
AcDbSpline
210
0.0
220
0.0
230
1.0
 70
    27
 71
     3
 72
     8
 73
     4
 74
     0
 42
0.0000000001
 43
0.0000000001
 40
0.0
 40
0.0
 40
0.0
 40
0.0
 40
1.0
 40
1.0
 40
1.0
 40
1.0
 10
-1.8248
 20
136.8622
 30
0.0
 10
-1.8248
 20
136.8622
 30
0.0
 10
-1.8248
 20
136.8622
 30
0.0
 10
-1.8248
 20
136.8622
 30
0.0
  0
SPLINE
  5
15B
330
1F
100
AcDbEntity
  8
layer 1
370
     9
100
AcDbSpline
210
0.0
220
0.0
230
1.0
 70
    24
 71
     3
 72
     8
 73
     4
 74
     0
 42
0.0000000001
 43
0.0000000001
 40
0.0
 40
0.0
 40
0.0
 40
0.0
 40
1.0
 40
1.0
 40
1.0
 40
1.0
 10
-1.8248
 20
136.8622
 30
0.0
 10
-1.8248
 20
136.8622
 30
0.0
 10
-93.9214
 20
136.8622
 30
0.0
 10
-93.9214
 20
136.8622
 30
0.0
  0
SPLINE
  5
15C
330
1F
100
AcDbEntity
  8
layer 1
370
     9
100
AcDbSpline
210
0.0
220
0.0
230
1.0
 70
     8
 71
     3
 72
    12
 73
     8
 74
     0
 42
0.0000000001
 43
0.0000000001
 40
0.0
 40
0.0
 40
0.0
 40
0.0
 40
0.5
 40
0.5
 40
0.5
 40
0.5
 40
1.0
 40
1.0
 40
1.0
 40
1.0
 10
-93.9214
 20
136.8622
 30
0.0
 10
-94.7171
 20
136.8622
 30
0.0
 10
-95.4802
 20
136.5462
 30
0.0
 10
-96.0428
 20
135.9836
 30
0.0
 10
-96.0428
 20
135.9836
 30
0.0
 10
-96.6054
 20
135.4209
 30
0.0
 10
-96.9214
 20
134.6579
 30
0.0
 10
-96.9214
 20
133.8622
 30
0.0
  0
SPLINE
  5
15D
330
1F
100
AcDbEntity
  8
layer 1
370
     9
100
AcDbSpline
210
0.0
220
0.0
230
1.0
 70
    24
 71
     3
 72
     8
 73
     4
 74
     0
 42
0.0000000001
 43
0.0000000001
 40
0.0
 40
0.0
 40
0.0
 40
0.0
 40
1.0
 40
1.0
 40
1.0
 40
1.0
 10
-96.9214
 20
133.8622
 30
0.0
 10
-96.9214
 20
133.8622
 30
0.0
 10
-96.9214
 20
114.6451
 30
0.0
 10
-96.9214
 20
114.6451
 30
0.0
  0
SPLINE
  5
15E
330
1F
100
AcDbEntity
  8
layer 1
370
     9
100
AcDbSpline
210
0.0
220
0.0
230
1.0
 70
     8
 71
     3
 72
    12
 73
     8
 74
     0
 42
0.0000000001
 43
0.0000000001
 40
0.0
 40
0.0
 40
0.0
 40
0.0
 40
0.5
 40
0.5
 40
0.5
 40
0.5
 40
1.0
 40
1.0
 40
1.0
 40
1.0
 10
-96.9214
 20
114.6451
 30
0.0
 10
-96.9214
 20
113.8494
 30
0.0
 10
-96.6054
 20
113.0864
 30
0.0
 10
-96.0428
 20
112.5238
 30
0.0
 10
-96.0428
 20
112.5238
 30
0.0
 10
-95.4802
 20
111.9612
 30
0.0
 10
-94.7171
 20
111.6451
 30
0.0
 10
-93.9214
 20
111.6451
 30
0.0
  0
SPLINE
  5
15F
330
1F
100
AcDbEntity
  8
layer 1
370
     9
100
AcDbSpline
210
0.0
220
0.0
230
1.0
 70
    24
 71
     3
 72
     8
 73
     4
 74
     0
 42
0.0000000001
 43
0.0000000001
 40
0.0
 40
0.0
 40
0.0
 40
0.0
 40
1.0
 40
1.0
 40
1.0
 40
1.0
 10
-93.9214
 20
111.6451
 30
0.0
 10
-93.9214
 20
111.6451
 30
0.0
 10
-1.8248
 20
111.6451
 30
0.0
 10
-1.8248
 20
111.6451
 30
0.0
  0
SPLINE
  5
160
330
1F
100
AcDbEntity
  8
layer 1
370
     9
100
AcDbSpline
210
0.0
220
0.0
230
1.0
 70
     8
 71
     3
 72
    12
 73
     8
 74
     0
 42
0.0000000001
 43
0.0000000001
 40
0.0
 40
0.0
 40
0.0
 40
0.0
 40
0.5
 40
0.5
 40
0.5
 40
0.5
 40
1.0
 40
1.0
 40
1.0
 40
1.0
 10
-1.8248
 20
111.6451
 30
0.0
 10
-1.2943
 20
111.6451
 30
0.0
 10
-0.7856
 20
111.8558
 30
0.0
 10
-0.4106
 20
112.2309
 30
0.0
 10
-0.4106
 20
112.2309
 30
0.0
 10
-0.0355
 20
112.606
 30
0.0
 10
0.1752
 20
113.1147
 30
0.0
 10
0.1752
 20
113.6451
 30
0.0
  0
SPLINE
  5
161
330
1F
100
AcDbEntity
  8
layer 1
370
     9
100
AcDbSpline
210
0.0
220
0.0
230
1.0
 70
    27
 71
     3
 72
     8
 73
     4
 74
     0
 42
0.0000000001
 43
0.0000000001
 40
0.0
 40
0.0
 40
0.0
 40
0.0
 40
1.0
 40
1.0
 40
1.0
 40
1.0
 10
0.1752
 20
133.8327
 30
0.0
 10
0.1752
 20
133.8327
 30
0.0
 10
0.1752
 20
133.8327
 30
0.0
 10
0.1752
 20
133.8327
 30
0.0
  0
SPLINE
  5
162
330
1F
100
AcDbEntity
  8
layer 1
370
     9
100
AcDbSpline
210
0.0
220
0.0
230
1.0
 70
    24
 71
     3
 72
     8
 73
     4
 74
     0
 42
0.0000000001
 43
0.0000000001
 40
0.0
 40
0.0
 40
0.0
 40
0.0
 40
1.0
 40
1.0
 40
1.0
 40
1.0
 10
0.1752
 20
113.6451
 30
0.0
 10
0.1752
 20
113.6451
 30
0.0
 10
0.1752
 20
133.8327
 30
0.0
 10
0.1752
 20
133.8327
 30
0.0
  0
SPLINE
  5
163
330
1F
100
AcDbEntity
  8
layer 1
370
     9
100
AcDbSpline
210
0.0
220
0.0
230
1.0
 70
    27
 71
     3
 72
     8
 73
     4
 74
     0
 42
0.0000000001
 43
0.0000000001
 40
0.0
 40
0.0
 40
0.0
 40
0.0
 40
1.0
 40
1.0
 40
1.0
 40
1.0
 10
-10.0218
 20
130.8829
 30
0.0
 10
-10.0218
 20
130.8829
 30
0.0
 10
-10.0218
 20
130.8829
 30
0.0
 10
-10.0218
 20
130.8829
 30
0.0
  0
SPLINE
  5
164
330
1F
100
AcDbEntity
  8
layer 1
370
     9
100
AcDbSpline
210
0.0
220
0.0
230
1.0
 70
    24
 71
     3
 72
     8
 73
     4
 74
     0
 42
0.0000000001
 43
0.0000000001
 40
0.0
 40
0.0
 40
0.0
 40
0.0
 40
1.0
 40
1.0
 40
1.0
 40
1.0
 10
-10.0218
 20
130.8829
 30
0.0
 10
-10.0218
 20
130.8829
 30
0.0
 10
-86.7244
 20
130.8829
 30
0.0
 10
-86.7244
 20
130.8829
 30
0.0
  0
SPLINE
  5
165
330
1F
100
AcDbEntity
  8
layer 1
370
     9
100
AcDbSpline
210
0.0
220
0.0
230
1.0
 70
    24
 71
     3
 72
     8
 73
     4
 74
     0
 42
0.0000000001
 43
0.0000000001
 40
0.0
 40
0.0
 40
0.0
 40
0.0
 40
1.0
 40
1.0
 40
1.0
 40
1.0
 10
-86.7244
 20
130.8829
 30
0.0
 10
-86.7244
 20
130.8829
 30
0.0
 10
-86.7244
 20
133.7825
 30
0.0
 10
-86.7244
 20
133.7825
 30
0.0
  0
SPLINE
  5
166
330
1F
100
AcDbEntity
  8
layer 1
370
     9
100
AcDbSpline
210
0.0
220
0.0
230
1.0
 70
    24
 71
     3
 72
     8
 73
     4
 74
     0
 42
0.0000000001
 43
0.0000000001
 40
0.0
 40
0.0
 40
0.0
 40
0.0
 40
1.0
 40
1.0
 40
1.0
 40
1.0
 10
-86.7244
 20
133.7825
 30
0.0
 10
-86.7244
 20
133.7825
 30
0.0
 10
-10.0218
 20
133.7825
 30
0.0
 10
-10.0218
 20
133.7825
 30
0.0
  0
SPLINE
  5
167
330
1F
100
AcDbEntity
  8
layer 1
370
     9
100
AcDbSpline
210
0.0
220
0.0
230
1.0
 70
    27
 71
     3
 72
     8
 73
     4
 74
     0
 42
0.0000000001
 43
0.0000000001
 40
0.0
 40
0.0
 40
0.0
 40
0.0
 40
1.0
 40
1.0
 40
1.0
 40
1.0
 10
-10.0218
 20
133.7825
 30
0.0
 10
-10.0218
 20
133.7825
 30
0.0
 10
-10.0218
 20
133.7825
 30
0.0
 10
-10.0218
 20
133.7825
 30
0.0
  0
SPLINE
  5
168
330
1F
100
AcDbEntity
  8
layer 1
370
     9
100
AcDbSpline
210
0.0
220
0.0
230
1.0
 70
    24
 71
     3
 72
     8
 73
     4
 74
     0
 42
0.0000000001
 43
0.0000000001
 40
0.0
 40
0.0
 40
0.0
 40
0.0
 40
1.0
 40
1.0
 40
1.0
 40
1.0
 10
-10.0218
 20
133.7825
 30
0.0
 10
-10.0218
 20
133.7825
 30
0.0
 10
-10.0218
 20
130.8829
 30
0.0
 10
-10.0218
 20
130.8829
 30
0.0
  0
SPLINE
  5
169
330
1F
100
AcDbEntity
  8
layer 1
370
     9
100
AcDbSpline
210
0.0
220
0.0
230
1.0
 70
    27
 71
     3
 72
     8
 73
     4
 74
     0
 42
0.0000000001
 43
0.0000000001
 40
0.0
 40
0.0
 40
0.0
 40
0.0
 40
1.0
 40
1.0
 40
1.0
 40
1.0
 10
-10.0218
 20
114.7229
 30
0.0
 10
-10.0218
 20
114.7229
 30
0.0
 10
-10.0218
 20
114.7229
 30
0.0
 10
-10.0218
 20
114.7229
 30
0.0
  0
SPLINE
  5
16A
330
1F
100
AcDbEntity
  8
layer 1
370
     9
100
AcDbSpline
210
0.0
220
0.0
230
1.0
 70
    24
 71
     3
 72
     8
 73
     4
 74
     0
 42
0.0000000001
 43
0.0000000001
 40
0.0
 40
0.0
 40
0.0
 40
0.0
 40
1.0
 40
1.0
 40
1.0
 40
1.0
 10
-10.0218
 20
114.7229
 30
0.0
 10
-10.0218
 20
114.7229
 30
0.0
 10
-86.7244
 20
114.7229
 30
0.0
 10
-86.7244
 20
114.7229
 30
0.0
  0
SPLINE
  5
16B
330
1F
100
AcDbEntity
  8
layer 1
370
     9
100
AcDbSpline
210
0.0
220
0.0
230
1.0
 70
    24
 71
     3
 72
     8
 73
     4
 74
     0
 42
0.0000000001
 43
0.0000000001
 40
0.0
 40
0.0
 40
0.0
 40
0.0
 40
1.0
 40
1.0
 40
1.0
 40
1.0
 10
-86.7244
 20
114.7229
 30
0.0
 10
-86.7244
 20
114.7229
 30
0.0
 10
-86.7244
 20
117.5225
 30
0.0
 10
-86.7244
 20
117.5225
 30
0.0
  0
SPLINE
  5
16C
330
1F
100
AcDbEntity
  8
layer 1
370
     9
100
AcDbSpline
210
0.0
220
0.0
230
1.0
 70
    24
 71
     3
 72
     8
 73
     4
 74
     0
 42
0.0000000001
 43
0.0000000001
 40
0.0
 40
0.0
 40
0.0
 40
0.0
 40
1.0
 40
1.0
 40
1.0
 40
1.0
 10
-86.7244
 20
117.5225
 30
0.0
 10
-86.7244
 20
117.5225
 30
0.0
 10
-10.0218
 20
117.5225
 30
0.0
 10
-10.0218
 20
117.5225
 30
0.0
  0
SPLINE
  5
16D
330
1F
100
AcDbEntity
  8
layer 1
370
     9
100
AcDbSpline
210
0.0
220
0.0
230
1.0
 70
    27
 71
     3
 72
     8
 73
     4
 74
     0
 42
0.0000000001
 43
0.0000000001
 40
0.0
 40
0.0
 40
0.0
 40
0.0
 40
1.0
 40
1.0
 40
1.0
 40
1.0
 10
-10.0218
 20
117.5225
 30
0.0
 10
-10.0218
 20
117.5225
 30
0.0
 10
-10.0218
 20
117.5225
 30
0.0
 10
-10.0218
 20
117.5225
 30
0.0
  0
SPLINE
  5
16E
330
1F
100
AcDbEntity
  8
layer 1
370
     9
100
AcDbSpline
210
0.0
220
0.0
230
1.0
 70
    24
 71
     3
 72
     8
 73
     4
 74
     0
 42
0.0000000001
 43
0.0000000001
 40
0.0
 40
0.0
 40
0.0
 40
0.0
 40
1.0
 40
1.0
 40
1.0
 40
1.0
 10
-10.0218
 20
117.5225
 30
0.0
 10
-10.0218
 20
117.5225
 30
0.0
 10
-10.0218
 20
114.7229
 30
0.0
 10
-10.0218
 20
114.7229
 30
0.0
  0
SPLINE
  5
16F
330
1F
100
AcDbEntity
  8
layer 1
370
     9
100
AcDbSpline
210
0.0
220
0.0
230
1.0
 70
    11
 71
     3
 72
    20
 73
    16
 74
     0
 42
0.0000000001
 43
0.0000000001
 40
0.0
 40
0.0
 40
0.0
 40
0.0
 40
0.25
 40
0.25
 40
0.25
 40
0.25
 40
0.5
 40
0.5
 40
0.5
 40
0.5
 40
0.75
 40
0.75
 40
0.75
 40
0.75
 40
1.0
 40
1.0
 40
1.0
 40
1.0
 10
-14.2746
 20
120.7277
 30
0.0
 10
-14.2746
 20
121.5562
 30
0.0
 10
-14.9462
 20
122.2277
 30
0.0
 10
-15.7746
 20
122.2277
 30
0.0
 10
-15.7746
 20
122.2277
 30
0.0
 10
-16.6031
 20
122.2277
 30
0.0
 10
-17.2746
 20
121.5562
 30
0.0
 10
-17.2746
 20
120.7277
 30
0.0
 10
-17.2746
 20
120.7277
 30
0.0
 10
-17.2746
 20
119.8993
 30
0.0
 10
-16.6031
 20
119.2277
 30
0.0
 10
-15.7746
 20
119.2277
 30
0.0
 10
-15.7746
 20
119.2277
 30
0.0
 10
-14.9462
 20
119.2277
 30
0.0
 10
-14.2746
 20
119.8993
 30
0.0
 10
-14.2746
 20
120.7277
 30
0.0
  0
SPLINE
  5
170
330
1F
100
AcDbEntity
  8
layer 1
370
     9
100
AcDbSpline
210
0.0
220
0.0
230
1.0
 70
    11
 71
     3
 72
    20
 73
    16
 74
     0
 42
0.0000000001
 43
0.0000000001
 40
0.0
 40
0.0
 40
0.0
 40
0.0
 40
0.25
 40
0.25
 40
0.25
 40
0.25
 40
0.5
 40
0.5
 40
0.5
 40
0.5
 40
0.75
 40
0.75
 40
0.75
 40
0.75
 40
1.0
 40
1.0
 40
1.0
 40
1.0
 10
-57.2745
 20
120.7277
 30
0.0
 10
-57.2745
 20
121.5562
 30
0.0
 10
-57.9461
 20
122.2277
 30
0.0
 10
-58.7745
 20
122.2277
 30
0.0
 10
-58.7745
 20
122.2277
 30
0.0
 10
-59.603
 20
122.2277
 30
0.0
 10
-60.2745
 20
121.5562
 30
0.0
 10
-60.2745
 20
120.7277
 30
0.0
 10
-60.2745
 20
120.7277
 30
0.0
 10
-60.2745
 20
119.8993
 30
0.0
 10
-59.603
 20
119.2277
 30
0.0
 10
-58.7745
 20
119.2277
 30
0.0
 10
-58.7745
 20
119.2277
 30
0.0
 10
-57.9461
 20
119.2277
 30
0.0
 10
-57.2745
 20
119.8993
 30
0.0
 10
-57.2745
 20
120.7277
 30
0.0
  0
SPLINE
  5
171
330
1F
100
AcDbEntity
  8
layer 1
370
     9
100
AcDbSpline
210
0.0
220
0.0
230
1.0
 70
    27
 71
     3
 72
     8
 73
     4
 74
     0
 42
0.0000000001
 43
0.0000000001
 40
0.0
 40
0.0
 40
0.0
 40
0.0
 40
1.0
 40
1.0
 40
1.0
 40
1.0
 10
0.1752
 20
103.3806
 30
0.0
 10
0.1752
 20
103.3806
 30
0.0
 10
0.1752
 20
103.3806
 30
0.0
 10
0.1752
 20
103.3806
 30
0.0
  0
SPLINE
  5
172
330
1F
100
AcDbEntity
  8
layer 1
370
     9
100
AcDbSpline
210
0.0
220
0.0
230
1.0
 70
    24
 71
     3
 72
     8
 73
     4
 74
     0
 42
0.0000000001
 43
0.0000000001
 40
0.0
 40
0.0
 40
0.0
 40
0.0
 40
1.0
 40
1.0
 40
1.0
 40
1.0
 10
0.1752
 20
103.3806
 30
0.0
 10
0.1752
 20
103.3806
 30
0.0
 10
0.1752
 20
83.193
 30
0.0
 10
0.1752
 20
83.193
 30
0.0
  0
SPLINE
  5
173
330
1F
100
AcDbEntity
  8
layer 1
370
     9
100
AcDbSpline
210
0.0
220
0.0
230
1.0
 70
     8
 71
     3
 72
    12
 73
     8
 74
     0
 42
0.0000000001
 43
0.0000000001
 40
0.0
 40
0.0
 40
0.0
 40
0.0
 40
0.5
 40
0.5
 40
0.5
 40
0.5
 40
1.0
 40
1.0
 40
1.0
 40
1.0
 10
-1.8248
 20
81.193
 30
0.0
 10
-1.2943
 20
81.193
 30
0.0
 10
-0.7856
 20
81.4037
 30
0.0
 10
-0.4106
 20
81.7787
 30
0.0
 10
-0.4106
 20
81.7787
 30
0.0
 10
-0.0355
 20
82.1538
 30
0.0
 10
0.1752
 20
82.6625
 30
0.0
 10
0.1752
 20
83.193
 30
0.0
  0
SPLINE
  5
174
330
1F
100
AcDbEntity
  8
layer 1
370
     9
100
AcDbSpline
210
0.0
220
0.0
230
1.0
 70
    27
 71
     3
 72
     8
 73
     4
 74
     0
 42
0.0000000001
 43
0.0000000001
 40
0.0
 40
0.0
 40
0.0
 40
0.0
 40
1.0
 40
1.0
 40
1.0
 40
1.0
 10
-1.8248
 20
81.193
 30
0.0
 10
-1.8248
 20
81.193
 30
0.0
 10
-1.8248
 20
81.193
 30
0.0
 10
-1.8248
 20
81.193
 30
0.0
  0
SPLINE
  5
175
330
1F
100
AcDbEntity
  8
layer 1
370
     9
100
AcDbSpline
210
0.0
220
0.0
230
1.0
 70
    24
 71
     3
 72
     8
 73
     4
 74
     0
 42
0.0000000001
 43
0.0000000001
 40
0.0
 40
0.0
 40
0.0
 40
0.0
 40
1.0
 40
1.0
 40
1.0
 40
1.0
 10
-1.8248
 20
81.193
 30
0.0
 10
-1.8248
 20
81.193
 30
0.0
 10
-93.9214
 20
81.193
 30
0.0
 10
-93.9214
 20
81.193
 30
0.0
  0
SPLINE
  5
176
330
1F
100
AcDbEntity
  8
layer 1
370
     9
100
AcDbSpline
210
0.0
220
0.0
230
1.0
 70
     8
 71
     3
 72
    12
 73
     8
 74
     0
 42
0.0000000001
 43
0.0000000001
 40
0.0
 40
0.0
 40
0.0
 40
0.0
 40
0.5
 40
0.5
 40
0.5
 40
0.5
 40
1.0
 40
1.0
 40
1.0
 40
1.0
 10
-96.9214
 20
84.193
 30
0.0
 10
-96.9214
 20
83.3973
 30
0.0
 10
-96.6054
 20
82.6343
 30
0.0
 10
-96.0428
 20
82.0716
 30
0.0
 10
-96.0428
 20
82.0716
 30
0.0
 10
-95.4801
 20
81.509
 30
0.0
 10
-94.7171
 20
81.193
 30
0.0
 10
-93.9214
 20
81.193
 30
0.0
  0
SPLINE
  5
177
330
1F
100
AcDbEntity
  8
layer 1
370
     9
100
AcDbSpline
210
0.0
220
0.0
230
1.0
 70
    24
 71
     3
 72
     8
 73
     4
 74
     0
 42
0.0000000001
 43
0.0000000001
 40
0.0
 40
0.0
 40
0.0
 40
0.0
 40
1.0
 40
1.0
 40
1.0
 40
1.0
 10
-96.9214
 20
84.193
 30
0.0
 10
-96.9214
 20
84.193
 30
0.0
 10
-96.9214
 20
103.4101
 30
0.0
 10
-96.9214
 20
103.4101
 30
0.0
  0
SPLINE
  5
178
330
1F
100
AcDbEntity
  8
layer 1
370
     9
100
AcDbSpline
210
0.0
220
0.0
230
1.0
 70
     8
 71
     3
 72
    12
 73
     8
 74
     0
 42
0.0000000001
 43
0.0000000001
 40
0.0
 40
0.0
 40
0.0
 40
0.0
 40
0.5
 40
0.5
 40
0.5
 40
0.5
 40
1.0
 40
1.0
 40
1.0
 40
1.0
 10
-93.9214
 20
106.4101
 30
0.0
 10
-94.7171
 20
106.4101
 30
0.0
 10
-95.4801
 20
106.094
 30
0.0
 10
-96.0428
 20
105.5314
 30
0.0
 10
-96.0428
 20
105.5314
 30
0.0
 10
-96.6054
 20
104.9688
 30
0.0
 10
-96.9214
 20
104.2058
 30
0.0
 10
-96.9214
 20
103.4101
 30
0.0
  0
SPLINE
  5
179
330
1F
100
AcDbEntity
  8
layer 1
370
     9
100
AcDbSpline
210
0.0
220
0.0
230
1.0
 70
    24
 71
     3
 72
     8
 73
     4
 74
     0
 42
0.0000000001
 43
0.0000000001
 40
0.0
 40
0.0
 40
0.0
 40
0.0
 40
1.0
 40
1.0
 40
1.0
 40
1.0
 10
-93.9214
 20
106.4101
 30
0.0
 10
-93.9214
 20
106.4101
 30
0.0
 10
-1.8248
 20
106.4101
 30
0.0
 10
-1.8248
 20
106.4101
 30
0.0
  0
SPLINE
  5
17A
330
1F
100
AcDbEntity
  8
layer 1
370
     9
100
AcDbSpline
210
0.0
220
0.0
230
1.0
 70
     8
 71
     3
 72
    12
 73
     8
 74
     0
 42
0.0000000001
 43
0.0000000001
 40
0.0
 40
0.0
 40
0.0
 40
0.0
 40
0.5
 40
0.5
 40
0.5
 40
0.5
 40
1.0
 40
1.0
 40
1.0
 40
1.0
 10
0.1752
 20
104.4101
 30
0.0
 10
0.1752
 20
104.9405
 30
0.0
 10
-0.0355
 20
105.4492
 30
0.0
 10
-0.4106
 20
105.8243
 30
0.0
 10
-0.4106
 20
105.8243
 30
0.0
 10
-0.7856
 20
106.1994
 30
0.0
 10
-1.2943
 20
106.4101
 30
0.0
 10
-1.8248
 20
106.4101
 30
0.0
  0
SPLINE
  5
17B
330
1F
100
AcDbEntity
  8
layer 1
370
     9
100
AcDbSpline
210
0.0
220
0.0
230
1.0
 70
    27
 71
     3
 72
     8
 73
     4
 74
     0
 42
0.0000000001
 43
0.0000000001
 40
0.0
 40
0.0
 40
0.0
 40
0.0
 40
1.0
 40
1.0
 40
1.0
 40
1.0
 10
0.1752
 20
104.4101
 30
0.0
 10
0.1752
 20
104.4101
 30
0.0
 10
0.1752
 20
104.4101
 30
0.0
 10
0.1752
 20
104.4101
 30
0.0
  0
SPLINE
  5
17C
330
1F
100
AcDbEntity
  8
layer 1
370
     9
100
AcDbSpline
210
0.0
220
0.0
230
1.0
 70
    24
 71
     3
 72
     8
 73
     4
 74
     0
 42
0.0000000001
 43
0.0000000001
 40
0.0
 40
0.0
 40
0.0
 40
0.0
 40
1.0
 40
1.0
 40
1.0
 40
1.0
 10
0.1752
 20
104.4101
 30
0.0
 10
0.1752
 20
104.4101
 30
0.0
 10
0.1752
 20
103.3806
 30
0.0
 10
0.1752
 20
103.3806
 30
0.0
  0
SPLINE
  5
17D
330
1F
100
AcDbEntity
  8
layer 1
370
     9
100
AcDbSpline
210
0.0
220
0.0
230
1.0
 70
    27
 71
     3
 72
     8
 73
     4
 74
     0
 42
0.0000000001
 43
0.0000000001
 40
0.0
 40
0.0
 40
0.0
 40
0.0
 40
1.0
 40
1.0
 40
1.0
 40
1.0
 10
-10.0218
 20
103.2804
 30
0.0
 10
-10.0218
 20
103.2804
 30
0.0
 10
-10.0218
 20
103.2804
 30
0.0
 10
-10.0218
 20
103.2804
 30
0.0
  0
SPLINE
  5
17E
330
1F
100
AcDbEntity
  8
layer 1
370
     9
100
AcDbSpline
210
0.0
220
0.0
230
1.0
 70
    24
 71
     3
 72
     8
 73
     4
 74
     0
 42
0.0000000001
 43
0.0000000001
 40
0.0
 40
0.0
 40
0.0
 40
0.0
 40
1.0
 40
1.0
 40
1.0
 40
1.0
 10
-10.0218
 20
100.4808
 30
0.0
 10
-10.0218
 20
100.4808
 30
0.0
 10
-10.0218
 20
103.2804
 30
0.0
 10
-10.0218
 20
103.2804
 30
0.0
  0
SPLINE
  5
17F
330
1F
100
AcDbEntity
  8
layer 1
370
     9
100
AcDbSpline
210
0.0
220
0.0
230
1.0
 70
    27
 71
     3
 72
     8
 73
     4
 74
     0
 42
0.0000000001
 43
0.0000000001
 40
0.0
 40
0.0
 40
0.0
 40
0.0
 40
1.0
 40
1.0
 40
1.0
 40
1.0
 10
-10.0218
 20
103.2804
 30
0.0
 10
-10.0218
 20
103.2804
 30
0.0
 10
-10.0218
 20
103.2804
 30
0.0
 10
-10.0218
 20
103.2804
 30
0.0
  0
SPLINE
  5
180
330
1F
100
AcDbEntity
  8
layer 1
370
     9
100
AcDbSpline
210
0.0
220
0.0
230
1.0
 70
    24
 71
     3
 72
     8
 73
     4
 74
     0
 42
0.0000000001
 43
0.0000000001
 40
0.0
 40
0.0
 40
0.0
 40
0.0
 40
1.0
 40
1.0
 40
1.0
 40
1.0
 10
-10.0218
 20
103.2804
 30
0.0
 10
-10.0218
 20
103.2804
 30
0.0
 10
-86.7244
 20
103.2804
 30
0.0
 10
-86.7244
 20
103.2804
 30
0.0
  0
SPLINE
  5
181
330
1F
100
AcDbEntity
  8
layer 1
370
     9
100
AcDbSpline
210
0.0
220
0.0
230
1.0
 70
    24
 71
     3
 72
     8
 73
     4
 74
     0
 42
0.0000000001
 43
0.0000000001
 40
0.0
 40
0.0
 40
0.0
 40
0.0
 40
1.0
 40
1.0
 40
1.0
 40
1.0
 10
-86.7244
 20
103.2804
 30
0.0
 10
-86.7244
 20
103.2804
 30
0.0
 10
-86.7244
 20
100.4808
 30
0.0
 10
-86.7244
 20
100.4808
 30
0.0
  0
SPLINE
  5
182
330
1F
100
AcDbEntity
  8
layer 1
370
     9
100
AcDbSpline
210
0.0
220
0.0
230
1.0
 70
    24
 71
     3
 72
     8
 73
     4
 74
     0
 42
0.0000000001
 43
0.0000000001
 40
0.0
 40
0.0
 40
0.0
 40
0.0
 40
1.0
 40
1.0
 40
1.0
 40
1.0
 10
-86.7244
 20
100.4808
 30
0.0
 10
-86.7244
 20
100.4808
 30
0.0
 10
-10.0218
 20
100.4808
 30
0.0
 10
-10.0218
 20
100.4808
 30
0.0
  0
SPLINE
  5
183
330
1F
100
AcDbEntity
  8
layer 1
370
     9
100
AcDbSpline
210
0.0
220
0.0
230
1.0
 70
    27
 71
     3
 72
     8
 73
     4
 74
     0
 42
0.0000000001
 43
0.0000000001
 40
0.0
 40
0.0
 40
0.0
 40
0.0
 40
1.0
 40
1.0
 40
1.0
 40
1.0
 10
-10.0218
 20
87.1204
 30
0.0
 10
-10.0218
 20
87.1204
 30
0.0
 10
-10.0218
 20
87.1204
 30
0.0
 10
-10.0218
 20
87.1204
 30
0.0
  0
SPLINE
  5
184
330
1F
100
AcDbEntity
  8
layer 1
370
     9
100
AcDbSpline
210
0.0
220
0.0
230
1.0
 70
    24
 71
     3
 72
     8
 73
     4
 74
     0
 42
0.0000000001
 43
0.0000000001
 40
0.0
 40
0.0
 40
0.0
 40
0.0
 40
1.0
 40
1.0
 40
1.0
 40
1.0
 10
-10.0218
 20
84.2208
 30
0.0
 10
-10.0218
 20
84.2208
 30
0.0
 10
-10.0218
 20
87.1204
 30
0.0
 10
-10.0218
 20
87.1204
 30
0.0
  0
SPLINE
  5
185
330
1F
100
AcDbEntity
  8
layer 1
370
     9
100
AcDbSpline
210
0.0
220
0.0
230
1.0
 70
    27
 71
     3
 72
     8
 73
     4
 74
     0
 42
0.0000000001
 43
0.0000000001
 40
0.0
 40
0.0
 40
0.0
 40
0.0
 40
1.0
 40
1.0
 40
1.0
 40
1.0
 10
-10.0218
 20
87.1204
 30
0.0
 10
-10.0218
 20
87.1204
 30
0.0
 10
-10.0218
 20
87.1204
 30
0.0
 10
-10.0218
 20
87.1204
 30
0.0
  0
SPLINE
  5
186
330
1F
100
AcDbEntity
  8
layer 1
370
     9
100
AcDbSpline
210
0.0
220
0.0
230
1.0
 70
    24
 71
     3
 72
     8
 73
     4
 74
     0
 42
0.0000000001
 43
0.0000000001
 40
0.0
 40
0.0
 40
0.0
 40
0.0
 40
1.0
 40
1.0
 40
1.0
 40
1.0
 10
-10.0218
 20
87.1204
 30
0.0
 10
-10.0218
 20
87.1204
 30
0.0
 10
-86.7244
 20
87.1204
 30
0.0
 10
-86.7244
 20
87.1204
 30
0.0
  0
SPLINE
  5
187
330
1F
100
AcDbEntity
  8
layer 1
370
     9
100
AcDbSpline
210
0.0
220
0.0
230
1.0
 70
    24
 71
     3
 72
     8
 73
     4
 74
     0
 42
0.0000000001
 43
0.0000000001
 40
0.0
 40
0.0
 40
0.0
 40
0.0
 40
1.0
 40
1.0
 40
1.0
 40
1.0
 10
-86.7244
 20
87.1204
 30
0.0
 10
-86.7244
 20
87.1204
 30
0.0
 10
-86.7244
 20
84.2208
 30
0.0
 10
-86.7244
 20
84.2208
 30
0.0
  0
SPLINE
  5
188
330
1F
100
AcDbEntity
  8
layer 1
370
     9
100
AcDbSpline
210
0.0
220
0.0
230
1.0
 70
    24
 71
     3
 72
     8
 73
     4
 74
     0
 42
0.0000000001
 43
0.0000000001
 40
0.0
 40
0.0
 40
0.0
 40
0.0
 40
1.0
 40
1.0
 40
1.0
 40
1.0
 10
-86.7244
 20
84.2208
 30
0.0
 10
-86.7244
 20
84.2208
 30
0.0
 10
-10.0218
 20
84.2208
 30
0.0
 10
-10.0218
 20
84.2208
 30
0.0
  0
SPLINE
  5
189
330
1F
100
AcDbEntity
  8
layer 1
370
     9
100
AcDbSpline
210
0.0
220
0.0
230
1.0
 70
    24
 71
     3
 72
     8
 73
     4
 74
     0
 42
0.0000000001
 43
0.0000000001
 40
0.0
 40
0.0
 40
0.0
 40
0.0
 40
1.0
 40
1.0
 40
1.0
 40
1.0
 10
-76.4144
 20
94.5772
 30
0.0
 10
-76.4144
 20
94.5772
 30
0.0
 10
-65.6296
 20
94.5772
 30
0.0
 10
-65.6296
 20
94.5772
 30
0.0
  0
SPLINE
  5
18A
330
1F
100
AcDbEntity
  8
layer 1
370
     9
100
AcDbSpline
210
0.0
220
0.0
230
1.0
 70
    24
 71
     3
 72
     8
 73
     4
 74
     0
 42
0.0000000001
 43
0.0000000001
 40
0.0
 40
0.0
 40
0.0
 40
0.0
 40
1.0
 40
1.0
 40
1.0
 40
1.0
 10
-65.6296
 20
94.5772
 30
0.0
 10
-65.6296
 20
94.5772
 30
0.0
 10
-65.6296
 20
97.5772
 30
0.0
 10
-65.6296
 20
97.5772
 30
0.0
  0
SPLINE
  5
18B
330
1F
100
AcDbEntity
  8
layer 1
370
     9
100
AcDbSpline
210
0.0
220
0.0
230
1.0
 70
    24
 71
     3
 72
     8
 73
     4
 74
     0
 42
0.0000000001
 43
0.0000000001
 40
0.0
 40
0.0
 40
0.0
 40
0.0
 40
1.0
 40
1.0
 40
1.0
 40
1.0
 10
-65.6296
 20
97.5772
 30
0.0
 10
-65.6296
 20
97.5772
 30
0.0
 10
-76.4144
 20
97.5772
 30
0.0
 10
-76.4144
 20
97.5772
 30
0.0
  0
SPLINE
  5
18C
330
1F
100
AcDbEntity
  8
layer 1
370
     9
100
AcDbSpline
210
0.0
220
0.0
230
1.0
 70
    24
 71
     3
 72
     8
 73
     4
 74
     0
 42
0.0000000001
 43
0.0000000001
 40
0.0
 40
0.0
 40
0.0
 40
0.0
 40
1.0
 40
1.0
 40
1.0
 40
1.0
 10
-76.4144
 20
97.5772
 30
0.0
 10
-76.4144
 20
97.5772
 30
0.0
 10
-76.4144
 20
94.5772
 30
0.0
 10
-76.4144
 20
94.5772
 30
0.0
  0
SPLINE
  5
18D
330
1F
100
AcDbEntity
  8
layer 1
370
     9
100
AcDbSpline
210
0.0
220
0.0
230
1.0
 70
    11
 71
     3
 72
    20
 73
    16
 74
     0
 42
0.0000000001
 43
0.0000000001
 40
0.0
 40
0.0
 40
0.0
 40
0.0
 40
0.25
 40
0.25
 40
0.25
 40
0.25
 40
0.5
 40
0.5
 40
0.5
 40
0.5
 40
0.75
 40
0.75
 40
0.75
 40
0.75
 40
1.0
 40
1.0
 40
1.0
 40
1.0
 10
-14.2746
 20
90.2756
 30
0.0
 10
-14.2746
 20
91.104
 30
0.0
 10
-14.9462
 20
91.7756
 30
0.0
 10
-15.7746
 20
91.7756
 30
0.0
 10
-15.7746
 20
91.7756
 30
0.0
 10
-16.603
 20
91.7756
 30
0.0
 10
-17.2746
 20
91.104
 30
0.0
 10
-17.2746
 20
90.2756
 30
0.0
 10
-17.2746
 20
90.2756
 30
0.0
 10
-17.2746
 20
89.4472
 30
0.0
 10
-16.6031
 20
88.7756
 30
0.0
 10
-15.7746
 20
88.7756
 30
0.0
 10
-15.7746
 20
88.7756
 30
0.0
 10
-14.9462
 20
88.7756
 30
0.0
 10
-14.2746
 20
89.4472
 30
0.0
 10
-14.2746
 20
90.2756
 30
0.0
  0
SPLINE
  5
18E
330
1F
100
AcDbEntity
  8
layer 1
370
     9
100
AcDbSpline
210
0.0
220
0.0
230
1.0
 70
    11
 71
     3
 72
    20
 73
    16
 74
     0
 42
0.0000000001
 43
0.0000000001
 40
0.0
 40
0.0
 40
0.0
 40
0.0
 40
0.25
 40
0.25
 40
0.25
 40
0.25
 40
0.5
 40
0.5
 40
0.5
 40
0.5
 40
0.75
 40
0.75
 40
0.75
 40
0.75
 40
1.0
 40
1.0
 40
1.0
 40
1.0
 10
-57.2745
 20
90.2756
 30
0.0
 10
-57.2745
 20
91.104
 30
0.0
 10
-57.9461
 20
91.7756
 30
0.0
 10
-58.7745
 20
91.7756
 30
0.0
 10
-58.7745
 20
91.7756
 30
0.0
 10
-59.6029
 20
91.7756
 30
0.0
 10
-60.2745
 20
91.104
 30
0.0
 10
-60.2745
 20
90.2756
 30
0.0
 10
-60.2745
 20
90.2756
 30
0.0
 10
-60.2745
 20
89.4472
 30
0.0
 10
-59.603
 20
88.7756
 30
0.0
 10
-58.7745
 20
88.7756
 30
0.0
 10
-58.7745
 20
88.7756
 30
0.0
 10
-57.9461
 20
88.7756
 30
0.0
 10
-57.2745
 20
89.4472
 30
0.0
 10
-57.2745
 20
90.2756
 30
0.0
  0
SPLINE
  5
18F
330
1F
100
AcDbEntity
  8
layer 1
370
     9
100
AcDbSpline
210
0.0
220
0.0
230
1.0
 70
    27
 71
     3
 72
     8
 73
     4
 74
     0
 42
0.0000000001
 43
0.0000000001
 40
0.0
 40
0.0
 40
0.0
 40
0.0
 40
1.0
 40
1.0
 40
1.0
 40
1.0
 10
-86.2117
 20
-13.7171
 30
0.0
 10
-86.2117
 20
-13.7171
 30
0.0
 10
-86.2117
 20
-13.7171
 30
0.0
 10
-86.2117
 20
-13.7171
 30
0.0
  0
SPLINE
  5
190
330
1F
100
AcDbEntity
  8
layer 1
370
     9
100
AcDbSpline
210
0.0
220
0.0
230
1.0
 70
    24
 71
     3
 72
     8
 73
     4
 74
     0
 42
0.0000000001
 43
0.0000000001
 40
0.0
 40
0.0
 40
0.0
 40
0.0
 40
1.0
 40
1.0
 40
1.0
 40
1.0
 10
-86.2117
 20
-25.1639
 30
0.0
 10
-86.2117
 20
-25.1639
 30
0.0
 10
-86.2117
 20
-13.7171
 30
0.0
 10
-86.2117
 20
-13.7171
 30
0.0
  0
SPLINE
  5
191
330
1F
100
AcDbEntity
  8
layer 1
370
     9
100
AcDbSpline
210
0.0
220
0.0
230
1.0
 70
    27
 71
     3
 72
     8
 73
     4
 74
     0
 42
0.0000000001
 43
0.0000000001
 40
0.0
 40
0.0
 40
0.0
 40
0.0
 40
1.0
 40
1.0
 40
1.0
 40
1.0
 10
-86.2117
 20
-13.7171
 30
0.0
 10
-86.2117
 20
-13.7171
 30
0.0
 10
-86.2117
 20
-13.7171
 30
0.0
 10
-86.2117
 20
-13.7171
 30
0.0
  0
SPLINE
  5
192
330
1F
100
AcDbEntity
  8
layer 1
370
     9
100
AcDbSpline
210
0.0
220
0.0
230
1.0
 70
    24
 71
     3
 72
     8
 73
     4
 74
     0
 42
0.0000000001
 43
0.0000000001
 40
0.0
 40
0.0
 40
0.0
 40
0.0
 40
1.0
 40
1.0
 40
1.0
 40
1.0
 10
-86.2117
 20
-13.7171
 30
0.0
 10
-86.2117
 20
-13.7171
 30
0.0
 10
-96.9965
 20
-13.7171
 30
0.0
 10
-96.9965
 20
-13.7171
 30
0.0
  0
SPLINE
  5
193
330
1F
100
AcDbEntity
  8
layer 1
370
     9
100
AcDbSpline
210
0.0
220
0.0
230
1.0
 70
    27
 71
     3
 72
     8
 73
     4
 74
     0
 42
0.0000000001
 43
0.0000000001
 40
0.0
 40
0.0
 40
0.0
 40
0.0
 40
1.0
 40
1.0
 40
1.0
 40
1.0
 10
-96.9965
 20
-13.7171
 30
0.0
 10
-96.9965
 20
-13.7171
 30
0.0
 10
-96.9965
 20
-13.7171
 30
0.0
 10
-96.9965
 20
-13.7171
 30
0.0
  0
SPLINE
  5
194
330
1F
100
AcDbEntity
  8
layer 1
370
     9
100
AcDbSpline
210
0.0
220
0.0
230
1.0
 70
    24
 71
     3
 72
     8
 73
     4
 74
     0
 42
0.0000000001
 43
0.0000000001
 40
0.0
 40
0.0
 40
0.0
 40
0.0
 40
1.0
 40
1.0
 40
1.0
 40
1.0
 10
-96.9965
 20
-13.7171
 30
0.0
 10
-96.9965
 20
-13.7171
 30
0.0
 10
-96.9965
 20
-25.1639
 30
0.0
 10
-96.9965
 20
-25.1639
 30
0.0
  0
SPLINE
  5
195
330
1F
100
AcDbEntity
  8
layer 1
370
     9
100
AcDbSpline
210
0.0
220
0.0
230
1.0
 70
    27
 71
     3
 72
     8
 73
     4
 74
     0
 42
0.0000000001
 43
0.0000000001
 40
0.0
 40
0.0
 40
0.0
 40
0.0
 40
1.0
 40
1.0
 40
1.0
 40
1.0
 10
-95.354
 20
-15.0157
 30
0.0
 10
-95.354
 20
-15.0157
 30
0.0
 10
-95.354
 20
-15.0157
 30
0.0
 10
-95.354
 20
-15.0157
 30
0.0
  0
SPLINE
  5
196
330
1F
100
AcDbEntity
  8
layer 1
370
     9
100
AcDbSpline
210
0.0
220
0.0
230
1.0
 70
    24
 71
     3
 72
     8
 73
     4
 74
     0
 42
0.0000000001
 43
0.0000000001
 40
0.0
 40
0.0
 40
0.0
 40
0.0
 40
1.0
 40
1.0
 40
1.0
 40
1.0
 10
-95.354
 20
-18.854
 30
0.0
 10
-95.354
 20
-18.854
 30
0.0
 10
-95.354
 20
-15.0157
 30
0.0
 10
-95.354
 20
-15.0157
 30
0.0
  0
SPLINE
  5
197
330
1F
100
AcDbEntity
  8
layer 1
370
     9
100
AcDbSpline
210
0.0
220
0.0
230
1.0
 70
    27
 71
     3
 72
     8
 73
     4
 74
     0
 42
0.0000000001
 43
0.0000000001
 40
0.0
 40
0.0
 40
0.0
 40
0.0
 40
1.0
 40
1.0
 40
1.0
 40
1.0
 10
-88.1412
 20
-15.0157
 30
0.0
 10
-88.1412
 20
-15.0157
 30
0.0
 10
-88.1412
 20
-15.0157
 30
0.0
 10
-88.1412
 20
-15.0157
 30
0.0
  0
SPLINE
  5
198
330
1F
100
AcDbEntity
  8
layer 1
370
     9
100
AcDbSpline
210
0.0
220
0.0
230
1.0
 70
    24
 71
     3
 72
     8
 73
     4
 74
     0
 42
0.0000000001
 43
0.0000000001
 40
0.0
 40
0.0
 40
0.0
 40
0.0
 40
1.0
 40
1.0
 40
1.0
 40
1.0
 10
-95.354
 20
-15.0157
 30
0.0
 10
-95.354
 20
-15.0157
 30
0.0
 10
-88.1412
 20
-15.0157
 30
0.0
 10
-88.1412
 20
-15.0157
 30
0.0
  0
SPLINE
  5
199
330
1F
100
AcDbEntity
  8
layer 1
370
     9
100
AcDbSpline
210
0.0
220
0.0
230
1.0
 70
    27
 71
     3
 72
     8
 73
     4
 74
     0
 42
0.0000000001
 43
0.0000000001
 40
0.0
 40
0.0
 40
0.0
 40
0.0
 40
1.0
 40
1.0
 40
1.0
 40
1.0
 10
-88.1412
 20
-15.0157
 30
0.0
 10
-88.1412
 20
-15.0157
 30
0.0
 10
-88.1412
 20
-15.0157
 30
0.0
 10
-88.1412
 20
-15.0157
 30
0.0
  0
SPLINE
  5
19A
330
1F
100
AcDbEntity
  8
layer 1
370
     9
100
AcDbSpline
210
0.0
220
0.0
230
1.0
 70
    24
 71
     3
 72
     8
 73
     4
 74
     0
 42
0.0000000001
 43
0.0000000001
 40
0.0
 40
0.0
 40
0.0
 40
0.0
 40
1.0
 40
1.0
 40
1.0
 40
1.0
 10
-88.1412
 20
-15.0157
 30
0.0
 10
-88.1412
 20
-15.0157
 30
0.0
 10
-88.1412
 20
-18.854
 30
0.0
 10
-88.1412
 20
-18.854
 30
0.0
  0
SPLINE
  5
19B
330
1F
100
AcDbEntity
  8
layer 1
370
     9
100
AcDbSpline
210
0.0
220
0.0
230
1.0
 70
    27
 71
     3
 72
     8
 73
     4
 74
     0
 42
0.0000000001
 43
0.0000000001
 40
0.0
 40
0.0
 40
0.0
 40
0.0
 40
1.0
 40
1.0
 40
1.0
 40
1.0
 10
-88.1412
 20
-18.854
 30
0.0
 10
-88.1412
 20
-18.854
 30
0.0
 10
-88.1412
 20
-18.854
 30
0.0
 10
-88.1412
 20
-18.854
 30
0.0
  0
SPLINE
  5
19C
330
1F
100
AcDbEntity
  8
layer 1
370
     9
100
AcDbSpline
210
0.0
220
0.0
230
1.0
 70
    24
 71
     3
 72
     8
 73
     4
 74
     0
 42
0.0000000001
 43
0.0000000001
 40
0.0
 40
0.0
 40
0.0
 40
0.0
 40
1.0
 40
1.0
 40
1.0
 40
1.0
 10
-88.1412
 20
-18.854
 30
0.0
 10
-88.1412
 20
-18.854
 30
0.0
 10
-95.354
 20
-18.854
 30
0.0
 10
-95.354
 20
-18.854
 30
0.0
  0
SPLINE
  5
19D
330
1F
100
AcDbEntity
  8
layer 1
370
     9
100
AcDbSpline
210
0.0
220
0.0
230
1.0
 70
     8
 71
     3
 72
    12
 73
     8
 74
     0
 42
0.0000000001
 43
0.0000000001
 40
0.0
 40
0.0
 40
0.0
 40
0.0
 40
0.5
 40
0.5
 40
0.5
 40
0.5
 40
1.0
 40
1.0
 40
1.0
 40
1.0
 10
-96.9965
 20
-25.1639
 30
0.0
 10
-96.9965
 20
-25.4291
 30
0.0
 10
-96.8912
 20
-25.6835
 30
0.0
 10
-96.7036
 20
-25.871
 30
0.0
 10
-96.7036
 20
-25.871
 30
0.0
 10
-96.5161
 20
-26.0586
 30
0.0
 10
-96.2617
 20
-26.1639
 30
0.0
 10
-95.9965
 20
-26.1639
 30
0.0
  0
SPLINE
  5
19E
330
1F
100
AcDbEntity
  8
layer 1
370
     9
100
AcDbSpline
210
0.0
220
0.0
230
1.0
 70
    27
 71
     3
 72
     8
 73
     4
 74
     0
 42
0.0000000001
 43
0.0000000001
 40
0.0
 40
0.0
 40
0.0
 40
0.0
 40
1.0
 40
1.0
 40
1.0
 40
1.0
 10
-87.2117
 20
-26.1639
 30
0.0
 10
-87.2117
 20
-26.1639
 30
0.0
 10
-87.2117
 20
-26.1639
 30
0.0
 10
-87.2117
 20
-26.1639
 30
0.0
  0
SPLINE
  5
19F
330
1F
100
AcDbEntity
  8
layer 1
370
     9
100
AcDbSpline
210
0.0
220
0.0
230
1.0
 70
    24
 71
     3
 72
     8
 73
     4
 74
     0
 42
0.0000000001
 43
0.0000000001
 40
0.0
 40
0.0
 40
0.0
 40
0.0
 40
1.0
 40
1.0
 40
1.0
 40
1.0
 10
-95.9965
 20
-26.1639
 30
0.0
 10
-95.9965
 20
-26.1639
 30
0.0
 10
-87.2117
 20
-26.1639
 30
0.0
 10
-87.2117
 20
-26.1639
 30
0.0
  0
SPLINE
  5
1A0
330
1F
100
AcDbEntity
  8
layer 1
370
     9
100
AcDbSpline
210
0.0
220
0.0
230
1.0
 70
     8
 71
     3
 72
    12
 73
     8
 74
     0
 42
0.0000000001
 43
0.0000000001
 40
0.0
 40
0.0
 40
0.0
 40
0.0
 40
0.5
 40
0.5
 40
0.5
 40
0.5
 40
1.0
 40
1.0
 40
1.0
 40
1.0
 10
-87.2117
 20
-26.1639
 30
0.0
 10
-86.9465
 20
-26.1639
 30
0.0
 10
-86.6922
 20
-26.0586
 30
0.0
 10
-86.5046
 20
-25.871
 30
0.0
 10
-86.5046
 20
-25.871
 30
0.0
 10
-86.3171
 20
-25.6835
 30
0.0
 10
-86.2117
 20
-25.4291
 30
0.0
 10
-86.2117
 20
-25.1639
 30
0.0
  0
SPLINE
  5
1A1
330
1F
100
AcDbEntity
  8
layer 1
370
     9
100
AcDbSpline
210
0.0
220
0.0
230
1.0
 70
    24
 71
     3
 72
     8
 73
     4
 74
     0
 42
0.0000000001
 43
0.0000000001
 40
0.0
 40
0.0
 40
0.0
 40
0.0
 40
1.0
 40
1.0
 40
1.0
 40
1.0
 10
0.1752
 20
17.3166
 30
0.0
 10
0.1752
 20
17.3166
 30
0.0
 10
0.1752
 20
72.7197
 30
0.0
 10
0.1752
 20
72.7197
 30
0.0
  0
SPLINE
  5
1A2
330
1F
100
AcDbEntity
  8
layer 1
370
     9
100
AcDbSpline
210
0.0
220
0.0
230
1.0
 70
    27
 71
     3
 72
     8
 73
     4
 74
     0
 42
0.0000000001
 43
0.0000000001
 40
0.0
 40
0.0
 40
0.0
 40
0.0
 40
1.0
 40
1.0
 40
1.0
 40
1.0
 10
-11.9717
 20
77.7197
 30
0.0
 10
-11.9717
 20
77.7197
 30
0.0
 10
-11.9717
 20
77.7197
 30
0.0
 10
-11.9717
 20
77.7197
 30
0.0
  0
SPLINE
  5
1A3
330
1F
100
AcDbEntity
  8
layer 1
370
     9
100
AcDbSpline
210
0.0
220
0.0
230
1.0
 70
    24
 71
     3
 72
     8
 73
     4
 74
     0
 42
0.0000000001
 43
0.0000000001
 40
0.0
 40
0.0
 40
0.0
 40
0.0
 40
1.0
 40
1.0
 40
1.0
 40
1.0
 10
-11.9717
 20
77.7197
 30
0.0
 10
-11.9717
 20
77.7197
 30
0.0
 10
-84.7745
 20
77.7197
 30
0.0
 10
-84.7745
 20
77.7197
 30
0.0
  0
SPLINE
  5
1A4
330
1F
100
AcDbEntity
  8
layer 1
370
     9
100
AcDbSpline
210
0.0
220
0.0
230
1.0
 70
    24
 71
     3
 72
     8
 73
     4
 74
     0
 42
0.0000000001
 43
0.0000000001
 40
0.0
 40
0.0
 40
0.0
 40
0.0
 40
1.0
 40
1.0
 40
1.0
 40
1.0
 10
-96.9214
 20
72.7197
 30
0.0
 10
-96.9214
 20
72.7197
 30
0.0
 10
-96.9214
 20
17.3166
 30
0.0
 10
-96.9214
 20
17.3166
 30
0.0
  0
SPLINE
  5
1A5
330
1F
100
AcDbEntity
  8
layer 1
370
     9
100
AcDbSpline
210
0.0
220
0.0
230
1.0
 70
    27
 71
     3
 72
     8
 73
     4
 74
     0
 42
0.0000000001
 43
0.0000000001
 40
0.0
 40
0.0
 40
0.0
 40
0.0
 40
1.0
 40
1.0
 40
1.0
 40
1.0
 10
-11.9717
 20
12.3166
 30
0.0
 10
-11.9717
 20
12.3166
 30
0.0
 10
-11.9717
 20
12.3166
 30
0.0
 10
-11.9717
 20
12.3166
 30
0.0
  0
SPLINE
  5
1A6
330
1F
100
AcDbEntity
  8
layer 1
370
     9
100
AcDbSpline
210
0.0
220
0.0
230
1.0
 70
    24
 71
     3
 72
     8
 73
     4
 74
     0
 42
0.0000000001
 43
0.0000000001
 40
0.0
 40
0.0
 40
0.0
 40
0.0
 40
1.0
 40
1.0
 40
1.0
 40
1.0
 10
-84.7745
 20
12.3166
 30
0.0
 10
-84.7745
 20
12.3166
 30
0.0
 10
-11.9717
 20
12.3166
 30
0.0
 10
-11.9717
 20
12.3166
 30
0.0
  0
SPLINE
  5
1A7
330
1F
100
AcDbEntity
  8
layer 1
370
     9
100
AcDbSpline
210
0.0
220
0.0
230
1.0
 70
    24
 71
     3
 72
     8
 73
     4
 74
     0
 42
0.0000000001
 43
0.0000000001
 40
0.0
 40
0.0
 40
0.0
 40
0.0
 40
1.0
 40
1.0
 40
1.0
 40
1.0
 10
-93.9214
 20
69.7197
 30
0.0
 10
-93.9214
 20
69.7197
 30
0.0
 10
-93.9214
 20
74.7197
 30
0.0
 10
-93.9214
 20
74.7197
 30
0.0
  0
SPLINE
  5
1A8
330
1F
100
AcDbEntity
  8
layer 1
370
     9
100
AcDbSpline
210
0.0
220
0.0
230
1.0
 70
    24
 71
     3
 72
     8
 73
     4
 74
     0
 42
0.0000000001
 43
0.0000000001
 40
0.0
 40
0.0
 40
0.0
 40
0.0
 40
1.0
 40
1.0
 40
1.0
 40
1.0
 10
-93.9214
 20
74.7197
 30
0.0
 10
-93.9214
 20
74.7197
 30
0.0
 10
-94.9214
 20
74.7197
 30
0.0
 10
-94.9214
 20
74.7197
 30
0.0
  0
SPLINE
  5
1A9
330
1F
100
AcDbEntity
  8
layer 1
370
     9
100
AcDbSpline
210
0.0
220
0.0
230
1.0
 70
    27
 71
     3
 72
     8
 73
     4
 74
     0
 42
0.0000000001
 43
0.0000000001
 40
0.0
 40
0.0
 40
0.0
 40
0.0
 40
1.0
 40
1.0
 40
1.0
 40
1.0
 10
-93.9214
 20
15.3166
 30
0.0
 10
-93.9214
 20
15.3166
 30
0.0
 10
-93.9214
 20
15.3166
 30
0.0
 10
-93.9214
 20
15.3166
 30
0.0
  0
SPLINE
  5
1AA
330
1F
100
AcDbEntity
  8
layer 1
370
     9
100
AcDbSpline
210
0.0
220
0.0
230
1.0
 70
    24
 71
     3
 72
     8
 73
     4
 74
     0
 42
0.0000000001
 43
0.0000000001
 40
0.0
 40
0.0
 40
0.0
 40
0.0
 40
1.0
 40
1.0
 40
1.0
 40
1.0
 10
-94.9214
 20
15.3166
 30
0.0
 10
-94.9214
 20
15.3166
 30
0.0
 10
-93.9214
 20
15.3166
 30
0.0
 10
-93.9214
 20
15.3166
 30
0.0
  0
SPLINE
  5
1AB
330
1F
100
AcDbEntity
  8
layer 1
370
     9
100
AcDbSpline
210
0.0
220
0.0
230
1.0
 70
    27
 71
     3
 72
     8
 73
     4
 74
     0
 42
0.0000000001
 43
0.0000000001
 40
0.0
 40
0.0
 40
0.0
 40
0.0
 40
1.0
 40
1.0
 40
1.0
 40
1.0
 10
-93.9214
 20
19.9803
 30
0.0
 10
-93.9214
 20
19.9803
 30
0.0
 10
-93.9214
 20
19.9803
 30
0.0
 10
-93.9214
 20
19.9803
 30
0.0
  0
SPLINE
  5
1AC
330
1F
100
AcDbEntity
  8
layer 1
370
     9
100
AcDbSpline
210
0.0
220
0.0
230
1.0
 70
    24
 71
     3
 72
     8
 73
     4
 74
     0
 42
0.0000000001
 43
0.0000000001
 40
0.0
 40
0.0
 40
0.0
 40
0.0
 40
1.0
 40
1.0
 40
1.0
 40
1.0
 10
-93.9214
 20
15.3166
 30
0.0
 10
-93.9214
 20
15.3166
 30
0.0
 10
-93.9214
 20
19.9803
 30
0.0
 10
-93.9214
 20
19.9803
 30
0.0
  0
SPLINE
  5
1AD
330
1F
100
AcDbEntity
  8
layer 1
370
     9
100
AcDbSpline
210
0.0
220
0.0
230
1.0
 70
    27
 71
     3
 72
     8
 73
     4
 74
     0
 42
0.0000000001
 43
0.0000000001
 40
0.0
 40
0.0
 40
0.0
 40
0.0
 40
1.0
 40
1.0
 40
1.0
 40
1.0
 10
-90.9214
 20
19.9803
 30
0.0
 10
-90.9214
 20
19.9803
 30
0.0
 10
-90.9214
 20
19.9803
 30
0.0
 10
-90.9214
 20
19.9803
 30
0.0
  0
SPLINE
  5
1AE
330
1F
100
AcDbEntity
  8
layer 1
370
     9
100
AcDbSpline
210
0.0
220
0.0
230
1.0
 70
    24
 71
     3
 72
     8
 73
     4
 74
     0
 42
0.0000000001
 43
0.0000000001
 40
0.0
 40
0.0
 40
0.0
 40
0.0
 40
1.0
 40
1.0
 40
1.0
 40
1.0
 10
-93.9214
 20
19.9803
 30
0.0
 10
-93.9214
 20
19.9803
 30
0.0
 10
-90.9214
 20
19.9803
 30
0.0
 10
-90.9214
 20
19.9803
 30
0.0
  0
SPLINE
  5
1AF
330
1F
100
AcDbEntity
  8
layer 1
370
     9
100
AcDbSpline
210
0.0
220
0.0
230
1.0
 70
    27
 71
     3
 72
     8
 73
     4
 74
     0
 42
0.0000000001
 43
0.0000000001
 40
0.0
 40
0.0
 40
0.0
 40
0.0
 40
1.0
 40
1.0
 40
1.0
 40
1.0
 10
-90.9214
 20
19.9803
 30
0.0
 10
-90.9214
 20
19.9803
 30
0.0
 10
-90.9214
 20
19.9803
 30
0.0
 10
-90.9214
 20
19.9803
 30
0.0
  0
SPLINE
  5
1B0
330
1F
100
AcDbEntity
  8
layer 1
370
     9
100
AcDbSpline
210
0.0
220
0.0
230
1.0
 70
    24
 71
     3
 72
     8
 73
     4
 74
     0
 42
0.0000000001
 43
0.0000000001
 40
0.0
 40
0.0
 40
0.0
 40
0.0
 40
1.0
 40
1.0
 40
1.0
 40
1.0
 10
-90.9214
 20
19.9803
 30
0.0
 10
-90.9214
 20
19.9803
 30
0.0
 10
-90.9214
 20
15.3166
 30
0.0
 10
-90.9214
 20
15.3166
 30
0.0
  0
SPLINE
  5
1B1
330
1F
100
AcDbEntity
  8
layer 1
370
     9
100
AcDbSpline
210
0.0
220
0.0
230
1.0
 70
    27
 71
     3
 72
     8
 73
     4
 74
     0
 42
0.0000000001
 43
0.0000000001
 40
0.0
 40
0.0
 40
0.0
 40
0.0
 40
1.0
 40
1.0
 40
1.0
 40
1.0
 10
-86.7745
 20
15.3166
 30
0.0
 10
-86.7745
 20
15.3166
 30
0.0
 10
-86.7745
 20
15.3166
 30
0.0
 10
-86.7745
 20
15.3166
 30
0.0
  0
SPLINE
  5
1B2
330
1F
100
AcDbEntity
  8
layer 1
370
     9
100
AcDbSpline
210
0.0
220
0.0
230
1.0
 70
    24
 71
     3
 72
     8
 73
     4
 74
     0
 42
0.0000000001
 43
0.0000000001
 40
0.0
 40
0.0
 40
0.0
 40
0.0
 40
1.0
 40
1.0
 40
1.0
 40
1.0
 10
-90.9214
 20
15.3166
 30
0.0
 10
-90.9214
 20
15.3166
 30
0.0
 10
-86.7745
 20
15.3166
 30
0.0
 10
-86.7745
 20
15.3166
 30
0.0
  0
SPLINE
  5
1B3
330
1F
100
AcDbEntity
  8
layer 1
370
     9
100
AcDbSpline
210
0.0
220
0.0
230
1.0
 70
    27
 71
     3
 72
     8
 73
     4
 74
     0
 42
0.0000000001
 43
0.0000000001
 40
0.0
 40
0.0
 40
0.0
 40
0.0
 40
1.0
 40
1.0
 40
1.0
 40
1.0
 10
-86.7745
 20
15.3166
 30
0.0
 10
-86.7745
 20
15.3166
 30
0.0
 10
-86.7745
 20
15.3166
 30
0.0
 10
-86.7745
 20
15.3166
 30
0.0
  0
SPLINE
  5
1B4
330
1F
100
AcDbEntity
  8
layer 1
370
     9
100
AcDbSpline
210
0.0
220
0.0
230
1.0
 70
    24
 71
     3
 72
     8
 73
     4
 74
     0
 42
0.0000000001
 43
0.0000000001
 40
0.0
 40
0.0
 40
0.0
 40
0.0
 40
1.0
 40
1.0
 40
1.0
 40
1.0
 10
-86.7745
 20
15.3166
 30
0.0
 10
-86.7745
 20
15.3166
 30
0.0
 10
-86.7745
 20
14.3166
 30
0.0
 10
-86.7745
 20
14.3166
 30
0.0
  0
SPLINE
  5
1B5
330
1F
100
AcDbEntity
  8
layer 1
370
     9
100
AcDbSpline
210
0.0
220
0.0
230
1.0
 70
    24
 71
     3
 72
     8
 73
     4
 74
     0
 42
0.0000000001
 43
0.0000000001
 40
0.0
 40
0.0
 40
0.0
 40
0.0
 40
1.0
 40
1.0
 40
1.0
 40
1.0
 10
-9.9717
 20
14.3166
 30
0.0
 10
-9.9717
 20
14.3166
 30
0.0
 10
-9.9717
 20
15.3166
 30
0.0
 10
-9.9717
 20
15.3166
 30
0.0
  0
SPLINE
  5
1B6
330
1F
100
AcDbEntity
  8
layer 1
370
     9
100
AcDbSpline
210
0.0
220
0.0
230
1.0
 70
    24
 71
     3
 72
     8
 73
     4
 74
     0
 42
0.0000000001
 43
0.0000000001
 40
0.0
 40
0.0
 40
0.0
 40
0.0
 40
1.0
 40
1.0
 40
1.0
 40
1.0
 10
-9.9717
 20
15.3166
 30
0.0
 10
-9.9717
 20
15.3166
 30
0.0
 10
-1.8248
 20
15.3166
 30
0.0
 10
-1.8248
 20
15.3166
 30
0.0
  0
SPLINE
  5
1B7
330
1F
100
AcDbEntity
  8
layer 1
370
     9
100
AcDbSpline
210
0.0
220
0.0
230
1.0
 70
    27
 71
     3
 72
     8
 73
     4
 74
     0
 42
0.0000000001
 43
0.0000000001
 40
0.0
 40
0.0
 40
0.0
 40
0.0
 40
1.0
 40
1.0
 40
1.0
 40
1.0
 10
-1.8248
 20
74.7197
 30
0.0
 10
-1.8248
 20
74.7197
 30
0.0
 10
-1.8248
 20
74.7197
 30
0.0
 10
-1.8248
 20
74.7197
 30
0.0
  0
SPLINE
  5
1B8
330
1F
100
AcDbEntity
  8
layer 1
370
     9
100
AcDbSpline
210
0.0
220
0.0
230
1.0
 70
    24
 71
     3
 72
     8
 73
     4
 74
     0
 42
0.0000000001
 43
0.0000000001
 40
0.0
 40
0.0
 40
0.0
 40
0.0
 40
1.0
 40
1.0
 40
1.0
 40
1.0
 10
-1.8248
 20
74.7197
 30
0.0
 10
-1.8248
 20
74.7197
 30
0.0
 10
-9.9717
 20
74.7197
 30
0.0
 10
-9.9717
 20
74.7197
 30
0.0
  0
SPLINE
  5
1B9
330
1F
100
AcDbEntity
  8
layer 1
370
     9
100
AcDbSpline
210
0.0
220
0.0
230
1.0
 70
    27
 71
     3
 72
     8
 73
     4
 74
     0
 42
0.0000000001
 43
0.0000000001
 40
0.0
 40
0.0
 40
0.0
 40
0.0
 40
1.0
 40
1.0
 40
1.0
 40
1.0
 10
-9.9717
 20
75.7197
 30
0.0
 10
-9.9717
 20
75.7197
 30
0.0
 10
-9.9717
 20
75.7197
 30
0.0
 10
-9.9717
 20
75.7197
 30
0.0
  0
SPLINE
  5
1BA
330
1F
100
AcDbEntity
  8
layer 1
370
     9
100
AcDbSpline
210
0.0
220
0.0
230
1.0
 70
    24
 71
     3
 72
     8
 73
     4
 74
     0
 42
0.0000000001
 43
0.0000000001
 40
0.0
 40
0.0
 40
0.0
 40
0.0
 40
1.0
 40
1.0
 40
1.0
 40
1.0
 10
-9.9717
 20
74.7197
 30
0.0
 10
-9.9717
 20
74.7197
 30
0.0
 10
-9.9717
 20
75.7197
 30
0.0
 10
-9.9717
 20
75.7197
 30
0.0
  0
SPLINE
  5
1BB
330
1F
100
AcDbEntity
  8
layer 1
370
     9
100
AcDbSpline
210
0.0
220
0.0
230
1.0
 70
    24
 71
     3
 72
     8
 73
     4
 74
     0
 42
0.0000000001
 43
0.0000000001
 40
0.0
 40
0.0
 40
0.0
 40
0.0
 40
1.0
 40
1.0
 40
1.0
 40
1.0
 10
-86.7745
 20
75.7197
 30
0.0
 10
-86.7745
 20
75.7197
 30
0.0
 10
-86.7745
 20
74.7197
 30
0.0
 10
-86.7745
 20
74.7197
 30
0.0
  0
SPLINE
  5
1BC
330
1F
100
AcDbEntity
  8
layer 1
370
     9
100
AcDbSpline
210
0.0
220
0.0
230
1.0
 70
    24
 71
     3
 72
     8
 73
     4
 74
     0
 42
0.0000000001
 43
0.0000000001
 40
0.0
 40
0.0
 40
0.0
 40
0.0
 40
1.0
 40
1.0
 40
1.0
 40
1.0
 10
-86.7745
 20
74.7197
 30
0.0
 10
-86.7745
 20
74.7197
 30
0.0
 10
-90.9214
 20
74.7197
 30
0.0
 10
-90.9214
 20
74.7197
 30
0.0
  0
SPLINE
  5
1BD
330
1F
100
AcDbEntity
  8
layer 1
370
     9
100
AcDbSpline
210
0.0
220
0.0
230
1.0
 70
    24
 71
     3
 72
     8
 73
     4
 74
     0
 42
0.0000000001
 43
0.0000000001
 40
0.0
 40
0.0
 40
0.0
 40
0.0
 40
1.0
 40
1.0
 40
1.0
 40
1.0
 10
-90.9214
 20
74.7197
 30
0.0
 10
-90.9214
 20
74.7197
 30
0.0
 10
-90.9214
 20
69.7197
 30
0.0
 10
-90.9214
 20
69.7197
 30
0.0
  0
SPLINE
  5
1BE
330
1F
100
AcDbEntity
  8
layer 1
370
     9
100
AcDbSpline
210
0.0
220
0.0
230
1.0
 70
    24
 71
     3
 72
     8
 73
     4
 74
     0
 42
0.0000000001
 43
0.0000000001
 40
0.0
 40
0.0
 40
0.0
 40
0.0
 40
1.0
 40
1.0
 40
1.0
 40
1.0
 10
-90.9214
 20
69.7197
 30
0.0
 10
-90.9214
 20
69.7197
 30
0.0
 10
-93.9214
 20
69.7197
 30
0.0
 10
-93.9214
 20
69.7197
 30
0.0
  0
SPLINE
  5
1BF
330
1F
100
AcDbEntity
  8
layer 1
370
     9
100
AcDbSpline
210
0.0
220
0.0
230
1.0
 70
    24
 71
     3
 72
     8
 73
     4
 74
     0
 42
0.0000000001
 43
0.0000000001
 40
0.0
 40
0.0
 40
0.0
 40
0.0
 40
1.0
 40
1.0
 40
1.0
 40
1.0
 10
-73.8337
 20
67.7001
 30
0.0
 10
-73.8337
 20
67.7001
 30
0.0
 10
-73.8337
 20
70.5572
 30
0.0
 10
-73.8337
 20
70.5572
 30
0.0
  0
SPLINE
  5
1C0
330
1F
100
AcDbEntity
  8
layer 1
370
     9
100
AcDbSpline
210
0.0
220
0.0
230
1.0
 70
    24
 71
     3
 72
     8
 73
     4
 74
     0
 42
0.0000000001
 43
0.0000000001
 40
0.0
 40
0.0
 40
0.0
 40
0.0
 40
1.0
 40
1.0
 40
1.0
 40
1.0
 10
-73.8337
 20
70.5572
 30
0.0
 10
-73.8337
 20
70.5572
 30
0.0
 10
-25.6553
 20
70.5572
 30
0.0
 10
-25.6553
 20
70.5572
 30
0.0
  0
SPLINE
  5
1C1
330
1F
100
AcDbEntity
  8
layer 1
370
     9
100
AcDbSpline
210
0.0
220
0.0
230
1.0
 70
    24
 71
     3
 72
     8
 73
     4
 74
     0
 42
0.0000000001
 43
0.0000000001
 40
0.0
 40
0.0
 40
0.0
 40
0.0
 40
1.0
 40
1.0
 40
1.0
 40
1.0
 10
-25.6553
 20
70.5572
 30
0.0
 10
-25.6553
 20
70.5572
 30
0.0
 10
-25.6553
 20
67.7001
 30
0.0
 10
-25.6553
 20
67.7001
 30
0.0
  0
SPLINE
  5
1C2
330
1F
100
AcDbEntity
  8
layer 1
370
     9
100
AcDbSpline
210
0.0
220
0.0
230
1.0
 70
    24
 71
     3
 72
     8
 73
     4
 74
     0
 42
0.0000000001
 43
0.0000000001
 40
0.0
 40
0.0
 40
0.0
 40
0.0
 40
1.0
 40
1.0
 40
1.0
 40
1.0
 10
-25.6553
 20
67.7001
 30
0.0
 10
-25.6553
 20
67.7001
 30
0.0
 10
-73.8337
 20
67.7001
 30
0.0
 10
-73.8337
 20
67.7001
 30
0.0
  0
SPLINE
  5
1C3
330
1F
100
AcDbEntity
  8
layer 1
370
     9
100
AcDbSpline
210
0.0
220
0.0
230
1.0
 70
    24
 71
     3
 72
     8
 73
     4
 74
     0
 42
0.0000000001
 43
0.0000000001
 40
0.0
 40
0.0
 40
0.0
 40
0.0
 40
1.0
 40
1.0
 40
1.0
 40
1.0
 10
-54.7429
 20
51.8893
 30
0.0
 10
-54.7429
 20
51.8893
 30
0.0
 10
-54.7429
 20
64.8298
 30
0.0
 10
-54.7429
 20
64.8298
 30
0.0
  0
SPLINE
  5
1C4
330
1F
100
AcDbEntity
  8
layer 1
370
     9
100
AcDbSpline
210
0.0
220
0.0
230
1.0
 70
    24
 71
     3
 72
     8
 73
     4
 74
     0
 42
0.0000000001
 43
0.0000000001
 40
0.0
 40
0.0
 40
0.0
 40
0.0
 40
1.0
 40
1.0
 40
1.0
 40
1.0
 10
-54.7429
 20
64.8298
 30
0.0
 10
-54.7429
 20
64.8298
 30
0.0
 10
-48.7993
 20
64.8298
 30
0.0
 10
-48.7993
 20
64.8298
 30
0.0
  0
SPLINE
  5
1C5
330
1F
100
AcDbEntity
  8
layer 1
370
     9
100
AcDbSpline
210
0.0
220
0.0
230
1.0
 70
    24
 71
     3
 72
     8
 73
     4
 74
     0
 42
0.0000000001
 43
0.0000000001
 40
0.0
 40
0.0
 40
0.0
 40
0.0
 40
1.0
 40
1.0
 40
1.0
 40
1.0
 10
-48.7993
 20
64.8298
 30
0.0
 10
-48.7993
 20
64.8298
 30
0.0
 10
-48.7993
 20
51.8893
 30
0.0
 10
-48.7993
 20
51.8893
 30
0.0
  0
SPLINE
  5
1C6
330
1F
100
AcDbEntity
  8
layer 1
370
     9
100
AcDbSpline
210
0.0
220
0.0
230
1.0
 70
    24
 71
     3
 72
     8
 73
     4
 74
     0
 42
0.0000000001
 43
0.0000000001
 40
0.0
 40
0.0
 40
0.0
 40
0.0
 40
1.0
 40
1.0
 40
1.0
 40
1.0
 10
-48.7993
 20
51.8893
 30
0.0
 10
-48.7993
 20
51.8893
 30
0.0
 10
-54.7429
 20
51.8893
 30
0.0
 10
-54.7429
 20
51.8893
 30
0.0
  0
SPLINE
  5
1C7
330
1F
100
AcDbEntity
  8
layer 1
370
     9
100
AcDbSpline
210
0.0
220
0.0
230
1.0
 70
    24
 71
     3
 72
     8
 73
     4
 74
     0
 42
0.0000000001
 43
0.0000000001
 40
0.0
 40
0.0
 40
0.0
 40
0.0
 40
1.0
 40
1.0
 40
1.0
 40
1.0
 10
-45.1879
 20
51.8893
 30
0.0
 10
-45.1879
 20
51.8893
 30
0.0
 10
-45.1879
 20
64.8298
 30
0.0
 10
-45.1879
 20
64.8298
 30
0.0
  0
SPLINE
  5
1C8
330
1F
100
AcDbEntity
  8
layer 1
370
     9
100
AcDbSpline
210
0.0
220
0.0
230
1.0
 70
    24
 71
     3
 72
     8
 73
     4
 74
     0
 42
0.0000000001
 43
0.0000000001
 40
0.0
 40
0.0
 40
0.0
 40
0.0
 40
1.0
 40
1.0
 40
1.0
 40
1.0
 10
-45.1879
 20
64.8298
 30
0.0
 10
-45.1879
 20
64.8298
 30
0.0
 10
-39.2443
 20
64.8298
 30
0.0
 10
-39.2443
 20
64.8298
 30
0.0
  0
SPLINE
  5
1C9
330
1F
100
AcDbEntity
  8
layer 1
370
     9
100
AcDbSpline
210
0.0
220
0.0
230
1.0
 70
    24
 71
     3
 72
     8
 73
     4
 74
     0
 42
0.0000000001
 43
0.0000000001
 40
0.0
 40
0.0
 40
0.0
 40
0.0
 40
1.0
 40
1.0
 40
1.0
 40
1.0
 10
-39.2443
 20
64.8298
 30
0.0
 10
-39.2443
 20
64.8298
 30
0.0
 10
-39.2443
 20
51.8893
 30
0.0
 10
-39.2443
 20
51.8893
 30
0.0
  0
SPLINE
  5
1CA
330
1F
100
AcDbEntity
  8
layer 1
370
     9
100
AcDbSpline
210
0.0
220
0.0
230
1.0
 70
    24
 71
     3
 72
     8
 73
     4
 74
     0
 42
0.0000000001
 43
0.0000000001
 40
0.0
 40
0.0
 40
0.0
 40
0.0
 40
1.0
 40
1.0
 40
1.0
 40
1.0
 10
-39.2443
 20
51.8893
 30
0.0
 10
-39.2443
 20
51.8893
 30
0.0
 10
-45.1879
 20
51.8893
 30
0.0
 10
-45.1879
 20
51.8893
 30
0.0
  0
SPLINE
  5
1CB
330
1F
100
AcDbEntity
  8
layer 1
370
     9
100
AcDbSpline
210
0.0
220
0.0
230
1.0
 70
    24
 71
     3
 72
     8
 73
     4
 74
     0
 42
0.0000000001
 43
0.0000000001
 40
0.0
 40
0.0
 40
0.0
 40
0.0
 40
1.0
 40
1.0
 40
1.0
 40
1.0
 10
-29.4192
 20
41.8529
 30
0.0
 10
-29.4192
 20
41.8529
 30
0.0
 10
-29.4192
 20
50.6931
 30
0.0
 10
-29.4192
 20
50.6931
 30
0.0
  0
SPLINE
  5
1CC
330
1F
100
AcDbEntity
  8
layer 1
370
     9
100
AcDbSpline
210
0.0
220
0.0
230
1.0
 70
    24
 71
     3
 72
     8
 73
     4
 74
     0
 42
0.0000000001
 43
0.0000000001
 40
0.0
 40
0.0
 40
0.0
 40
0.0
 40
1.0
 40
1.0
 40
1.0
 40
1.0
 10
-29.4192
 20
50.6931
 30
0.0
 10
-29.4192
 20
50.6931
 30
0.0
 10
-23.2499
 20
50.6931
 30
0.0
 10
-23.2499
 20
50.6931
 30
0.0
  0
SPLINE
  5
1CD
330
1F
100
AcDbEntity
  8
layer 1
370
     9
100
AcDbSpline
210
0.0
220
0.0
230
1.0
 70
    27
 71
     3
 72
     8
 73
     4
 74
     0
 42
0.0000000001
 43
0.0000000001
 40
0.0
 40
0.0
 40
0.0
 40
0.0
 40
1.0
 40
1.0
 40
1.0
 40
1.0
 10
-23.2499
 20
50.6931
 30
0.0
 10
-23.2499
 20
50.6931
 30
0.0
 10
-23.2499
 20
50.6931
 30
0.0
 10
-23.2499
 20
50.6931
 30
0.0
  0
SPLINE
  5
1CE
330
1F
100
AcDbEntity
  8
layer 1
370
     9
100
AcDbSpline
210
0.0
220
0.0
230
1.0
 70
    24
 71
     3
 72
     8
 73
     4
 74
     0
 42
0.0000000001
 43
0.0000000001
 40
0.0
 40
0.0
 40
0.0
 40
0.0
 40
1.0
 40
1.0
 40
1.0
 40
1.0
 10
-23.2499
 20
50.6931
 30
0.0
 10
-23.2499
 20
50.6931
 30
0.0
 10
-23.2499
 20
41.8529
 30
0.0
 10
-23.2499
 20
41.8529
 30
0.0
  0
SPLINE
  5
1CF
330
1F
100
AcDbEntity
  8
layer 1
370
     9
100
AcDbSpline
210
0.0
220
0.0
230
1.0
 70
    27
 71
     3
 72
     8
 73
     4
 74
     0
 42
0.0000000001
 43
0.0000000001
 40
0.0
 40
0.0
 40
0.0
 40
0.0
 40
1.0
 40
1.0
 40
1.0
 40
1.0
 10
-23.2499
 20
41.8529
 30
0.0
 10
-23.2499
 20
41.8529
 30
0.0
 10
-23.2499
 20
41.8529
 30
0.0
 10
-23.2499
 20
41.8529
 30
0.0
  0
SPLINE
  5
1D0
330
1F
100
AcDbEntity
  8
layer 1
370
     9
100
AcDbSpline
210
0.0
220
0.0
230
1.0
 70
    24
 71
     3
 72
     8
 73
     4
 74
     0
 42
0.0000000001
 43
0.0000000001
 40
0.0
 40
0.0
 40
0.0
 40
0.0
 40
1.0
 40
1.0
 40
1.0
 40
1.0
 10
-23.2499
 20
41.8529
 30
0.0
 10
-23.2499
 20
41.8529
 30
0.0
 10
-29.4192
 20
41.8529
 30
0.0
 10
-29.4192
 20
41.8529
 30
0.0
  0
SPLINE
  5
1D1
330
1F
100
AcDbEntity
  8
layer 1
370
     9
100
AcDbSpline
210
0.0
220
0.0
230
1.0
 70
    27
 71
     3
 72
     8
 73
     4
 74
     0
 42
0.0000000001
 43
0.0000000001
 40
0.0
 40
0.0
 40
0.0
 40
0.0
 40
1.0
 40
1.0
 40
1.0
 40
1.0
 10
-65.0276
 20
22.4745
 30
0.0
 10
-65.0276
 20
22.4745
 30
0.0
 10
-65.0276
 20
22.4745
 30
0.0
 10
-65.0276
 20
22.4745
 30
0.0
  0
SPLINE
  5
1D2
330
1F
100
AcDbEntity
  8
layer 1
370
     9
100
AcDbSpline
210
0.0
220
0.0
230
1.0
 70
    24
 71
     3
 72
     8
 73
     4
 74
     0
 42
0.0000000001
 43
0.0000000001
 40
0.0
 40
0.0
 40
0.0
 40
0.0
 40
1.0
 40
1.0
 40
1.0
 40
1.0
 10
-65.0276
 20
19.2064
 30
0.0
 10
-65.0276
 20
19.2064
 30
0.0
 10
-65.0276
 20
22.4745
 30
0.0
 10
-65.0276
 20
22.4745
 30
0.0
  0
SPLINE
  5
1D3
330
1F
100
AcDbEntity
  8
layer 1
370
     9
100
AcDbSpline
210
0.0
220
0.0
230
1.0
 70
    27
 71
     3
 72
     8
 73
     4
 74
     0
 42
0.0000000001
 43
0.0000000001
 40
0.0
 40
0.0
 40
0.0
 40
0.0
 40
1.0
 40
1.0
 40
1.0
 40
1.0
 10
-25.4659
 20
22.4745
 30
0.0
 10
-25.4659
 20
22.4745
 30
0.0
 10
-25.4659
 20
22.4745
 30
0.0
 10
-25.4659
 20
22.4745
 30
0.0
  0
SPLINE
  5
1D4
330
1F
100
AcDbEntity
  8
layer 1
370
     9
100
AcDbSpline
210
0.0
220
0.0
230
1.0
 70
    24
 71
     3
 72
     8
 73
     4
 74
     0
 42
0.0000000001
 43
0.0000000001
 40
0.0
 40
0.0
 40
0.0
 40
0.0
 40
1.0
 40
1.0
 40
1.0
 40
1.0
 10
-65.0276
 20
22.4745
 30
0.0
 10
-65.0276
 20
22.4745
 30
0.0
 10
-25.4659
 20
22.4745
 30
0.0
 10
-25.4659
 20
22.4745
 30
0.0
  0
SPLINE
  5
1D5
330
1F
100
AcDbEntity
  8
layer 1
370
     9
100
AcDbSpline
210
0.0
220
0.0
230
1.0
 70
    27
 71
     3
 72
     8
 73
     4
 74
     0
 42
0.0000000001
 43
0.0000000001
 40
0.0
 40
0.0
 40
0.0
 40
0.0
 40
1.0
 40
1.0
 40
1.0
 40
1.0
 10
-25.4659
 20
22.4745
 30
0.0
 10
-25.4659
 20
22.4745
 30
0.0
 10
-25.4659
 20
22.4745
 30
0.0
 10
-25.4659
 20
22.4745
 30
0.0
  0
SPLINE
  5
1D6
330
1F
100
AcDbEntity
  8
layer 1
370
     9
100
AcDbSpline
210
0.0
220
0.0
230
1.0
 70
    24
 71
     3
 72
     8
 73
     4
 74
     0
 42
0.0000000001
 43
0.0000000001
 40
0.0
 40
0.0
 40
0.0
 40
0.0
 40
1.0
 40
1.0
 40
1.0
 40
1.0
 10
-25.4659
 20
22.4745
 30
0.0
 10
-25.4659
 20
22.4745
 30
0.0
 10
-25.4659
 20
19.2064
 30
0.0
 10
-25.4659
 20
19.2064
 30
0.0
  0
SPLINE
  5
1D7
330
1F
100
AcDbEntity
  8
layer 1
370
     9
100
AcDbSpline
210
0.0
220
0.0
230
1.0
 70
    27
 71
     3
 72
     8
 73
     4
 74
     0
 42
0.0000000001
 43
0.0000000001
 40
0.0
 40
0.0
 40
0.0
 40
0.0
 40
1.0
 40
1.0
 40
1.0
 40
1.0
 10
-25.4659
 20
19.2064
 30
0.0
 10
-25.4659
 20
19.2064
 30
0.0
 10
-25.4659
 20
19.2064
 30
0.0
 10
-25.4659
 20
19.2064
 30
0.0
  0
SPLINE
  5
1D8
330
1F
100
AcDbEntity
  8
layer 1
370
     9
100
AcDbSpline
210
0.0
220
0.0
230
1.0
 70
    24
 71
     3
 72
     8
 73
     4
 74
     0
 42
0.0000000001
 43
0.0000000001
 40
0.0
 40
0.0
 40
0.0
 40
0.0
 40
1.0
 40
1.0
 40
1.0
 40
1.0
 10
-25.4659
 20
19.2064
 30
0.0
 10
-25.4659
 20
19.2064
 30
0.0
 10
-65.0276
 20
19.2064
 30
0.0
 10
-65.0276
 20
19.2064
 30
0.0
  0
SPLINE
  5
1D9
330
1F
100
AcDbEntity
  8
layer 1
370
     9
100
AcDbSpline
210
0.0
220
0.0
230
1.0
 70
    27
 71
     3
 72
     8
 73
     4
 74
     0
 42
0.0000000001
 43
0.0000000001
 40
0.0
 40
0.0
 40
0.0
 40
0.0
 40
1.0
 40
1.0
 40
1.0
 40
1.0
 10
-2.925
 20
54.8199
 30
0.0
 10
-2.925
 20
54.8199
 30
0.0
 10
-2.925
 20
54.8199
 30
0.0
 10
-2.925
 20
54.8199
 30
0.0
  0
SPLINE
  5
1DA
330
1F
100
AcDbEntity
  8
layer 1
370
     9
100
AcDbSpline
210
0.0
220
0.0
230
1.0
 70
    24
 71
     3
 72
     8
 73
     4
 74
     0
 42
0.0000000001
 43
0.0000000001
 40
0.0
 40
0.0
 40
0.0
 40
0.0
 40
1.0
 40
1.0
 40
1.0
 40
1.0
 10
-2.925
 20
54.8199
 30
0.0
 10
-2.925
 20
54.8199
 30
0.0
 10
-5.7246
 20
54.8199
 30
0.0
 10
-5.7246
 20
54.8199
 30
0.0
  0
SPLINE
  5
1DB
330
1F
100
AcDbEntity
  8
layer 1
370
     9
100
AcDbSpline
210
0.0
220
0.0
230
1.0
 70
    27
 71
     3
 72
     8
 73
     4
 74
     0
 42
0.0000000001
 43
0.0000000001
 40
0.0
 40
0.0
 40
0.0
 40
0.0
 40
1.0
 40
1.0
 40
1.0
 40
1.0
 10
-5.7246
 20
64.6195
 30
0.0
 10
-5.7246
 20
64.6195
 30
0.0
 10
-5.7246
 20
64.6195
 30
0.0
 10
-5.7246
 20
64.6195
 30
0.0
  0
SPLINE
  5
1DC
330
1F
100
AcDbEntity
  8
layer 1
370
     9
100
AcDbSpline
210
0.0
220
0.0
230
1.0
 70
    24
 71
     3
 72
     8
 73
     4
 74
     0
 42
0.0000000001
 43
0.0000000001
 40
0.0
 40
0.0
 40
0.0
 40
0.0
 40
1.0
 40
1.0
 40
1.0
 40
1.0
 10
-5.7246
 20
54.8199
 30
0.0
 10
-5.7246
 20
54.8199
 30
0.0
 10
-5.7246
 20
64.6195
 30
0.0
 10
-5.7246
 20
64.6195
 30
0.0
  0
SPLINE
  5
1DD
330
1F
100
AcDbEntity
  8
layer 1
370
     9
100
AcDbSpline
210
0.0
220
0.0
230
1.0
 70
    27
 71
     3
 72
     8
 73
     4
 74
     0
 42
0.0000000001
 43
0.0000000001
 40
0.0
 40
0.0
 40
0.0
 40
0.0
 40
1.0
 40
1.0
 40
1.0
 40
1.0
 10
-2.925
 20
64.6195
 30
0.0
 10
-2.925
 20
64.6195
 30
0.0
 10
-2.925
 20
64.6195
 30
0.0
 10
-2.925
 20
64.6195
 30
0.0
  0
SPLINE
  5
1DE
330
1F
100
AcDbEntity
  8
layer 1
370
     9
100
AcDbSpline
210
0.0
220
0.0
230
1.0
 70
    24
 71
     3
 72
     8
 73
     4
 74
     0
 42
0.0000000001
 43
0.0000000001
 40
0.0
 40
0.0
 40
0.0
 40
0.0
 40
1.0
 40
1.0
 40
1.0
 40
1.0
 10
-5.7246
 20
64.6195
 30
0.0
 10
-5.7246
 20
64.6195
 30
0.0
 10
-2.925
 20
64.6195
 30
0.0
 10
-2.925
 20
64.6195
 30
0.0
  0
SPLINE
  5
1DF
330
1F
100
AcDbEntity
  8
layer 1
370
     9
100
AcDbSpline
210
0.0
220
0.0
230
1.0
 70
    27
 71
     3
 72
     8
 73
     4
 74
     0
 42
0.0000000001
 43
0.0000000001
 40
0.0
 40
0.0
 40
0.0
 40
0.0
 40
1.0
 40
1.0
 40
1.0
 40
1.0
 10
-2.925
 20
64.6195
 30
0.0
 10
-2.925
 20
64.6195
 30
0.0
 10
-2.925
 20
64.6195
 30
0.0
 10
-2.925
 20
64.6195
 30
0.0
  0
SPLINE
  5
1E0
330
1F
100
AcDbEntity
  8
layer 1
370
     9
100
AcDbSpline
210
0.0
220
0.0
230
1.0
 70
    24
 71
     3
 72
     8
 73
     4
 74
     0
 42
0.0000000001
 43
0.0000000001
 40
0.0
 40
0.0
 40
0.0
 40
0.0
 40
1.0
 40
1.0
 40
1.0
 40
1.0
 10
-2.925
 20
64.6195
 30
0.0
 10
-2.925
 20
64.6195
 30
0.0
 10
-2.925
 20
54.8199
 30
0.0
 10
-2.925
 20
54.8199
 30
0.0
  0
SPLINE
  5
1E1
330
1F
100
AcDbEntity
  8
layer 1
370
     9
100
AcDbSpline
210
0.0
220
0.0
230
1.0
 70
    24
 71
     3
 72
     8
 73
     4
 74
     0
 42
0.0000000001
 43
0.0000000001
 40
0.0
 40
0.0
 40
0.0
 40
0.0
 40
1.0
 40
1.0
 40
1.0
 40
1.0
 10
-5.7246
 20
25.4168
 30
0.0
 10
-5.7246
 20
25.4168
 30
0.0
 10
-5.7246
 20
35.2164
 30
0.0
 10
-5.7246
 20
35.2164
 30
0.0
  0
SPLINE
  5
1E2
330
1F
100
AcDbEntity
  8
layer 1
370
     9
100
AcDbSpline
210
0.0
220
0.0
230
1.0
 70
    24
 71
     3
 72
     8
 73
     4
 74
     0
 42
0.0000000001
 43
0.0000000001
 40
0.0
 40
0.0
 40
0.0
 40
0.0
 40
1.0
 40
1.0
 40
1.0
 40
1.0
 10
-5.7246
 20
35.2164
 30
0.0
 10
-5.7246
 20
35.2164
 30
0.0
 10
-2.925
 20
35.2164
 30
0.0
 10
-2.925
 20
35.2164
 30
0.0
  0
SPLINE
  5
1E3
330
1F
100
AcDbEntity
  8
layer 1
370
     9
100
AcDbSpline
210
0.0
220
0.0
230
1.0
 70
    24
 71
     3
 72
     8
 73
     4
 74
     0
 42
0.0000000001
 43
0.0000000001
 40
0.0
 40
0.0
 40
0.0
 40
0.0
 40
1.0
 40
1.0
 40
1.0
 40
1.0
 10
-2.925
 20
35.2164
 30
0.0
 10
-2.925
 20
35.2164
 30
0.0
 10
-2.925
 20
25.4168
 30
0.0
 10
-2.925
 20
25.4168
 30
0.0
  0
SPLINE
  5
1E4
330
1F
100
AcDbEntity
  8
layer 1
370
     9
100
AcDbSpline
210
0.0
220
0.0
230
1.0
 70
    24
 71
     3
 72
     8
 73
     4
 74
     0
 42
0.0000000001
 43
0.0000000001
 40
0.0
 40
0.0
 40
0.0
 40
0.0
 40
1.0
 40
1.0
 40
1.0
 40
1.0
 10
-2.925
 20
25.4168
 30
0.0
 10
-2.925
 20
25.4168
 30
0.0
 10
-5.7246
 20
25.4168
 30
0.0
 10
-5.7246
 20
25.4168
 30
0.0
  0
SPLINE
  5
1E5
330
1F
100
AcDbEntity
  8
layer 1
370
     9
100
AcDbSpline
210
0.0
220
0.0
230
1.0
 70
    24
 71
     3
 72
     8
 73
     4
 74
     0
 42
0.0000000001
 43
0.0000000001
 40
0.0
 40
0.0
 40
0.0
 40
0.0
 40
1.0
 40
1.0
 40
1.0
 40
1.0
 10
-93.9214
 20
44.9462
 30
0.0
 10
-93.9214
 20
44.9462
 30
0.0
 10
-93.9214
 20
57.5827
 30
0.0
 10
-93.9214
 20
57.5827
 30
0.0
  0
SPLINE
  5
1E6
330
1F
100
AcDbEntity
  8
layer 1
370
     9
100
AcDbSpline
210
0.0
220
0.0
230
1.0
 70
    24
 71
     3
 72
     8
 73
     4
 74
     0
 42
0.0000000001
 43
0.0000000001
 40
0.0
 40
0.0
 40
0.0
 40
0.0
 40
1.0
 40
1.0
 40
1.0
 40
1.0
 10
-93.9214
 20
57.5827
 30
0.0
 10
-93.9214
 20
57.5827
 30
0.0
 10
-90.9214
 20
57.5827
 30
0.0
 10
-90.9214
 20
57.5827
 30
0.0
  0
SPLINE
  5
1E7
330
1F
100
AcDbEntity
  8
layer 1
370
     9
100
AcDbSpline
210
0.0
220
0.0
230
1.0
 70
    24
 71
     3
 72
     8
 73
     4
 74
     0
 42
0.0000000001
 43
0.0000000001
 40
0.0
 40
0.0
 40
0.0
 40
0.0
 40
1.0
 40
1.0
 40
1.0
 40
1.0
 10
-90.9214
 20
44.9462
 30
0.0
 10
-90.9214
 20
44.9462
 30
0.0
 10
-90.9214
 20
57.5827
 30
0.0
 10
-90.9214
 20
57.5827
 30
0.0
  0
SPLINE
  5
1E8
330
1F
100
AcDbEntity
  8
layer 1
370
     9
100
AcDbSpline
210
0.0
220
0.0
230
1.0
 70
    24
 71
     3
 72
     8
 73
     4
 74
     0
 42
0.0000000001
 43
0.0000000001
 40
0.0
 40
0.0
 40
0.0
 40
0.0
 40
1.0
 40
1.0
 40
1.0
 40
1.0
 10
-90.9214
 20
44.9462
 30
0.0
 10
-90.9214
 20
44.9462
 30
0.0
 10
-93.9214
 20
44.9462
 30
0.0
 10
-93.9214
 20
44.9462
 30
0.0
  0
SPLINE
  5
1E9
330
1F
100
AcDbEntity
  8
layer 1
370
     9
100
AcDbSpline
210
0.0
220
0.0
230
1.0
 70
    27
 71
     3
 72
     8
 73
     4
 74
     0
 42
0.0000000001
 43
0.0000000001
 40
0.0
 40
0.0
 40
0.0
 40
0.0
 40
1.0
 40
1.0
 40
1.0
 40
1.0
 10
-20.5552
 20
74.6195
 30
0.0
 10
-20.5552
 20
74.6195
 30
0.0
 10
-20.5552
 20
74.6195
 30
0.0
 10
-20.5552
 20
74.6195
 30
0.0
  0
SPLINE
  5
1EA
330
1F
100
AcDbEntity
  8
layer 1
370
     9
100
AcDbSpline
210
0.0
220
0.0
230
1.0
 70
    24
 71
     3
 72
     8
 73
     4
 74
     0
 42
0.0000000001
 43
0.0000000001
 40
0.0
 40
0.0
 40
0.0
 40
0.0
 40
1.0
 40
1.0
 40
1.0
 40
1.0
 10
-20.5552
 20
71.8199
 30
0.0
 10
-20.5552
 20
71.8199
 30
0.0
 10
-20.5552
 20
74.6195
 30
0.0
 10
-20.5552
 20
74.6195
 30
0.0
  0
SPLINE
  5
1EB
330
1F
100
AcDbEntity
  8
layer 1
370
     9
100
AcDbSpline
210
0.0
220
0.0
230
1.0
 70
    27
 71
     3
 72
     8
 73
     4
 74
     0
 42
0.0000000001
 43
0.0000000001
 40
0.0
 40
0.0
 40
0.0
 40
0.0
 40
1.0
 40
1.0
 40
1.0
 40
1.0
 10
-15.7556
 20
74.6195
 30
0.0
 10
-15.7556
 20
74.6195
 30
0.0
 10
-15.7556
 20
74.6195
 30
0.0
 10
-15.7556
 20
74.6195
 30
0.0
  0
SPLINE
  5
1EC
330
1F
100
AcDbEntity
  8
layer 1
370
     9
100
AcDbSpline
210
0.0
220
0.0
230
1.0
 70
    24
 71
     3
 72
     8
 73
     4
 74
     0
 42
0.0000000001
 43
0.0000000001
 40
0.0
 40
0.0
 40
0.0
 40
0.0
 40
1.0
 40
1.0
 40
1.0
 40
1.0
 10
-20.5552
 20
74.6195
 30
0.0
 10
-20.5552
 20
74.6195
 30
0.0
 10
-15.7556
 20
74.6195
 30
0.0
 10
-15.7556
 20
74.6195
 30
0.0
  0
SPLINE
  5
1ED
330
1F
100
AcDbEntity
  8
layer 1
370
     9
100
AcDbSpline
210
0.0
220
0.0
230
1.0
 70
    27
 71
     3
 72
     8
 73
     4
 74
     0
 42
0.0000000001
 43
0.0000000001
 40
0.0
 40
0.0
 40
0.0
 40
0.0
 40
1.0
 40
1.0
 40
1.0
 40
1.0
 10
-15.7556
 20
74.6195
 30
0.0
 10
-15.7556
 20
74.6195
 30
0.0
 10
-15.7556
 20
74.6195
 30
0.0
 10
-15.7556
 20
74.6195
 30
0.0
  0
SPLINE
  5
1EE
330
1F
100
AcDbEntity
  8
layer 1
370
     9
100
AcDbSpline
210
0.0
220
0.0
230
1.0
 70
    24
 71
     3
 72
     8
 73
     4
 74
     0
 42
0.0000000001
 43
0.0000000001
 40
0.0
 40
0.0
 40
0.0
 40
0.0
 40
1.0
 40
1.0
 40
1.0
 40
1.0
 10
-15.7556
 20
74.6195
 30
0.0
 10
-15.7556
 20
74.6195
 30
0.0
 10
-15.7556
 20
71.8199
 30
0.0
 10
-15.7556
 20
71.8199
 30
0.0
  0
SPLINE
  5
1EF
330
1F
100
AcDbEntity
  8
layer 1
370
     9
100
AcDbSpline
210
0.0
220
0.0
230
1.0
 70
    27
 71
     3
 72
     8
 73
     4
 74
     0
 42
0.0000000001
 43
0.0000000001
 40
0.0
 40
0.0
 40
0.0
 40
0.0
 40
1.0
 40
1.0
 40
1.0
 40
1.0
 10
-15.7556
 20
71.8199
 30
0.0
 10
-15.7556
 20
71.8199
 30
0.0
 10
-15.7556
 20
71.8199
 30
0.0
 10
-15.7556
 20
71.8199
 30
0.0
  0
SPLINE
  5
1F0
330
1F
100
AcDbEntity
  8
layer 1
370
     9
100
AcDbSpline
210
0.0
220
0.0
230
1.0
 70
    24
 71
     3
 72
     8
 73
     4
 74
     0
 42
0.0000000001
 43
0.0000000001
 40
0.0
 40
0.0
 40
0.0
 40
0.0
 40
1.0
 40
1.0
 40
1.0
 40
1.0
 10
-15.7556
 20
71.8199
 30
0.0
 10
-15.7556
 20
71.8199
 30
0.0
 10
-20.5552
 20
71.8199
 30
0.0
 10
-20.5552
 20
71.8199
 30
0.0
  0
SPLINE
  5
1F1
330
1F
100
AcDbEntity
  8
layer 1
370
     9
100
AcDbSpline
210
0.0
220
0.0
230
1.0
 70
    24
 71
     3
 72
     8
 73
     4
 74
     0
 42
0.0000000001
 43
0.0000000001
 40
0.0
 40
0.0
 40
0.0
 40
0.0
 40
1.0
 40
1.0
 40
1.0
 40
1.0
 10
-20.5552
 20
18.2164
 30
0.0
 10
-20.5552
 20
18.2164
 30
0.0
 10
-15.7556
 20
18.2164
 30
0.0
 10
-15.7556
 20
18.2164
 30
0.0
  0
SPLINE
  5
1F2
330
1F
100
AcDbEntity
  8
layer 1
370
     9
100
AcDbSpline
210
0.0
220
0.0
230
1.0
 70
    24
 71
     3
 72
     8
 73
     4
 74
     0
 42
0.0000000001
 43
0.0000000001
 40
0.0
 40
0.0
 40
0.0
 40
0.0
 40
1.0
 40
1.0
 40
1.0
 40
1.0
 10
-15.7556
 20
18.2164
 30
0.0
 10
-15.7556
 20
18.2164
 30
0.0
 10
-15.7556
 20
15.4168
 30
0.0
 10
-15.7556
 20
15.4168
 30
0.0
  0
SPLINE
  5
1F3
330
1F
100
AcDbEntity
  8
layer 1
370
     9
100
AcDbSpline
210
0.0
220
0.0
230
1.0
 70
    24
 71
     3
 72
     8
 73
     4
 74
     0
 42
0.0000000001
 43
0.0000000001
 40
0.0
 40
0.0
 40
0.0
 40
0.0
 40
1.0
 40
1.0
 40
1.0
 40
1.0
 10
-15.7556
 20
15.4168
 30
0.0
 10
-15.7556
 20
15.4168
 30
0.0
 10
-20.5552
 20
15.4168
 30
0.0
 10
-20.5552
 20
15.4168
 30
0.0
  0
SPLINE
  5
1F4
330
1F
100
AcDbEntity
  8
layer 1
370
     9
100
AcDbSpline
210
0.0
220
0.0
230
1.0
 70
    24
 71
     3
 72
     8
 73
     4
 74
     0
 42
0.0000000001
 43
0.0000000001
 40
0.0
 40
0.0
 40
0.0
 40
0.0
 40
1.0
 40
1.0
 40
1.0
 40
1.0
 10
-20.5552
 20
15.4168
 30
0.0
 10
-20.5552
 20
15.4168
 30
0.0
 10
-20.5552
 20
18.2164
 30
0.0
 10
-20.5552
 20
18.2164
 30
0.0
  0
SPLINE
  5
1F5
330
1F
100
AcDbEntity
  8
layer 1
370
     9
100
AcDbSpline
210
0.0
220
0.0
230
1.0
 70
    24
 71
     3
 72
     8
 73
     4
 74
     0
 42
0.0000000001
 43
0.0000000001
 40
0.0
 40
0.0
 40
0.0
 40
0.0
 40
1.0
 40
1.0
 40
1.0
 40
1.0
 10
-78.191
 20
71.8199
 30
0.0
 10
-78.191
 20
71.8199
 30
0.0
 10
-82.9906
 20
71.8199
 30
0.0
 10
-82.9906
 20
71.8199
 30
0.0
  0
SPLINE
  5
1F6
330
1F
100
AcDbEntity
  8
layer 1
370
     9
100
AcDbSpline
210
0.0
220
0.0
230
1.0
 70
    24
 71
     3
 72
     8
 73
     4
 74
     0
 42
0.0000000001
 43
0.0000000001
 40
0.0
 40
0.0
 40
0.0
 40
0.0
 40
1.0
 40
1.0
 40
1.0
 40
1.0
 10
-82.9906
 20
71.8199
 30
0.0
 10
-82.9906
 20
71.8199
 30
0.0
 10
-82.9906
 20
74.6195
 30
0.0
 10
-82.9906
 20
74.6195
 30
0.0
  0
SPLINE
  5
1F7
330
1F
100
AcDbEntity
  8
layer 1
370
     9
100
AcDbSpline
210
0.0
220
0.0
230
1.0
 70
    24
 71
     3
 72
     8
 73
     4
 74
     0
 42
0.0000000001
 43
0.0000000001
 40
0.0
 40
0.0
 40
0.0
 40
0.0
 40
1.0
 40
1.0
 40
1.0
 40
1.0
 10
-82.9906
 20
74.6195
 30
0.0
 10
-82.9906
 20
74.6195
 30
0.0
 10
-78.191
 20
74.6195
 30
0.0
 10
-78.191
 20
74.6195
 30
0.0
  0
SPLINE
  5
1F8
330
1F
100
AcDbEntity
  8
layer 1
370
     9
100
AcDbSpline
210
0.0
220
0.0
230
1.0
 70
    24
 71
     3
 72
     8
 73
     4
 74
     0
 42
0.0000000001
 43
0.0000000001
 40
0.0
 40
0.0
 40
0.0
 40
0.0
 40
1.0
 40
1.0
 40
1.0
 40
1.0
 10
-78.191
 20
74.6195
 30
0.0
 10
-78.191
 20
74.6195
 30
0.0
 10
-78.191
 20
71.8199
 30
0.0
 10
-78.191
 20
71.8199
 30
0.0
  0
SPLINE
  5
1F9
330
1F
100
AcDbEntity
  8
layer 1
370
     9
100
AcDbSpline
210
0.0
220
0.0
230
1.0
 70
    27
 71
     3
 72
     8
 73
     4
 74
     0
 42
0.0000000001
 43
0.0000000001
 40
0.0
 40
0.0
 40
0.0
 40
0.0
 40
1.0
 40
1.0
 40
1.0
 40
1.0
 10
-78.191
 20
18.2164
 30
0.0
 10
-78.191
 20
18.2164
 30
0.0
 10
-78.191
 20
18.2164
 30
0.0
 10
-78.191
 20
18.2164
 30
0.0
  0
SPLINE
  5
1FA
330
1F
100
AcDbEntity
  8
layer 1
370
     9
100
AcDbSpline
210
0.0
220
0.0
230
1.0
 70
    24
 71
     3
 72
     8
 73
     4
 74
     0
 42
0.0000000001
 43
0.0000000001
 40
0.0
 40
0.0
 40
0.0
 40
0.0
 40
1.0
 40
1.0
 40
1.0
 40
1.0
 10
-78.191
 20
18.2164
 30
0.0
 10
-78.191
 20
18.2164
 30
0.0
 10
-78.191
 20
15.4168
 30
0.0
 10
-78.191
 20
15.4168
 30
0.0
  0
SPLINE
  5
1FB
330
1F
100
AcDbEntity
  8
layer 1
370
     9
100
AcDbSpline
210
0.0
220
0.0
230
1.0
 70
    27
 71
     3
 72
     8
 73
     4
 74
     0
 42
0.0000000001
 43
0.0000000001
 40
0.0
 40
0.0
 40
0.0
 40
0.0
 40
1.0
 40
1.0
 40
1.0
 40
1.0
 10
-78.191
 20
15.4168
 30
0.0
 10
-78.191
 20
15.4168
 30
0.0
 10
-78.191
 20
15.4168
 30
0.0
 10
-78.191
 20
15.4168
 30
0.0
  0
SPLINE
  5
1FC
330
1F
100
AcDbEntity
  8
layer 1
370
     9
100
AcDbSpline
210
0.0
220
0.0
230
1.0
 70
    24
 71
     3
 72
     8
 73
     4
 74
     0
 42
0.0000000001
 43
0.0000000001
 40
0.0
 40
0.0
 40
0.0
 40
0.0
 40
1.0
 40
1.0
 40
1.0
 40
1.0
 10
-78.191
 20
15.4168
 30
0.0
 10
-78.191
 20
15.4168
 30
0.0
 10
-82.9906
 20
15.4168
 30
0.0
 10
-82.9906
 20
15.4168
 30
0.0
  0
SPLINE
  5
1FD
330
1F
100
AcDbEntity
  8
layer 1
370
     9
100
AcDbSpline
210
0.0
220
0.0
230
1.0
 70
    27
 71
     3
 72
     8
 73
     4
 74
     0
 42
0.0000000001
 43
0.0000000001
 40
0.0
 40
0.0
 40
0.0
 40
0.0
 40
1.0
 40
1.0
 40
1.0
 40
1.0
 10
-82.9906
 20
18.2164
 30
0.0
 10
-82.9906
 20
18.2164
 30
0.0
 10
-82.9906
 20
18.2164
 30
0.0
 10
-82.9906
 20
18.2164
 30
0.0
  0
SPLINE
  5
1FE
330
1F
100
AcDbEntity
  8
layer 1
370
     9
100
AcDbSpline
210
0.0
220
0.0
230
1.0
 70
    24
 71
     3
 72
     8
 73
     4
 74
     0
 42
0.0000000001
 43
0.0000000001
 40
0.0
 40
0.0
 40
0.0
 40
0.0
 40
1.0
 40
1.0
 40
1.0
 40
1.0
 10
-82.9906
 20
15.4168
 30
0.0
 10
-82.9906
 20
15.4168
 30
0.0
 10
-82.9906
 20
18.2164
 30
0.0
 10
-82.9906
 20
18.2164
 30
0.0
  0
SPLINE
  5
1FF
330
1F
100
AcDbEntity
  8
layer 1
370
     9
100
AcDbSpline
210
0.0
220
0.0
230
1.0
 70
    27
 71
     3
 72
     8
 73
     4
 74
     0
 42
0.0000000001
 43
0.0000000001
 40
0.0
 40
0.0
 40
0.0
 40
0.0
 40
1.0
 40
1.0
 40
1.0
 40
1.0
 10
-78.191
 20
18.2164
 30
0.0
 10
-78.191
 20
18.2164
 30
0.0
 10
-78.191
 20
18.2164
 30
0.0
 10
-78.191
 20
18.2164
 30
0.0
  0
SPLINE
  5
200
330
1F
100
AcDbEntity
  8
layer 1
370
     9
100
AcDbSpline
210
0.0
220
0.0
230
1.0
 70
    24
 71
     3
 72
     8
 73
     4
 74
     0
 42
0.0000000001
 43
0.0000000001
 40
0.0
 40
0.0
 40
0.0
 40
0.0
 40
1.0
 40
1.0
 40
1.0
 40
1.0
 10
-82.9906
 20
18.2164
 30
0.0
 10
-82.9906
 20
18.2164
 30
0.0
 10
-78.191
 20
18.2164
 30
0.0
 10
-78.191
 20
18.2164
 30
0.0
  0
SPLINE
  5
201
330
1F
100
AcDbEntity
  8
layer 1
370
     9
100
AcDbSpline
210
0.0
220
0.0
230
1.0
 70
    27
 71
     3
 72
     8
 73
     4
 74
     0
 42
0.0000000001
 43
0.0000000001
 40
0.0
 40
0.0
 40
0.0
 40
0.0
 40
1.0
 40
1.0
 40
1.0
 40
1.0
 10
-87.3202
 20
30.9463
 30
0.0
 10
-87.3202
 20
30.9463
 30
0.0
 10
-87.3202
 20
30.9463
 30
0.0
 10
-87.3202
 20
30.9463
 30
0.0
  0
SPLINE
  5
202
330
1F
100
AcDbEntity
  8
layer 1
370
     9
100
AcDbSpline
210
0.0
220
0.0
230
1.0
 70
    24
 71
     3
 72
     8
 73
     4
 74
     0
 42
0.0000000001
 43
0.0000000001
 40
0.0
 40
0.0
 40
0.0
 40
0.0
 40
1.0
 40
1.0
 40
1.0
 40
1.0
 10
-87.3202
 20
30.9463
 30
0.0
 10
-87.3202
 20
30.9463
 30
0.0
 10
-90.3202
 20
30.9463
 30
0.0
 10
-90.3202
 20
30.9463
 30
0.0
  0
SPLINE
  5
203
330
1F
100
AcDbEntity
  8
layer 1
370
     9
100
AcDbSpline
210
0.0
220
0.0
230
1.0
 70
    27
 71
     3
 72
     8
 73
     4
 74
     0
 42
0.0000000001
 43
0.0000000001
 40
0.0
 40
0.0
 40
0.0
 40
0.0
 40
1.0
 40
1.0
 40
1.0
 40
1.0
 10
-90.3202
 20
38.9466
 30
0.0
 10
-90.3202
 20
38.9466
 30
0.0
 10
-90.3202
 20
38.9466
 30
0.0
 10
-90.3202
 20
38.9466
 30
0.0
  0
SPLINE
  5
204
330
1F
100
AcDbEntity
  8
layer 1
370
     9
100
AcDbSpline
210
0.0
220
0.0
230
1.0
 70
    24
 71
     3
 72
     8
 73
     4
 74
     0
 42
0.0000000001
 43
0.0000000001
 40
0.0
 40
0.0
 40
0.0
 40
0.0
 40
1.0
 40
1.0
 40
1.0
 40
1.0
 10
-90.3202
 20
30.9463
 30
0.0
 10
-90.3202
 20
30.9463
 30
0.0
 10
-90.3202
 20
38.9466
 30
0.0
 10
-90.3202
 20
38.9466
 30
0.0
  0
SPLINE
  5
205
330
1F
100
AcDbEntity
  8
layer 1
370
     9
100
AcDbSpline
210
0.0
220
0.0
230
1.0
 70
    27
 71
     3
 72
     8
 73
     4
 74
     0
 42
0.0000000001
 43
0.0000000001
 40
0.0
 40
0.0
 40
0.0
 40
0.0
 40
1.0
 40
1.0
 40
1.0
 40
1.0
 10
-87.3202
 20
38.9466
 30
0.0
 10
-87.3202
 20
38.9466
 30
0.0
 10
-87.3202
 20
38.9466
 30
0.0
 10
-87.3202
 20
38.9466
 30
0.0
  0
SPLINE
  5
206
330
1F
100
AcDbEntity
  8
layer 1
370
     9
100
AcDbSpline
210
0.0
220
0.0
230
1.0
 70
    24
 71
     3
 72
     8
 73
     4
 74
     0
 42
0.0000000001
 43
0.0000000001
 40
0.0
 40
0.0
 40
0.0
 40
0.0
 40
1.0
 40
1.0
 40
1.0
 40
1.0
 10
-90.3202
 20
38.9466
 30
0.0
 10
-90.3202
 20
38.9466
 30
0.0
 10
-87.3202
 20
38.9466
 30
0.0
 10
-87.3202
 20
38.9466
 30
0.0
  0
SPLINE
  5
207
330
1F
100
AcDbEntity
  8
layer 1
370
     9
100
AcDbSpline
210
0.0
220
0.0
230
1.0
 70
    27
 71
     3
 72
     8
 73
     4
 74
     0
 42
0.0000000001
 43
0.0000000001
 40
0.0
 40
0.0
 40
0.0
 40
0.0
 40
1.0
 40
1.0
 40
1.0
 40
1.0
 10
-87.3202
 20
38.9466
 30
0.0
 10
-87.3202
 20
38.9466
 30
0.0
 10
-87.3202
 20
38.9466
 30
0.0
 10
-87.3202
 20
38.9466
 30
0.0
  0
SPLINE
  5
208
330
1F
100
AcDbEntity
  8
layer 1
370
     9
100
AcDbSpline
210
0.0
220
0.0
230
1.0
 70
    24
 71
     3
 72
     8
 73
     4
 74
     0
 42
0.0000000001
 43
0.0000000001
 40
0.0
 40
0.0
 40
0.0
 40
0.0
 40
1.0
 40
1.0
 40
1.0
 40
1.0
 10
-87.3202
 20
38.9466
 30
0.0
 10
-87.3202
 20
38.9466
 30
0.0
 10
-87.3202
 20
30.9463
 30
0.0
 10
-87.3202
 20
30.9463
 30
0.0
  0
SPLINE
  5
209
330
1F
100
AcDbEntity
  8
layer 1
370
     9
100
AcDbSpline
210
0.0
220
0.0
230
1.0
 70
    27
 71
     3
 72
     8
 73
     4
 74
     0
 42
0.0000000001
 43
0.0000000001
 40
0.0
 40
0.0
 40
0.0
 40
0.0
 40
1.0
 40
1.0
 40
1.0
 40
1.0
 10
-81.8202
 20
30.6563
 30
0.0
 10
-81.8202
 20
30.6563
 30
0.0
 10
-81.8202
 20
30.6563
 30
0.0
 10
-81.8202
 20
30.6563
 30
0.0
  0
SPLINE
  5
20A
330
1F
100
AcDbEntity
  8
layer 1
370
     9
100
AcDbSpline
210
0.0
220
0.0
230
1.0
 70
    24
 71
     3
 72
     8
 73
     4
 74
     0
 42
0.0000000001
 43
0.0000000001
 40
0.0
 40
0.0
 40
0.0
 40
0.0
 40
1.0
 40
1.0
 40
1.0
 40
1.0
 10
-81.8202
 20
30.6563
 30
0.0
 10
-81.8202
 20
30.6563
 30
0.0
 10
-84.8202
 20
30.6563
 30
0.0
 10
-84.8202
 20
30.6563
 30
0.0
  0
SPLINE
  5
20B
330
1F
100
AcDbEntity
  8
layer 1
370
     9
100
AcDbSpline
210
0.0
220
0.0
230
1.0
 70
    27
 71
     3
 72
     8
 73
     4
 74
     0
 42
0.0000000001
 43
0.0000000001
 40
0.0
 40
0.0
 40
0.0
 40
0.0
 40
1.0
 40
1.0
 40
1.0
 40
1.0
 10
-84.8202
 20
38.9466
 30
0.0
 10
-84.8202
 20
38.9466
 30
0.0
 10
-84.8202
 20
38.9466
 30
0.0
 10
-84.8202
 20
38.9466
 30
0.0
  0
SPLINE
  5
20C
330
1F
100
AcDbEntity
  8
layer 1
370
     9
100
AcDbSpline
210
0.0
220
0.0
230
1.0
 70
    24
 71
     3
 72
     8
 73
     4
 74
     0
 42
0.0000000001
 43
0.0000000001
 40
0.0
 40
0.0
 40
0.0
 40
0.0
 40
1.0
 40
1.0
 40
1.0
 40
1.0
 10
-84.8202
 20
30.6563
 30
0.0
 10
-84.8202
 20
30.6563
 30
0.0
 10
-84.8202
 20
38.9466
 30
0.0
 10
-84.8202
 20
38.9466
 30
0.0
  0
SPLINE
  5
20D
330
1F
100
AcDbEntity
  8
layer 1
370
     9
100
AcDbSpline
210
0.0
220
0.0
230
1.0
 70
    27
 71
     3
 72
     8
 73
     4
 74
     0
 42
0.0000000001
 43
0.0000000001
 40
0.0
 40
0.0
 40
0.0
 40
0.0
 40
1.0
 40
1.0
 40
1.0
 40
1.0
 10
-81.8202
 20
38.9466
 30
0.0
 10
-81.8202
 20
38.9466
 30
0.0
 10
-81.8202
 20
38.9466
 30
0.0
 10
-81.8202
 20
38.9466
 30
0.0
  0
SPLINE
  5
20E
330
1F
100
AcDbEntity
  8
layer 1
370
     9
100
AcDbSpline
210
0.0
220
0.0
230
1.0
 70
    24
 71
     3
 72
     8
 73
     4
 74
     0
 42
0.0000000001
 43
0.0000000001
 40
0.0
 40
0.0
 40
0.0
 40
0.0
 40
1.0
 40
1.0
 40
1.0
 40
1.0
 10
-84.8202
 20
38.9466
 30
0.0
 10
-84.8202
 20
38.9466
 30
0.0
 10
-81.8202
 20
38.9466
 30
0.0
 10
-81.8202
 20
38.9466
 30
0.0
  0
SPLINE
  5
20F
330
1F
100
AcDbEntity
  8
layer 1
370
     9
100
AcDbSpline
210
0.0
220
0.0
230
1.0
 70
    27
 71
     3
 72
     8
 73
     4
 74
     0
 42
0.0000000001
 43
0.0000000001
 40
0.0
 40
0.0
 40
0.0
 40
0.0
 40
1.0
 40
1.0
 40
1.0
 40
1.0
 10
-81.8202
 20
38.9466
 30
0.0
 10
-81.8202
 20
38.9466
 30
0.0
 10
-81.8202
 20
38.9466
 30
0.0
 10
-81.8202
 20
38.9466
 30
0.0
  0
SPLINE
  5
210
330
1F
100
AcDbEntity
  8
layer 1
370
     9
100
AcDbSpline
210
0.0
220
0.0
230
1.0
 70
    24
 71
     3
 72
     8
 73
     4
 74
     0
 42
0.0000000001
 43
0.0000000001
 40
0.0
 40
0.0
 40
0.0
 40
0.0
 40
1.0
 40
1.0
 40
1.0
 40
1.0
 10
-81.8202
 20
38.9466
 30
0.0
 10
-81.8202
 20
38.9466
 30
0.0
 10
-81.8202
 20
30.6563
 30
0.0
 10
-81.8202
 20
30.6563
 30
0.0
  0
SPLINE
  5
211
330
1F
100
AcDbEntity
  8
layer 1
370
     9
100
AcDbSpline
210
0.0
220
0.0
230
1.0
 70
    24
 71
     3
 72
     8
 73
     4
 74
     0
 42
0.0000000001
 43
0.0000000001
 40
0.0
 40
0.0
 40
0.0
 40
0.0
 40
1.0
 40
1.0
 40
1.0
 40
1.0
 10
-62.2681
 20
43.2239
 30
0.0
 10
-62.2681
 20
43.2239
 30
0.0
 10
-65.2681
 20
43.2239
 30
0.0
 10
-65.2681
 20
43.2239
 30
0.0
  0
SPLINE
  5
212
330
1F
100
AcDbEntity
  8
layer 1
370
     9
100
AcDbSpline
210
0.0
220
0.0
230
1.0
 70
    24
 71
     3
 72
     8
 73
     4
 74
     0
 42
0.0000000001
 43
0.0000000001
 40
0.0
 40
0.0
 40
0.0
 40
0.0
 40
1.0
 40
1.0
 40
1.0
 40
1.0
 10
-65.2681
 20
43.2239
 30
0.0
 10
-65.2681
 20
43.2239
 30
0.0
 10
-65.2681
 20
51.2242
 30
0.0
 10
-65.2681
 20
51.2242
 30
0.0
  0
SPLINE
  5
213
330
1F
100
AcDbEntity
  8
layer 1
370
     9
100
AcDbSpline
210
0.0
220
0.0
230
1.0
 70
    24
 71
     3
 72
     8
 73
     4
 74
     0
 42
0.0000000001
 43
0.0000000001
 40
0.0
 40
0.0
 40
0.0
 40
0.0
 40
1.0
 40
1.0
 40
1.0
 40
1.0
 10
-65.2681
 20
51.2242
 30
0.0
 10
-65.2681
 20
51.2242
 30
0.0
 10
-62.2681
 20
51.2242
 30
0.0
 10
-62.2681
 20
51.2242
 30
0.0
  0
SPLINE
  5
214
330
1F
100
AcDbEntity
  8
layer 1
370
     9
100
AcDbSpline
210
0.0
220
0.0
230
1.0
 70
    24
 71
     3
 72
     8
 73
     4
 74
     0
 42
0.0000000001
 43
0.0000000001
 40
0.0
 40
0.0
 40
0.0
 40
0.0
 40
1.0
 40
1.0
 40
1.0
 40
1.0
 10
-62.2681
 20
51.2242
 30
0.0
 10
-62.2681
 20
51.2242
 30
0.0
 10
-62.2681
 20
43.2239
 30
0.0
 10
-62.2681
 20
43.2239
 30
0.0
  0
SPLINE
  5
215
330
1F
100
AcDbEntity
  8
layer 1
370
     9
100
AcDbSpline
210
0.0
220
0.0
230
1.0
 70
    11
 71
     3
 72
    20
 73
    16
 74
     0
 42
0.0000000001
 43
0.0000000001
 40
0.0
 40
0.0
 40
0.0
 40
0.0
 40
0.25
 40
0.25
 40
0.25
 40
0.25
 40
0.5
 40
0.5
 40
0.5
 40
0.5
 40
0.75
 40
0.75
 40
0.75
 40
0.75
 40
1.0
 40
1.0
 40
1.0
 40
1.0
 10
-23.357
 20
25.9507
 30
0.0
 10
-23.357
 20
26.7791
 30
0.0
 10
-24.0284
 20
27.4507
 30
0.0
 10
-24.8569
 20
27.4507
 30
0.0
 10
-24.8569
 20
27.4507
 30
0.0
 10
-25.6853
 20
27.4507
 30
0.0
 10
-26.3569
 20
26.7791
 30
0.0
 10
-26.3569
 20
25.9507
 30
0.0
 10
-26.3569
 20
25.9507
 30
0.0
 10
-26.3569
 20
25.1223
 30
0.0
 10
-25.6853
 20
24.4507
 30
0.0
 10
-24.8569
 20
24.4507
 30
0.0
 10
-24.8569
 20
24.4507
 30
0.0
 10
-24.0284
 20
24.4507
 30
0.0
 10
-23.357
 20
25.1223
 30
0.0
 10
-23.357
 20
25.9507
 30
0.0
  0
SPLINE
  5
216
330
1F
100
AcDbEntity
  8
layer 1
370
     9
100
AcDbSpline
210
0.0
220
0.0
230
1.0
 70
    11
 71
     3
 72
    20
 73
    16
 74
     0
 42
0.0000000001
 43
0.0000000001
 40
0.0
 40
0.0
 40
0.0
 40
0.0
 40
0.25
 40
0.25
 40
0.25
 40
0.25
 40
0.5
 40
0.5
 40
0.5
 40
0.5
 40
0.75
 40
0.75
 40
0.75
 40
0.75
 40
1.0
 40
1.0
 40
1.0
 40
1.0
 10
-23.357
 20
53.8915
 30
0.0
 10
-23.357
 20
54.7199
 30
0.0
 10
-24.0284
 20
55.3915
 30
0.0
 10
-24.8569
 20
55.3915
 30
0.0
 10
-24.8569
 20
55.3915
 30
0.0
 10
-25.6853
 20
55.3915
 30
0.0
 10
-26.3569
 20
54.7199
 30
0.0
 10
-26.3569
 20
53.8915
 30
0.0
 10
-26.3569
 20
53.8915
 30
0.0
 10
-26.3569
 20
53.0631
 30
0.0
 10
-25.6853
 20
52.3915
 30
0.0
 10
-24.8569
 20
52.3915
 30
0.0
 10
-24.8569
 20
52.3915
 30
0.0
 10
-24.0284
 20
52.3915
 30
0.0
 10
-23.357
 20
53.063
 30
0.0
 10
-23.357
 20
53.8915
 30
0.0
  0
SPLINE
  5
217
330
1F
100
AcDbEntity
  8
layer 1
370
     9
100
AcDbSpline
210
0.0
220
0.0
230
1.0
 70
     8
 71
     3
 72
    12
 73
     8
 74
     0
 42
0.0000000001
 43
0.0000000001
 40
0.0
 40
0.0
 40
0.0
 40
0.0
 40
0.5
 40
0.5
 40
0.5
 40
0.5
 40
1.0
 40
1.0
 40
1.0
 40
1.0
 10
-84.7745
 20
77.7197
 30
0.0
 10
-85.305
 20
77.7197
 30
0.0
 10
-85.8137
 20
77.5089
 30
0.0
 10
-86.1887
 20
77.1339
 30
0.0
 10
-86.1887
 20
77.1339
 30
0.0
 10
-86.5638
 20
76.7588
 30
0.0
 10
-86.7745
 20
76.2501
 30
0.0
 10
-86.7745
 20
75.7197
 30
0.0
  0
SPLINE
  5
218
330
1F
100
AcDbEntity
  8
layer 1
370
     9
100
AcDbSpline
210
0.0
220
0.0
230
1.0
 70
     8
 71
     3
 72
    12
 73
     8
 74
     0
 42
0.0000000001
 43
0.0000000001
 40
0.0
 40
0.0
 40
0.0
 40
0.0
 40
0.5
 40
0.5
 40
0.5
 40
0.5
 40
1.0
 40
1.0
 40
1.0
 40
1.0
 10
-94.9214
 20
74.7197
 30
0.0
 10
-95.4519
 20
74.7197
 30
0.0
 10
-95.9606
 20
74.5089
 30
0.0
 10
-96.3357
 20
74.1339
 30
0.0
 10
-96.3357
 20
74.1339
 30
0.0
 10
-96.7107
 20
73.7588
 30
0.0
 10
-96.9214
 20
73.2501
 30
0.0
 10
-96.9214
 20
72.7197
 30
0.0
  0
SPLINE
  5
219
330
1F
100
AcDbEntity
  8
layer 1
370
     9
100
AcDbSpline
210
0.0
220
0.0
230
1.0
 70
     8
 71
     3
 72
    12
 73
     8
 74
     0
 42
0.0000000001
 43
0.0000000001
 40
0.0
 40
0.0
 40
0.0
 40
0.0
 40
0.5
 40
0.5
 40
0.5
 40
0.5
 40
1.0
 40
1.0
 40
1.0
 40
1.0
 10
-96.9214
 20
17.3166
 30
0.0
 10
-96.9214
 20
16.7862
 30
0.0
 10
-96.7107
 20
16.2775
 30
0.0
 10
-96.3357
 20
15.9024
 30
0.0
 10
-96.3357
 20
15.9024
 30
0.0
 10
-95.9606
 20
15.5273
 30
0.0
 10
-95.4519
 20
15.3166
 30
0.0
 10
-94.9214
 20
15.3166
 30
0.0
  0
SPLINE
  5
21A
330
1F
100
AcDbEntity
  8
layer 1
370
     9
100
AcDbSpline
210
0.0
220
0.0
230
1.0
 70
     8
 71
     3
 72
    12
 73
     8
 74
     0
 42
0.0000000001
 43
0.0000000001
 40
0.0
 40
0.0
 40
0.0
 40
0.0
 40
0.5
 40
0.5
 40
0.5
 40
0.5
 40
1.0
 40
1.0
 40
1.0
 40
1.0
 10
-86.7745
 20
14.3166
 30
0.0
 10
-86.7745
 20
13.7862
 30
0.0
 10
-86.5638
 20
13.2775
 30
0.0
 10
-86.1887
 20
12.9024
 30
0.0
 10
-86.1887
 20
12.9024
 30
0.0
 10
-85.8137
 20
12.5273
 30
0.0
 10
-85.305
 20
12.3166
 30
0.0
 10
-84.7745
 20
12.3166
 30
0.0
  0
SPLINE
  5
21B
330
1F
100
AcDbEntity
  8
layer 1
370
     9
100
AcDbSpline
210
0.0
220
0.0
230
1.0
 70
     8
 71
     3
 72
    12
 73
     8
 74
     0
 42
0.0000000001
 43
0.0000000001
 40
0.0
 40
0.0
 40
0.0
 40
0.0
 40
0.5
 40
0.5
 40
0.5
 40
0.5
 40
1.0
 40
1.0
 40
1.0
 40
1.0
 10
-9.9717
 20
75.7197
 30
0.0
 10
-9.9717
 20
76.2501
 30
0.0
 10
-10.1824
 20
76.7588
 30
0.0
 10
-10.5575
 20
77.1339
 30
0.0
 10
-10.5575
 20
77.1339
 30
0.0
 10
-10.9326
 20
77.5089
 30
0.0
 10
-11.4413
 20
77.7197
 30
0.0
 10
-11.9717
 20
77.7197
 30
0.0
  0
SPLINE
  5
21C
330
1F
100
AcDbEntity
  8
layer 1
370
     9
100
AcDbSpline
210
0.0
220
0.0
230
1.0
 70
     8
 71
     3
 72
     8
 73
     4
 74
     0
 42
0.0000000001
 43
0.0000000001
 40
0.0
 40
0.0
 40
0.0
 40
0.0
 40
1.0
 40
1.0
 40
1.0
 40
1.0
 10
0.1752
 20
72.7197
 30
0.0
 10
0.1752
 20
73.8242
 30
0.0
 10
-0.7202
 20
74.7197
 30
0.0
 10
-1.8248
 20
74.7197
 30
0.0
  0
SPLINE
  5
21D
330
1F
100
AcDbEntity
  8
layer 1
370
     9
100
AcDbSpline
210
0.0
220
0.0
230
1.0
 70
     8
 71
     3
 72
    12
 73
     8
 74
     0
 42
0.0000000001
 43
0.0000000001
 40
0.0
 40
0.0
 40
0.0
 40
0.0
 40
0.5
 40
0.5
 40
0.5
 40
0.5
 40
1.0
 40
1.0
 40
1.0
 40
1.0
 10
-11.9717
 20
12.3166
 30
0.0
 10
-11.4413
 20
12.3166
 30
0.0
 10
-10.9326
 20
12.5273
 30
0.0
 10
-10.5575
 20
12.9024
 30
0.0
 10
-10.5575
 20
12.9024
 30
0.0
 10
-10.1824
 20
13.2775
 30
0.0
 10
-9.9717
 20
13.7862
 30
0.0
 10
-9.9717
 20
14.3166
 30
0.0
  0
SPLINE
  5
21E
330
1F
100
AcDbEntity
  8
layer 1
370
     9
100
AcDbSpline
210
0.0
220
0.0
230
1.0
 70
     8
 71
     3
 72
     8
 73
     4
 74
     0
 42
0.0000000001
 43
0.0000000001
 40
0.0
 40
0.0
 40
0.0
 40
0.0
 40
1.0
 40
1.0
 40
1.0
 40
1.0
 10
-1.8248
 20
15.3166
 30
0.0
 10
-0.7202
 20
15.3166
 30
0.0
 10
0.1752
 20
16.212
 30
0.0
 10
0.1752
 20
17.3166
 30
0.0
  0
SPLINE
  5
21F
330
1F
100
AcDbEntity
  8
layer 1
370
     9
100
AcDbSpline
210
0.0
220
0.0
230
1.0
 70
    24
 71
     3
 72
     8
 73
     4
 74
     0
 42
0.0000000001
 43
0.0000000001
 40
0.0
 40
0.0
 40
0.0
 40
0.0
 40
1.0
 40
1.0
 40
1.0
 40
1.0
 10
0.1752
 20
-50.4482
 30
0.0
 10
0.1752
 20
-50.4482
 30
0.0
 10
0.1752
 20
4.9549
 30
0.0
 10
0.1752
 20
4.9549
 30
0.0
  0
SPLINE
  5
220
330
1F
100
AcDbEntity
  8
layer 1
370
     9
100
AcDbSpline
210
0.0
220
0.0
230
1.0
 70
    24
 71
     3
 72
     8
 73
     4
 74
     0
 42
0.0000000001
 43
0.0000000001
 40
0.0
 40
0.0
 40
0.0
 40
0.0
 40
1.0
 40
1.0
 40
1.0
 40
1.0
 10
-11.9717
 20
9.9549
 30
0.0
 10
-11.9717
 20
9.9549
 30
0.0
 10
-84.7745
 20
9.9549
 30
0.0
 10
-84.7745
 20
9.9549
 30
0.0
  0
SPLINE
  5
221
330
1F
100
AcDbEntity
  8
layer 1
370
     9
100
AcDbSpline
210
0.0
220
0.0
230
1.0
 70
    27
 71
     3
 72
     8
 73
     4
 74
     0
 42
0.0000000001
 43
0.0000000001
 40
0.0
 40
0.0
 40
0.0
 40
0.0
 40
1.0
 40
1.0
 40
1.0
 40
1.0
 10
-96.9214
 20
4.9549
 30
0.0
 10
-96.9214
 20
4.9549
 30
0.0
 10
-96.9214
 20
4.9549
 30
0.0
 10
-96.9214
 20
4.9549
 30
0.0
  0
SPLINE
  5
222
330
1F
100
AcDbEntity
  8
layer 1
370
     9
100
AcDbSpline
210
0.0
220
0.0
230
1.0
 70
    24
 71
     3
 72
     8
 73
     4
 74
     0
 42
0.0000000001
 43
0.0000000001
 40
0.0
 40
0.0
 40
0.0
 40
0.0
 40
1.0
 40
1.0
 40
1.0
 40
1.0
 10
-96.9214
 20
4.9549
 30
0.0
 10
-96.9214
 20
4.9549
 30
0.0
 10
-96.9214
 20
-8.182
 30
0.0
 10
-96.9214
 20
-8.182
 30
0.0
  0
SPLINE
  5
223
330
1F
100
AcDbEntity
  8
layer 1
370
     9
100
AcDbSpline
210
0.0
220
0.0
230
1.0
 70
    27
 71
     3
 72
     8
 73
     4
 74
     0
 42
0.0000000001
 43
0.0000000001
 40
0.0
 40
0.0
 40
0.0
 40
0.0
 40
1.0
 40
1.0
 40
1.0
 40
1.0
 10
-11.9717
 20
-55.4482
 30
0.0
 10
-11.9717
 20
-55.4482
 30
0.0
 10
-11.9717
 20
-55.4482
 30
0.0
 10
-11.9717
 20
-55.4482
 30
0.0
  0
SPLINE
  5
224
330
1F
100
AcDbEntity
  8
layer 1
370
     9
100
AcDbSpline
210
0.0
220
0.0
230
1.0
 70
    24
 71
     3
 72
     8
 73
     4
 74
     0
 42
0.0000000001
 43
0.0000000001
 40
0.0
 40
0.0
 40
0.0
 40
0.0
 40
1.0
 40
1.0
 40
1.0
 40
1.0
 10
-84.7745
 20
-55.4482
 30
0.0
 10
-84.7745
 20
-55.4482
 30
0.0
 10
-11.9717
 20
-55.4482
 30
0.0
 10
-11.9717
 20
-55.4482
 30
0.0
  0
SPLINE
  5
225
330
1F
100
AcDbEntity
  8
layer 1
370
     9
100
AcDbSpline
210
0.0
220
0.0
230
1.0
 70
    11
 71
     3
 72
    20
 73
    16
 74
     0
 42
0.0000000001
 43
0.0000000001
 40
0.0
 40
0.0
 40
0.0
 40
0.0
 40
0.25
 40
0.25
 40
0.25
 40
0.25
 40
0.5
 40
0.5
 40
0.5
 40
0.5
 40
0.75
 40
0.75
 40
0.75
 40
0.75
 40
1.0
 40
1.0
 40
1.0
 40
1.0
 10
-74.1574
 20
1.3937
 30
0.0
 10
-74.1574
 20
2.2222
 30
0.0
 10
-74.829
 20
2.8937
 30
0.0
 10
-75.6574
 20
2.8937
 30
0.0
 10
-75.6574
 20
2.8937
 30
0.0
 10
-76.4858
 20
2.8937
 30
0.0
 10
-77.1574
 20
2.2222
 30
0.0
 10
-77.1574
 20
1.3937
 30
0.0
 10
-77.1574
 20
1.3937
 30
0.0
 10
-77.1574
 20
0.5653
 30
0.0
 10
-76.4858
 20
-0.1063
 30
0.0
 10
-75.6574
 20
-0.1063
 30
0.0
 10
-75.6574
 20
-0.1063
 30
0.0
 10
-74.829
 20
-0.1063
 30
0.0
 10
-74.1574
 20
0.5653
 30
0.0
 10
-74.1574
 20
1.3937
 30
0.0
  0
SPLINE
  5
226
330
1F
100
AcDbEntity
  8
layer 1
370
     9
100
AcDbSpline
210
0.0
220
0.0
230
1.0
 70
    11
 71
     3
 72
    20
 73
    16
 74
     0
 42
0.0000000001
 43
0.0000000001
 40
0.0
 40
0.0
 40
0.0
 40
0.0
 40
0.25
 40
0.25
 40
0.25
 40
0.25
 40
0.5
 40
0.5
 40
0.5
 40
0.5
 40
0.75
 40
0.75
 40
0.75
 40
0.75
 40
1.0
 40
1.0
 40
1.0
 40
1.0
 10
-23.357
 20
-41.8141
 30
0.0
 10
-23.357
 20
-40.9857
 30
0.0
 10
-24.0284
 20
-40.3141
 30
0.0
 10
-24.8569
 20
-40.3141
 30
0.0
 10
-24.8569
 20
-40.3141
 30
0.0
 10
-25.6853
 20
-40.3141
 30
0.0
 10
-26.3569
 20
-40.9857
 30
0.0
 10
-26.3569
 20
-41.8141
 30
0.0
 10
-26.3569
 20
-41.8141
 30
0.0
 10
-26.3569
 20
-42.6426
 30
0.0
 10
-25.6853
 20
-43.3141
 30
0.0
 10
-24.8569
 20
-43.3141
 30
0.0
 10
-24.8569
 20
-43.3141
 30
0.0
 10
-24.0284
 20
-43.3141
 30
0.0
 10
-23.357
 20
-42.6426
 30
0.0
 10
-23.357
 20
-41.8141
 30
0.0
  0
SPLINE
  5
227
330
1F
100
AcDbEntity
  8
layer 1
370
     9
100
AcDbSpline
210
0.0
220
0.0
230
1.0
 70
    11
 71
     3
 72
    20
 73
    16
 74
     0
 42
0.0000000001
 43
0.0000000001
 40
0.0
 40
0.0
 40
0.0
 40
0.0
 40
0.25
 40
0.25
 40
0.25
 40
0.25
 40
0.5
 40
0.5
 40
0.5
 40
0.5
 40
0.75
 40
0.75
 40
0.75
 40
0.75
 40
1.0
 40
1.0
 40
1.0
 40
1.0
 10
-23.357
 20
-13.8733
 30
0.0
 10
-23.357
 20
-13.0448
 30
0.0
 10
-24.0284
 20
-12.3733
 30
0.0
 10
-24.8569
 20
-12.3733
 30
0.0
 10
-24.8569
 20
-12.3733
 30
0.0
 10
-25.6853
 20
-12.3733
 30
0.0
 10
-26.3569
 20
-13.0448
 30
0.0
 10
-26.3569
 20
-13.8732
 30
0.0
 10
-26.3569
 20
-13.8732
 30
0.0
 10
-26.3569
 20
-14.7017
 30
0.0
 10
-25.6853
 20
-15.3732
 30
0.0
 10
-24.8569
 20
-15.3733
 30
0.0
 10
-24.8569
 20
-15.3733
 30
0.0
 10
-24.0284
 20
-15.3733
 30
0.0
 10
-23.357
 20
-14.7017
 30
0.0
 10
-23.357
 20
-13.8733
 30
0.0
  0
SPLINE
  5
228
330
1F
100
AcDbEntity
  8
layer 1
370
     9
100
AcDbSpline
210
0.0
220
0.0
230
1.0
 70
     8
 71
     3
 72
    12
 73
     8
 74
     0
 42
0.0000000001
 43
0.0000000001
 40
0.0
 40
0.0
 40
0.0
 40
0.0
 40
0.5
 40
0.5
 40
0.5
 40
0.5
 40
1.0
 40
1.0
 40
1.0
 40
1.0
 10
-84.7745
 20
9.9549
 30
0.0
 10
-85.305
 20
9.9549
 30
0.0
 10
-85.8137
 20
9.7442
 30
0.0
 10
-86.1887
 20
9.3691
 30
0.0
 10
-86.1887
 20
9.3691
 30
0.0
 10
-86.5638
 20
8.9941
 30
0.0
 10
-86.7745
 20
8.4854
 30
0.0
 10
-86.7745
 20
7.9549
 30
0.0
  0
SPLINE
  5
229
330
1F
100
AcDbEntity
  8
layer 1
370
     9
100
AcDbSpline
210
0.0
220
0.0
230
1.0
 70
     8
 71
     3
 72
    12
 73
     8
 74
     0
 42
0.0000000001
 43
0.0000000001
 40
0.0
 40
0.0
 40
0.0
 40
0.0
 40
0.5
 40
0.5
 40
0.5
 40
0.5
 40
1.0
 40
1.0
 40
1.0
 40
1.0
 10
-94.9214
 20
6.9549
 30
0.0
 10
-95.4519
 20
6.9549
 30
0.0
 10
-95.9606
 20
6.7442
 30
0.0
 10
-96.3357
 20
6.3691
 30
0.0
 10
-96.3357
 20
6.3691
 30
0.0
 10
-96.7107
 20
5.9941
 30
0.0
 10
-96.9214
 20
5.4854
 30
0.0
 10
-96.9214
 20
4.9549
 30
0.0
  0
SPLINE
  5
22A
330
1F
100
AcDbEntity
  8
layer 1
370
     9
100
AcDbSpline
210
0.0
220
0.0
230
1.0
 70
     8
 71
     3
 72
    12
 73
     8
 74
     0
 42
0.0000000001
 43
0.0000000001
 40
0.0
 40
0.0
 40
0.0
 40
0.0
 40
0.5
 40
0.5
 40
0.5
 40
0.5
 40
1.0
 40
1.0
 40
1.0
 40
1.0
 10
-96.9214
 20
-50.4482
 30
0.0
 10
-96.9214
 20
-50.9787
 30
0.0
 10
-96.7107
 20
-51.4874
 30
0.0
 10
-96.3357
 20
-51.8624
 30
0.0
 10
-96.3357
 20
-51.8624
 30
0.0
 10
-95.9606
 20
-52.2375
 30
0.0
 10
-95.4519
 20
-52.4482
 30
0.0
 10
-94.9214
 20
-52.4482
 30
0.0
  0
SPLINE
  5
22B
330
1F
100
AcDbEntity
  8
layer 1
370
     9
100
AcDbSpline
210
0.0
220
0.0
230
1.0
 70
     8
 71
     3
 72
    12
 73
     8
 74
     0
 42
0.0000000001
 43
0.0000000001
 40
0.0
 40
0.0
 40
0.0
 40
0.0
 40
0.5
 40
0.5
 40
0.5
 40
0.5
 40
1.0
 40
1.0
 40
1.0
 40
1.0
 10
-86.7745
 20
-53.4482
 30
0.0
 10
-86.7745
 20
-53.9787
 30
0.0
 10
-86.5638
 20
-54.4874
 30
0.0
 10
-86.1887
 20
-54.8624
 30
0.0
 10
-86.1887
 20
-54.8624
 30
0.0
 10
-85.8137
 20
-55.2375
 30
0.0
 10
-85.305
 20
-55.4482
 30
0.0
 10
-84.7745
 20
-55.4482
 30
0.0
  0
SPLINE
  5
22C
330
1F
100
AcDbEntity
  8
layer 1
370
     9
100
AcDbSpline
210
0.0
220
0.0
230
1.0
 70
     8
 71
     3
 72
    12
 73
     8
 74
     0
 42
0.0000000001
 43
0.0000000001
 40
0.0
 40
0.0
 40
0.0
 40
0.0
 40
0.5
 40
0.5
 40
0.5
 40
0.5
 40
1.0
 40
1.0
 40
1.0
 40
1.0
 10
-9.9717
 20
7.9549
 30
0.0
 10
-9.9717
 20
8.4854
 30
0.0
 10
-10.1824
 20
8.9941
 30
0.0
 10
-10.5575
 20
9.3691
 30
0.0
 10
-10.5575
 20
9.3691
 30
0.0
 10
-10.9326
 20
9.7442
 30
0.0
 10
-11.4413
 20
9.9549
 30
0.0
 10
-11.9717
 20
9.9549
 30
0.0
  0
SPLINE
  5
22D
330
1F
100
AcDbEntity
  8
layer 1
370
     9
100
AcDbSpline
210
0.0
220
0.0
230
1.0
 70
     8
 71
     3
 72
    12
 73
     8
 74
     0
 42
0.0000000001
 43
0.0000000001
 40
0.0
 40
0.0
 40
0.0
 40
0.0
 40
0.5
 40
0.5
 40
0.5
 40
0.5
 40
1.0
 40
1.0
 40
1.0
 40
1.0
 10
0.1752
 20
4.9549
 30
0.0
 10
0.1752
 20
5.4854
 30
0.0
 10
-0.0355
 20
5.9941
 30
0.0
 10
-0.4106
 20
6.3691
 30
0.0
 10
-0.4106
 20
6.3691
 30
0.0
 10
-0.7856
 20
6.7442
 30
0.0
 10
-1.2944
 20
6.9549
 30
0.0
 10
-1.8248
 20
6.9549
 30
0.0
  0
SPLINE
  5
22E
330
1F
100
AcDbEntity
  8
layer 1
370
     9
100
AcDbSpline
210
0.0
220
0.0
230
1.0
 70
     8
 71
     3
 72
    12
 73
     8
 74
     0
 42
0.0000000001
 43
0.0000000001
 40
0.0
 40
0.0
 40
0.0
 40
0.0
 40
0.5
 40
0.5
 40
0.5
 40
0.5
 40
1.0
 40
1.0
 40
1.0
 40
1.0
 10
-11.9717
 20
-55.4482
 30
0.0
 10
-11.4413
 20
-55.4482
 30
0.0
 10
-10.9326
 20
-55.2375
 30
0.0
 10
-10.5575
 20
-54.8624
 30
0.0
 10
-10.5575
 20
-54.8624
 30
0.0
 10
-10.1824
 20
-54.4874
 30
0.0
 10
-9.9717
 20
-53.9787
 30
0.0
 10
-9.9717
 20
-53.4482
 30
0.0
  0
SPLINE
  5
22F
330
1F
100
AcDbEntity
  8
layer 1
370
     9
100
AcDbSpline
210
0.0
220
0.0
230
1.0
 70
     8
 71
     3
 72
     8
 73
     4
 74
     0
 42
0.0000000001
 43
0.0000000001
 40
0.0
 40
0.0
 40
0.0
 40
0.0
 40
1.0
 40
1.0
 40
1.0
 40
1.0
 10
-1.8248
 20
-52.4482
 30
0.0
 10
-0.7202
 20
-52.4482
 30
0.0
 10
0.1752
 20
-51.5528
 30
0.0
 10
0.1752
 20
-50.4482
 30
0.0
  0
SPLINE
  5
230
330
1F
100
AcDbEntity
  8
layer 1
370
     9
100
AcDbSpline
210
0.0
220
0.0
230
1.0
 70
    27
 71
     3
 72
     8
 73
     4
 74
     0
 42
0.0000000001
 43
0.0000000001
 40
0.0
 40
0.0
 40
0.0
 40
0.0
 40
1.0
 40
1.0
 40
1.0
 40
1.0
 10
-96.9214
 20
-31.2543
 30
0.0
 10
-96.9214
 20
-31.2543
 30
0.0
 10
-96.9214
 20
-31.2543
 30
0.0
 10
-96.9214
 20
-31.2543
 30
0.0
  0
SPLINE
  5
231
330
1F
100
AcDbEntity
  8
layer 1
370
     9
100
AcDbSpline
210
0.0
220
0.0
230
1.0
 70
    24
 71
     3
 72
     8
 73
     4
 74
     0
 42
0.0000000001
 43
0.0000000001
 40
0.0
 40
0.0
 40
0.0
 40
0.0
 40
1.0
 40
1.0
 40
1.0
 40
1.0
 10
-96.9214
 20
-31.2543
 30
0.0
 10
-96.9214
 20
-31.2543
 30
0.0
 10
-96.9214
 20
-50.4482
 30
0.0
 10
-96.9214
 20
-50.4482
 30
0.0
  0
SPLINE
  5
232
330
1F
100
AcDbEntity
  8
layer 1
370
     9
100
AcDbSpline
210
0.0
220
0.0
230
1.0
 70
    27
 71
     3
 72
     8
 73
     4
 74
     0
 42
0.0000000001
 43
0.0000000001
 40
0.0
 40
0.0
 40
0.0
 40
0.0
 40
1.0
 40
1.0
 40
1.0
 40
1.0
 10
-93.9214
 20
-47.7846
 30
0.0
 10
-93.9214
 20
-47.7846
 30
0.0
 10
-93.9214
 20
-47.7846
 30
0.0
 10
-93.9214
 20
-47.7846
 30
0.0
  0
SPLINE
  5
233
330
1F
100
AcDbEntity
  8
layer 1
370
     9
100
AcDbSpline
210
0.0
220
0.0
230
1.0
 70
    24
 71
     3
 72
     8
 73
     4
 74
     0
 42
0.0000000001
 43
0.0000000001
 40
0.0
 40
0.0
 40
0.0
 40
0.0
 40
1.0
 40
1.0
 40
1.0
 40
1.0
 10
-93.9214
 20
-52.4482
 30
0.0
 10
-93.9214
 20
-52.4482
 30
0.0
 10
-93.9214
 20
-47.7846
 30
0.0
 10
-93.9214
 20
-47.7846
 30
0.0
  0
SPLINE
  5
234
330
1F
100
AcDbEntity
  8
layer 1
370
     9
100
AcDbSpline
210
0.0
220
0.0
230
1.0
 70
    27
 71
     3
 72
     8
 73
     4
 74
     0
 42
0.0000000001
 43
0.0000000001
 40
0.0
 40
0.0
 40
0.0
 40
0.0
 40
1.0
 40
1.0
 40
1.0
 40
1.0
 10
-90.9214
 20
-47.7846
 30
0.0
 10
-90.9214
 20
-47.7846
 30
0.0
 10
-90.9214
 20
-47.7846
 30
0.0
 10
-90.9214
 20
-47.7846
 30
0.0
  0
SPLINE
  5
235
330
1F
100
AcDbEntity
  8
layer 1
370
     9
100
AcDbSpline
210
0.0
220
0.0
230
1.0
 70
    24
 71
     3
 72
     8
 73
     4
 74
     0
 42
0.0000000001
 43
0.0000000001
 40
0.0
 40
0.0
 40
0.0
 40
0.0
 40
1.0
 40
1.0
 40
1.0
 40
1.0
 10
-93.9214
 20
-47.7846
 30
0.0
 10
-93.9214
 20
-47.7846
 30
0.0
 10
-90.9214
 20
-47.7846
 30
0.0
 10
-90.9214
 20
-47.7846
 30
0.0
  0
SPLINE
  5
236
330
1F
100
AcDbEntity
  8
layer 1
370
     9
100
AcDbSpline
210
0.0
220
0.0
230
1.0
 70
    27
 71
     3
 72
     8
 73
     4
 74
     0
 42
0.0000000001
 43
0.0000000001
 40
0.0
 40
0.0
 40
0.0
 40
0.0
 40
1.0
 40
1.0
 40
1.0
 40
1.0
 10
-90.9214
 20
-47.7846
 30
0.0
 10
-90.9214
 20
-47.7846
 30
0.0
 10
-90.9214
 20
-47.7846
 30
0.0
 10
-90.9214
 20
-47.7846
 30
0.0
  0
SPLINE
  5
237
330
1F
100
AcDbEntity
  8
layer 1
370
     9
100
AcDbSpline
210
0.0
220
0.0
230
1.0
 70
    24
 71
     3
 72
     8
 73
     4
 74
     0
 42
0.0000000001
 43
0.0000000001
 40
0.0
 40
0.0
 40
0.0
 40
0.0
 40
1.0
 40
1.0
 40
1.0
 40
1.0
 10
-90.9214
 20
-47.7846
 30
0.0
 10
-90.9214
 20
-47.7846
 30
0.0
 10
-90.9214
 20
-52.4482
 30
0.0
 10
-90.9214
 20
-52.4482
 30
0.0
  0
SPLINE
  5
238
330
1F
100
AcDbEntity
  8
layer 1
370
     9
100
AcDbSpline
210
0.0
220
0.0
230
1.0
 70
    27
 71
     3
 72
     8
 73
     4
 74
     0
 42
0.0000000001
 43
0.0000000001
 40
0.0
 40
0.0
 40
0.0
 40
0.0
 40
1.0
 40
1.0
 40
1.0
 40
1.0
 10
-86.7745
 20
-52.4482
 30
0.0
 10
-86.7745
 20
-52.4482
 30
0.0
 10
-86.7745
 20
-52.4482
 30
0.0
 10
-86.7745
 20
-52.4482
 30
0.0
  0
SPLINE
  5
239
330
1F
100
AcDbEntity
  8
layer 1
370
     9
100
AcDbSpline
210
0.0
220
0.0
230
1.0
 70
    24
 71
     3
 72
     8
 73
     4
 74
     0
 42
0.0000000001
 43
0.0000000001
 40
0.0
 40
0.0
 40
0.0
 40
0.0
 40
1.0
 40
1.0
 40
1.0
 40
1.0
 10
-90.9214
 20
-52.4482
 30
0.0
 10
-90.9214
 20
-52.4482
 30
0.0
 10
-86.7745
 20
-52.4482
 30
0.0
 10
-86.7745
 20
-52.4482
 30
0.0
  0
SPLINE
  5
23A
330
1F
100
AcDbEntity
  8
layer 1
370
     9
100
AcDbSpline
210
0.0
220
0.0
230
1.0
 70
    27
 71
     3
 72
     8
 73
     4
 74
     0
 42
0.0000000001
 43
0.0000000001
 40
0.0
 40
0.0
 40
0.0
 40
0.0
 40
1.0
 40
1.0
 40
1.0
 40
1.0
 10
-86.7745
 20
-52.4482
 30
0.0
 10
-86.7745
 20
-52.4482
 30
0.0
 10
-86.7745
 20
-52.4482
 30
0.0
 10
-86.7745
 20
-52.4482
 30
0.0
  0
SPLINE
  5
23B
330
1F
100
AcDbEntity
  8
layer 1
370
     9
100
AcDbSpline
210
0.0
220
0.0
230
1.0
 70
    24
 71
     3
 72
     8
 73
     4
 74
     0
 42
0.0000000001
 43
0.0000000001
 40
0.0
 40
0.0
 40
0.0
 40
0.0
 40
1.0
 40
1.0
 40
1.0
 40
1.0
 10
-86.7745
 20
-52.4482
 30
0.0
 10
-86.7745
 20
-52.4482
 30
0.0
 10
-86.7745
 20
-53.4482
 30
0.0
 10
-86.7745
 20
-53.4482
 30
0.0
  0
SPLINE
  5
23C
330
1F
100
AcDbEntity
  8
layer 1
370
     9
100
AcDbSpline
210
0.0
220
0.0
230
1.0
 70
    24
 71
     3
 72
     8
 73
     4
 74
     0
 42
0.0000000001
 43
0.0000000001
 40
0.0
 40
0.0
 40
0.0
 40
0.0
 40
1.0
 40
1.0
 40
1.0
 40
1.0
 10
-9.9717
 20
-53.4482
 30
0.0
 10
-9.9717
 20
-53.4482
 30
0.0
 10
-9.9717
 20
-52.4482
 30
0.0
 10
-9.9717
 20
-52.4482
 30
0.0
  0
SPLINE
  5
23D
330
1F
100
AcDbEntity
  8
layer 1
370
     9
100
AcDbSpline
210
0.0
220
0.0
230
1.0
 70
    24
 71
     3
 72
     8
 73
     4
 74
     0
 42
0.0000000001
 43
0.0000000001
 40
0.0
 40
0.0
 40
0.0
 40
0.0
 40
1.0
 40
1.0
 40
1.0
 40
1.0
 10
-9.9717
 20
-52.4482
 30
0.0
 10
-9.9717
 20
-52.4482
 30
0.0
 10
-1.8248
 20
-52.4482
 30
0.0
 10
-1.8248
 20
-52.4482
 30
0.0
  0
SPLINE
  5
23E
330
1F
100
AcDbEntity
  8
layer 1
370
     9
100
AcDbSpline
210
0.0
220
0.0
230
1.0
 70
    24
 71
     3
 72
     8
 73
     4
 74
     0
 42
0.0000000001
 43
0.0000000001
 40
0.0
 40
0.0
 40
0.0
 40
0.0
 40
1.0
 40
1.0
 40
1.0
 40
1.0
 10
-1.8248
 20
6.9549
 30
0.0
 10
-1.8248
 20
6.9549
 30
0.0
 10
-9.9717
 20
6.9549
 30
0.0
 10
-9.9717
 20
6.9549
 30
0.0
  0
SPLINE
  5
23F
330
1F
100
AcDbEntity
  8
layer 1
370
     9
100
AcDbSpline
210
0.0
220
0.0
230
1.0
 70
    24
 71
     3
 72
     8
 73
     4
 74
     0
 42
0.0000000001
 43
0.0000000001
 40
0.0
 40
0.0
 40
0.0
 40
0.0
 40
1.0
 40
1.0
 40
1.0
 40
1.0
 10
-9.9717
 20
6.9549
 30
0.0
 10
-9.9717
 20
6.9549
 30
0.0
 10
-9.9717
 20
7.9549
 30
0.0
 10
-9.9717
 20
7.9549
 30
0.0
  0
SPLINE
  5
240
330
1F
100
AcDbEntity
  8
layer 1
370
     9
100
AcDbSpline
210
0.0
220
0.0
230
1.0
 70
    27
 71
     3
 72
     8
 73
     4
 74
     0
 42
0.0000000001
 43
0.0000000001
 40
0.0
 40
0.0
 40
0.0
 40
0.0
 40
1.0
 40
1.0
 40
1.0
 40
1.0
 10
-86.7745
 20
7.9549
 30
0.0
 10
-86.7745
 20
7.9549
 30
0.0
 10
-86.7745
 20
7.9549
 30
0.0
 10
-86.7745
 20
7.9549
 30
0.0
  0
SPLINE
  5
241
330
1F
100
AcDbEntity
  8
layer 1
370
     9
100
AcDbSpline
210
0.0
220
0.0
230
1.0
 70
    24
 71
     3
 72
     8
 73
     4
 74
     0
 42
0.0000000001
 43
0.0000000001
 40
0.0
 40
0.0
 40
0.0
 40
0.0
 40
1.0
 40
1.0
 40
1.0
 40
1.0
 10
-86.7745
 20
7.9549
 30
0.0
 10
-86.7745
 20
7.9549
 30
0.0
 10
-86.7745
 20
6.9549
 30
0.0
 10
-86.7745
 20
6.9549
 30
0.0
  0
SPLINE
  5
242
330
1F
100
AcDbEntity
  8
layer 1
370
     9
100
AcDbSpline
210
0.0
220
0.0
230
1.0
 70
    27
 71
     3
 72
     8
 73
     4
 74
     0
 42
0.0000000001
 43
0.0000000001
 40
0.0
 40
0.0
 40
0.0
 40
0.0
 40
1.0
 40
1.0
 40
1.0
 40
1.0
 10
-86.7745
 20
6.9549
 30
0.0
 10
-86.7745
 20
6.9549
 30
0.0
 10
-86.7745
 20
6.9549
 30
0.0
 10
-86.7745
 20
6.9549
 30
0.0
  0
SPLINE
  5
243
330
1F
100
AcDbEntity
  8
layer 1
370
     9
100
AcDbSpline
210
0.0
220
0.0
230
1.0
 70
    24
 71
     3
 72
     8
 73
     4
 74
     0
 42
0.0000000001
 43
0.0000000001
 40
0.0
 40
0.0
 40
0.0
 40
0.0
 40
1.0
 40
1.0
 40
1.0
 40
1.0
 10
-86.7745
 20
6.9549
 30
0.0
 10
-86.7745
 20
6.9549
 30
0.0
 10
-90.9214
 20
6.9549
 30
0.0
 10
-90.9214
 20
6.9549
 30
0.0
  0
SPLINE
  5
244
330
1F
100
AcDbEntity
  8
layer 1
370
     9
100
AcDbSpline
210
0.0
220
0.0
230
1.0
 70
    27
 71
     3
 72
     8
 73
     4
 74
     0
 42
0.0000000001
 43
0.0000000001
 40
0.0
 40
0.0
 40
0.0
 40
0.0
 40
1.0
 40
1.0
 40
1.0
 40
1.0
 10
-90.9214
 20
6.9549
 30
0.0
 10
-90.9214
 20
6.9549
 30
0.0
 10
-90.9214
 20
6.9549
 30
0.0
 10
-90.9214
 20
6.9549
 30
0.0
  0
SPLINE
  5
245
330
1F
100
AcDbEntity
  8
layer 1
370
     9
100
AcDbSpline
210
0.0
220
0.0
230
1.0
 70
    24
 71
     3
 72
     8
 73
     4
 74
     0
 42
0.0000000001
 43
0.0000000001
 40
0.0
 40
0.0
 40
0.0
 40
0.0
 40
1.0
 40
1.0
 40
1.0
 40
1.0
 10
-90.9214
 20
6.9549
 30
0.0
 10
-90.9214
 20
6.9549
 30
0.0
 10
-90.9214
 20
1.9549
 30
0.0
 10
-90.9214
 20
1.9549
 30
0.0
  0
SPLINE
  5
246
330
1F
100
AcDbEntity
  8
layer 1
370
     9
100
AcDbSpline
210
0.0
220
0.0
230
1.0
 70
    27
 71
     3
 72
     8
 73
     4
 74
     0
 42
0.0000000001
 43
0.0000000001
 40
0.0
 40
0.0
 40
0.0
 40
0.0
 40
1.0
 40
1.0
 40
1.0
 40
1.0
 10
-90.9214
 20
1.9549
 30
0.0
 10
-90.9214
 20
1.9549
 30
0.0
 10
-90.9214
 20
1.9549
 30
0.0
 10
-90.9214
 20
1.9549
 30
0.0
  0
SPLINE
  5
247
330
1F
100
AcDbEntity
  8
layer 1
370
     9
100
AcDbSpline
210
0.0
220
0.0
230
1.0
 70
    24
 71
     3
 72
     8
 73
     4
 74
     0
 42
0.0000000001
 43
0.0000000001
 40
0.0
 40
0.0
 40
0.0
 40
0.0
 40
1.0
 40
1.0
 40
1.0
 40
1.0
 10
-90.9214
 20
1.9549
 30
0.0
 10
-90.9214
 20
1.9549
 30
0.0
 10
-93.9214
 20
1.9549
 30
0.0
 10
-93.9214
 20
1.9549
 30
0.0
  0
SPLINE
  5
248
330
1F
100
AcDbEntity
  8
layer 1
370
     9
100
AcDbSpline
210
0.0
220
0.0
230
1.0
 70
    27
 71
     3
 72
     8
 73
     4
 74
     0
 42
0.0000000001
 43
0.0000000001
 40
0.0
 40
0.0
 40
0.0
 40
0.0
 40
1.0
 40
1.0
 40
1.0
 40
1.0
 10
-93.9214
 20
6.9549
 30
0.0
 10
-93.9214
 20
6.9549
 30
0.0
 10
-93.9214
 20
6.9549
 30
0.0
 10
-93.9214
 20
6.9549
 30
0.0
  0
SPLINE
  5
249
330
1F
100
AcDbEntity
  8
layer 1
370
     9
100
AcDbSpline
210
0.0
220
0.0
230
1.0
 70
    24
 71
     3
 72
     8
 73
     4
 74
     0
 42
0.0000000001
 43
0.0000000001
 40
0.0
 40
0.0
 40
0.0
 40
0.0
 40
1.0
 40
1.0
 40
1.0
 40
1.0
 10
-93.9214
 20
1.9549
 30
0.0
 10
-93.9214
 20
1.9549
 30
0.0
 10
-93.9214
 20
6.9549
 30
0.0
 10
-93.9214
 20
6.9549
 30
0.0
  0
SPLINE
  5
24A
330
1F
100
AcDbEntity
  8
layer 1
370
     9
100
AcDbSpline
210
0.0
220
0.0
230
1.0
 70
    27
 71
     3
 72
     8
 73
     4
 74
     0
 42
0.0000000001
 43
0.0000000001
 40
0.0
 40
0.0
 40
0.0
 40
0.0
 40
1.0
 40
1.0
 40
1.0
 40
1.0
 10
-93.9214
 20
6.9549
 30
0.0
 10
-93.9214
 20
6.9549
 30
0.0
 10
-93.9214
 20
6.9549
 30
0.0
 10
-93.9214
 20
6.9549
 30
0.0
  0
SPLINE
  5
24B
330
1F
100
AcDbEntity
  8
layer 1
370
     9
100
AcDbSpline
210
0.0
220
0.0
230
1.0
 70
    24
 71
     3
 72
     8
 73
     4
 74
     0
 42
0.0000000001
 43
0.0000000001
 40
0.0
 40
0.0
 40
0.0
 40
0.0
 40
1.0
 40
1.0
 40
1.0
 40
1.0
 10
-93.9214
 20
6.9549
 30
0.0
 10
-93.9214
 20
6.9549
 30
0.0
 10
-94.9214
 20
6.9549
 30
0.0
 10
-94.9214
 20
6.9549
 30
0.0
  0
SPLINE
  5
24C
330
1F
100
AcDbEntity
  8
layer 1
370
     9
100
AcDbSpline
210
0.0
220
0.0
230
1.0
 70
    27
 71
     3
 72
     8
 73
     4
 74
     0
 42
0.0000000001
 43
0.0000000001
 40
0.0
 40
0.0
 40
0.0
 40
0.0
 40
1.0
 40
1.0
 40
1.0
 40
1.0
 10
-87.9214
 20
-10.182
 30
0.0
 10
-87.9214
 20
-10.182
 30
0.0
 10
-87.9214
 20
-10.182
 30
0.0
 10
-87.9214
 20
-10.182
 30
0.0
  0
SPLINE
  5
24D
330
1F
100
AcDbEntity
  8
layer 1
370
     9
100
AcDbSpline
210
0.0
220
0.0
230
1.0
 70
    24
 71
     3
 72
     8
 73
     4
 74
     0
 42
0.0000000001
 43
0.0000000001
 40
0.0
 40
0.0
 40
0.0
 40
0.0
 40
1.0
 40
1.0
 40
1.0
 40
1.0
 10
-94.9214
 20
-10.182
 30
0.0
 10
-94.9214
 20
-10.182
 30
0.0
 10
-87.9214
 20
-10.182
 30
0.0
 10
-87.9214
 20
-10.182
 30
0.0
  0
SPLINE
  5
24E
330
1F
100
AcDbEntity
  8
layer 1
370
     9
100
AcDbSpline
210
0.0
220
0.0
230
1.0
 70
    27
 71
     3
 72
     8
 73
     4
 74
     0
 42
0.0000000001
 43
0.0000000001
 40
0.0
 40
0.0
 40
0.0
 40
0.0
 40
1.0
 40
1.0
 40
1.0
 40
1.0
 10
-85.9214
 20
-12.182
 30
0.0
 10
-85.9214
 20
-12.182
 30
0.0
 10
-85.9214
 20
-12.182
 30
0.0
 10
-85.9214
 20
-12.182
 30
0.0
  0
SPLINE
  5
24F
330
1F
100
AcDbEntity
  8
layer 1
370
     9
100
AcDbSpline
210
0.0
220
0.0
230
1.0
 70
    24
 71
     3
 72
     8
 73
     4
 74
     0
 42
0.0000000001
 43
0.0000000001
 40
0.0
 40
0.0
 40
0.0
 40
0.0
 40
1.0
 40
1.0
 40
1.0
 40
1.0
 10
-85.9214
 20
-27.2543
 30
0.0
 10
-85.9214
 20
-27.2543
 30
0.0
 10
-85.9214
 20
-12.182
 30
0.0
 10
-85.9214
 20
-12.182
 30
0.0
  0
SPLINE
  5
250
330
1F
100
AcDbEntity
  8
layer 1
370
     9
100
AcDbSpline
210
0.0
220
0.0
230
1.0
 70
    27
 71
     3
 72
     8
 73
     4
 74
     0
 42
0.0000000001
 43
0.0000000001
 40
0.0
 40
0.0
 40
0.0
 40
0.0
 40
1.0
 40
1.0
 40
1.0
 40
1.0
 10
-87.9214
 20
-29.2543
 30
0.0
 10
-87.9214
 20
-29.2543
 30
0.0
 10
-87.9214
 20
-29.2543
 30
0.0
 10
-87.9214
 20
-29.2543
 30
0.0
  0
SPLINE
  5
251
330
1F
100
AcDbEntity
  8
layer 1
370
     9
100
AcDbSpline
210
0.0
220
0.0
230
1.0
 70
    24
 71
     3
 72
     8
 73
     4
 74
     0
 42
0.0000000001
 43
0.0000000001
 40
0.0
 40
0.0
 40
0.0
 40
0.0
 40
1.0
 40
1.0
 40
1.0
 40
1.0
 10
-87.9214
 20
-29.2543
 30
0.0
 10
-87.9214
 20
-29.2543
 30
0.0
 10
-94.9214
 20
-29.2543
 30
0.0
 10
-94.9214
 20
-29.2543
 30
0.0
  0
SPLINE
  5
252
330
1F
100
AcDbEntity
  8
layer 1
370
     9
100
AcDbSpline
210
0.0
220
0.0
230
1.0
 70
    27
 71
     3
 72
     8
 73
     4
 74
     0
 42
0.0000000001
 43
0.0000000001
 40
0.0
 40
0.0
 40
0.0
 40
0.0
 40
1.0
 40
1.0
 40
1.0
 40
1.0
 10
-93.9214
 20
-52.4482
 30
0.0
 10
-93.9214
 20
-52.4482
 30
0.0
 10
-93.9214
 20
-52.4482
 30
0.0
 10
-93.9214
 20
-52.4482
 30
0.0
  0
SPLINE
  5
253
330
1F
100
AcDbEntity
  8
layer 1
370
     9
100
AcDbSpline
210
0.0
220
0.0
230
1.0
 70
    24
 71
     3
 72
     8
 73
     4
 74
     0
 42
0.0000000001
 43
0.0000000001
 40
0.0
 40
0.0
 40
0.0
 40
0.0
 40
1.0
 40
1.0
 40
1.0
 40
1.0
 10
-94.9214
 20
-52.4482
 30
0.0
 10
-94.9214
 20
-52.4482
 30
0.0
 10
-93.9214
 20
-52.4482
 30
0.0
 10
-93.9214
 20
-52.4482
 30
0.0
  0
SPLINE
  5
254
330
1F
100
AcDbEntity
  8
layer 1
370
     9
100
AcDbSpline
210
0.0
220
0.0
230
1.0
 70
    24
 71
     3
 72
     8
 73
     4
 74
     0
 42
0.0000000001
 43
0.0000000001
 40
0.0
 40
0.0
 40
0.0
 40
0.0
 40
1.0
 40
1.0
 40
1.0
 40
1.0
 10
-2.925
 20
-12.9449
 30
0.0
 10
-2.925
 20
-12.9449
 30
0.0
 10
-5.7246
 20
-12.9449
 30
0.0
 10
-5.7246
 20
-12.9449
 30
0.0
  0
SPLINE
  5
255
330
1F
100
AcDbEntity
  8
layer 1
370
     9
100
AcDbSpline
210
0.0
220
0.0
230
1.0
 70
    24
 71
     3
 72
     8
 73
     4
 74
     0
 42
0.0000000001
 43
0.0000000001
 40
0.0
 40
0.0
 40
0.0
 40
0.0
 40
1.0
 40
1.0
 40
1.0
 40
1.0
 10
-5.7246
 20
-12.9449
 30
0.0
 10
-5.7246
 20
-12.9449
 30
0.0
 10
-5.7246
 20
-3.1453
 30
0.0
 10
-5.7246
 20
-3.1453
 30
0.0
  0
SPLINE
  5
256
330
1F
100
AcDbEntity
  8
layer 1
370
     9
100
AcDbSpline
210
0.0
220
0.0
230
1.0
 70
    24
 71
     3
 72
     8
 73
     4
 74
     0
 42
0.0000000001
 43
0.0000000001
 40
0.0
 40
0.0
 40
0.0
 40
0.0
 40
1.0
 40
1.0
 40
1.0
 40
1.0
 10
-5.7246
 20
-3.1453
 30
0.0
 10
-5.7246
 20
-3.1453
 30
0.0
 10
-2.925
 20
-3.1453
 30
0.0
 10
-2.925
 20
-3.1453
 30
0.0
  0
SPLINE
  5
257
330
1F
100
AcDbEntity
  8
layer 1
370
     9
100
AcDbSpline
210
0.0
220
0.0
230
1.0
 70
    24
 71
     3
 72
     8
 73
     4
 74
     0
 42
0.0000000001
 43
0.0000000001
 40
0.0
 40
0.0
 40
0.0
 40
0.0
 40
1.0
 40
1.0
 40
1.0
 40
1.0
 10
-2.925
 20
-3.1453
 30
0.0
 10
-2.925
 20
-3.1453
 30
0.0
 10
-2.925
 20
-12.9449
 30
0.0
 10
-2.925
 20
-12.9449
 30
0.0
  0
SPLINE
  5
258
330
1F
100
AcDbEntity
  8
layer 1
370
     9
100
AcDbSpline
210
0.0
220
0.0
230
1.0
 70
    24
 71
     3
 72
     8
 73
     4
 74
     0
 42
0.0000000001
 43
0.0000000001
 40
0.0
 40
0.0
 40
0.0
 40
0.0
 40
1.0
 40
1.0
 40
1.0
 40
1.0
 10
-5.7246
 20
-42.348
 30
0.0
 10
-5.7246
 20
-42.348
 30
0.0
 10
-5.7246
 20
-32.5484
 30
0.0
 10
-5.7246
 20
-32.5484
 30
0.0
  0
SPLINE
  5
259
330
1F
100
AcDbEntity
  8
layer 1
370
     9
100
AcDbSpline
210
0.0
220
0.0
230
1.0
 70
    24
 71
     3
 72
     8
 73
     4
 74
     0
 42
0.0000000001
 43
0.0000000001
 40
0.0
 40
0.0
 40
0.0
 40
0.0
 40
1.0
 40
1.0
 40
1.0
 40
1.0
 10
-5.7246
 20
-32.5484
 30
0.0
 10
-5.7246
 20
-32.5484
 30
0.0
 10
-2.925
 20
-32.5484
 30
0.0
 10
-2.925
 20
-32.5484
 30
0.0
  0
SPLINE
  5
25A
330
1F
100
AcDbEntity
  8
layer 1
370
     9
100
AcDbSpline
210
0.0
220
0.0
230
1.0
 70
    24
 71
     3
 72
     8
 73
     4
 74
     0
 42
0.0000000001
 43
0.0000000001
 40
0.0
 40
0.0
 40
0.0
 40
0.0
 40
1.0
 40
1.0
 40
1.0
 40
1.0
 10
-2.925
 20
-32.5484
 30
0.0
 10
-2.925
 20
-32.5484
 30
0.0
 10
-2.925
 20
-42.348
 30
0.0
 10
-2.925
 20
-42.348
 30
0.0
  0
SPLINE
  5
25B
330
1F
100
AcDbEntity
  8
layer 1
370
     9
100
AcDbSpline
210
0.0
220
0.0
230
1.0
 70
    24
 71
     3
 72
     8
 73
     4
 74
     0
 42
0.0000000001
 43
0.0000000001
 40
0.0
 40
0.0
 40
0.0
 40
0.0
 40
1.0
 40
1.0
 40
1.0
 40
1.0
 10
-2.925
 20
-42.348
 30
0.0
 10
-2.925
 20
-42.348
 30
0.0
 10
-5.7246
 20
-42.348
 30
0.0
 10
-5.7246
 20
-42.348
 30
0.0
  0
SPLINE
  5
25C
330
1F
100
AcDbEntity
  8
layer 1
370
     9
100
AcDbSpline
210
0.0
220
0.0
230
1.0
 70
    24
 71
     3
 72
     8
 73
     4
 74
     0
 42
0.0000000001
 43
0.0000000001
 40
0.0
 40
0.0
 40
0.0
 40
0.0
 40
1.0
 40
1.0
 40
1.0
 40
1.0
 10
-20.5484
 20
4.055
 30
0.0
 10
-20.5484
 20
4.055
 30
0.0
 10
-20.5484
 20
6.8548
 30
0.0
 10
-20.5484
 20
6.8548
 30
0.0
  0
SPLINE
  5
25D
330
1F
100
AcDbEntity
  8
layer 1
370
     9
100
AcDbSpline
210
0.0
220
0.0
230
1.0
 70
    24
 71
     3
 72
     8
 73
     4
 74
     0
 42
0.0000000001
 43
0.0000000001
 40
0.0
 40
0.0
 40
0.0
 40
0.0
 40
1.0
 40
1.0
 40
1.0
 40
1.0
 10
-20.5484
 20
6.8548
 30
0.0
 10
-20.5484
 20
6.8548
 30
0.0
 10
-15.7624
 20
6.8548
 30
0.0
 10
-15.7624
 20
6.8548
 30
0.0
  0
SPLINE
  5
25E
330
1F
100
AcDbEntity
  8
layer 1
370
     9
100
AcDbSpline
210
0.0
220
0.0
230
1.0
 70
    24
 71
     3
 72
     8
 73
     4
 74
     0
 42
0.0000000001
 43
0.0000000001
 40
0.0
 40
0.0
 40
0.0
 40
0.0
 40
1.0
 40
1.0
 40
1.0
 40
1.0
 10
-15.7624
 20
6.8548
 30
0.0
 10
-15.7624
 20
6.8548
 30
0.0
 10
-15.7624
 20
4.055
 30
0.0
 10
-15.7624
 20
4.055
 30
0.0
  0
SPLINE
  5
25F
330
1F
100
AcDbEntity
  8
layer 1
370
     9
100
AcDbSpline
210
0.0
220
0.0
230
1.0
 70
    24
 71
     3
 72
     8
 73
     4
 74
     0
 42
0.0000000001
 43
0.0000000001
 40
0.0
 40
0.0
 40
0.0
 40
0.0
 40
1.0
 40
1.0
 40
1.0
 40
1.0
 10
-15.7624
 20
4.055
 30
0.0
 10
-15.7624
 20
4.055
 30
0.0
 10
-20.5484
 20
4.055
 30
0.0
 10
-20.5484
 20
4.055
 30
0.0
  0
SPLINE
  5
260
330
1F
100
AcDbEntity
  8
layer 1
370
     9
100
AcDbSpline
210
0.0
220
0.0
230
1.0
 70
    24
 71
     3
 72
     8
 73
     4
 74
     0
 42
0.0000000001
 43
0.0000000001
 40
0.0
 40
0.0
 40
0.0
 40
0.0
 40
1.0
 40
1.0
 40
1.0
 40
1.0
 10
-20.5552
 20
-49.5484
 30
0.0
 10
-20.5552
 20
-49.5484
 30
0.0
 10
-15.7556
 20
-49.5484
 30
0.0
 10
-15.7556
 20
-49.5484
 30
0.0
  0
SPLINE
  5
261
330
1F
100
AcDbEntity
  8
layer 1
370
     9
100
AcDbSpline
210
0.0
220
0.0
230
1.0
 70
    24
 71
     3
 72
     8
 73
     4
 74
     0
 42
0.0000000001
 43
0.0000000001
 40
0.0
 40
0.0
 40
0.0
 40
0.0
 40
1.0
 40
1.0
 40
1.0
 40
1.0
 10
-15.7556
 20
-49.5484
 30
0.0
 10
-15.7556
 20
-49.5484
 30
0.0
 10
-15.7556
 20
-52.348
 30
0.0
 10
-15.7556
 20
-52.348
 30
0.0
  0
SPLINE
  5
262
330
1F
100
AcDbEntity
  8
layer 1
370
     9
100
AcDbSpline
210
0.0
220
0.0
230
1.0
 70
    24
 71
     3
 72
     8
 73
     4
 74
     0
 42
0.0000000001
 43
0.0000000001
 40
0.0
 40
0.0
 40
0.0
 40
0.0
 40
1.0
 40
1.0
 40
1.0
 40
1.0
 10
-15.7556
 20
-52.348
 30
0.0
 10
-15.7556
 20
-52.348
 30
0.0
 10
-20.5552
 20
-52.348
 30
0.0
 10
-20.5552
 20
-52.348
 30
0.0
  0
SPLINE
  5
263
330
1F
100
AcDbEntity
  8
layer 1
370
     9
100
AcDbSpline
210
0.0
220
0.0
230
1.0
 70
    24
 71
     3
 72
     8
 73
     4
 74
     0
 42
0.0000000001
 43
0.0000000001
 40
0.0
 40
0.0
 40
0.0
 40
0.0
 40
1.0
 40
1.0
 40
1.0
 40
1.0
 10
-20.5552
 20
-52.348
 30
0.0
 10
-20.5552
 20
-52.348
 30
0.0
 10
-20.5552
 20
-49.5484
 30
0.0
 10
-20.5552
 20
-49.5484
 30
0.0
  0
SPLINE
  5
264
330
1F
100
AcDbEntity
  8
layer 1
370
     9
100
AcDbSpline
210
0.0
220
0.0
230
1.0
 70
    27
 71
     3
 72
     8
 73
     4
 74
     0
 42
0.0000000001
 43
0.0000000001
 40
0.0
 40
0.0
 40
0.0
 40
0.0
 40
1.0
 40
1.0
 40
1.0
 40
1.0
 10
-78.191
 20
4.0551
 30
0.0
 10
-78.191
 20
4.0551
 30
0.0
 10
-78.191
 20
4.0551
 30
0.0
 10
-78.191
 20
4.0551
 30
0.0
  0
SPLINE
  5
265
330
1F
100
AcDbEntity
  8
layer 1
370
     9
100
AcDbSpline
210
0.0
220
0.0
230
1.0
 70
    24
 71
     3
 72
     8
 73
     4
 74
     0
 42
0.0000000001
 43
0.0000000001
 40
0.0
 40
0.0
 40
0.0
 40
0.0
 40
1.0
 40
1.0
 40
1.0
 40
1.0
 10
-78.191
 20
4.0551
 30
0.0
 10
-78.191
 20
4.0551
 30
0.0
 10
-82.9906
 20
4.0551
 30
0.0
 10
-82.9906
 20
4.0551
 30
0.0
  0
SPLINE
  5
266
330
1F
100
AcDbEntity
  8
layer 1
370
     9
100
AcDbSpline
210
0.0
220
0.0
230
1.0
 70
    27
 71
     3
 72
     8
 73
     4
 74
     0
 42
0.0000000001
 43
0.0000000001
 40
0.0
 40
0.0
 40
0.0
 40
0.0
 40
1.0
 40
1.0
 40
1.0
 40
1.0
 10
-82.9906
 20
6.8547
 30
0.0
 10
-82.9906
 20
6.8547
 30
0.0
 10
-82.9906
 20
6.8547
 30
0.0
 10
-82.9906
 20
6.8547
 30
0.0
  0
SPLINE
  5
267
330
1F
100
AcDbEntity
  8
layer 1
370
     9
100
AcDbSpline
210
0.0
220
0.0
230
1.0
 70
    24
 71
     3
 72
     8
 73
     4
 74
     0
 42
0.0000000001
 43
0.0000000001
 40
0.0
 40
0.0
 40
0.0
 40
0.0
 40
1.0
 40
1.0
 40
1.0
 40
1.0
 10
-82.9906
 20
4.0551
 30
0.0
 10
-82.9906
 20
4.0551
 30
0.0
 10
-82.9906
 20
6.8547
 30
0.0
 10
-82.9906
 20
6.8547
 30
0.0
  0
SPLINE
  5
268
330
1F
100
AcDbEntity
  8
layer 1
370
     9
100
AcDbSpline
210
0.0
220
0.0
230
1.0
 70
    27
 71
     3
 72
     8
 73
     4
 74
     0
 42
0.0000000001
 43
0.0000000001
 40
0.0
 40
0.0
 40
0.0
 40
0.0
 40
1.0
 40
1.0
 40
1.0
 40
1.0
 10
-78.191
 20
6.8547
 30
0.0
 10
-78.191
 20
6.8547
 30
0.0
 10
-78.191
 20
6.8547
 30
0.0
 10
-78.191
 20
6.8547
 30
0.0
  0
SPLINE
  5
269
330
1F
100
AcDbEntity
  8
layer 1
370
     9
100
AcDbSpline
210
0.0
220
0.0
230
1.0
 70
    24
 71
     3
 72
     8
 73
     4
 74
     0
 42
0.0000000001
 43
0.0000000001
 40
0.0
 40
0.0
 40
0.0
 40
0.0
 40
1.0
 40
1.0
 40
1.0
 40
1.0
 10
-82.9906
 20
6.8547
 30
0.0
 10
-82.9906
 20
6.8547
 30
0.0
 10
-78.191
 20
6.8547
 30
0.0
 10
-78.191
 20
6.8547
 30
0.0
  0
SPLINE
  5
26A
330
1F
100
AcDbEntity
  8
layer 1
370
     9
100
AcDbSpline
210
0.0
220
0.0
230
1.0
 70
    27
 71
     3
 72
     8
 73
     4
 74
     0
 42
0.0000000001
 43
0.0000000001
 40
0.0
 40
0.0
 40
0.0
 40
0.0
 40
1.0
 40
1.0
 40
1.0
 40
1.0
 10
-78.191
 20
6.8547
 30
0.0
 10
-78.191
 20
6.8547
 30
0.0
 10
-78.191
 20
6.8547
 30
0.0
 10
-78.191
 20
6.8547
 30
0.0
  0
SPLINE
  5
26B
330
1F
100
AcDbEntity
  8
layer 1
370
     9
100
AcDbSpline
210
0.0
220
0.0
230
1.0
 70
    24
 71
     3
 72
     8
 73
     4
 74
     0
 42
0.0000000001
 43
0.0000000001
 40
0.0
 40
0.0
 40
0.0
 40
0.0
 40
1.0
 40
1.0
 40
1.0
 40
1.0
 10
-78.191
 20
6.8547
 30
0.0
 10
-78.191
 20
6.8547
 30
0.0
 10
-78.191
 20
4.0551
 30
0.0
 10
-78.191
 20
4.0551
 30
0.0
  0
SPLINE
  5
26C
330
1F
100
AcDbEntity
  8
layer 1
370
     9
100
AcDbSpline
210
0.0
220
0.0
230
1.0
 70
    27
 71
     3
 72
     8
 73
     4
 74
     0
 42
0.0000000001
 43
0.0000000001
 40
0.0
 40
0.0
 40
0.0
 40
0.0
 40
1.0
 40
1.0
 40
1.0
 40
1.0
 10
-78.191
 20
-49.5484
 30
0.0
 10
-78.191
 20
-49.5484
 30
0.0
 10
-78.191
 20
-49.5484
 30
0.0
 10
-78.191
 20
-49.5484
 30
0.0
  0
SPLINE
  5
26D
330
1F
100
AcDbEntity
  8
layer 1
370
     9
100
AcDbSpline
210
0.0
220
0.0
230
1.0
 70
    24
 71
     3
 72
     8
 73
     4
 74
     0
 42
0.0000000001
 43
0.0000000001
 40
0.0
 40
0.0
 40
0.0
 40
0.0
 40
1.0
 40
1.0
 40
1.0
 40
1.0
 10
-78.191
 20
-49.5484
 30
0.0
 10
-78.191
 20
-49.5484
 30
0.0
 10
-78.191
 20
-52.348
 30
0.0
 10
-78.191
 20
-52.348
 30
0.0
  0
SPLINE
  5
26E
330
1F
100
AcDbEntity
  8
layer 1
370
     9
100
AcDbSpline
210
0.0
220
0.0
230
1.0
 70
    27
 71
     3
 72
     8
 73
     4
 74
     0
 42
0.0000000001
 43
0.0000000001
 40
0.0
 40
0.0
 40
0.0
 40
0.0
 40
1.0
 40
1.0
 40
1.0
 40
1.0
 10
-78.191
 20
-52.348
 30
0.0
 10
-78.191
 20
-52.348
 30
0.0
 10
-78.191
 20
-52.348
 30
0.0
 10
-78.191
 20
-52.348
 30
0.0
  0
SPLINE
  5
26F
330
1F
100
AcDbEntity
  8
layer 1
370
     9
100
AcDbSpline
210
0.0
220
0.0
230
1.0
 70
    24
 71
     3
 72
     8
 73
     4
 74
     0
 42
0.0000000001
 43
0.0000000001
 40
0.0
 40
0.0
 40
0.0
 40
0.0
 40
1.0
 40
1.0
 40
1.0
 40
1.0
 10
-78.191
 20
-52.348
 30
0.0
 10
-78.191
 20
-52.348
 30
0.0
 10
-82.9906
 20
-52.348
 30
0.0
 10
-82.9906
 20
-52.348
 30
0.0
  0
SPLINE
  5
270
330
1F
100
AcDbEntity
  8
layer 1
370
     9
100
AcDbSpline
210
0.0
220
0.0
230
1.0
 70
    27
 71
     3
 72
     8
 73
     4
 74
     0
 42
0.0000000001
 43
0.0000000001
 40
0.0
 40
0.0
 40
0.0
 40
0.0
 40
1.0
 40
1.0
 40
1.0
 40
1.0
 10
-82.9906
 20
-49.5484
 30
0.0
 10
-82.9906
 20
-49.5484
 30
0.0
 10
-82.9906
 20
-49.5484
 30
0.0
 10
-82.9906
 20
-49.5484
 30
0.0
  0
SPLINE
  5
271
330
1F
100
AcDbEntity
  8
layer 1
370
     9
100
AcDbSpline
210
0.0
220
0.0
230
1.0
 70
    24
 71
     3
 72
     8
 73
     4
 74
     0
 42
0.0000000001
 43
0.0000000001
 40
0.0
 40
0.0
 40
0.0
 40
0.0
 40
1.0
 40
1.0
 40
1.0
 40
1.0
 10
-82.9906
 20
-52.348
 30
0.0
 10
-82.9906
 20
-52.348
 30
0.0
 10
-82.9906
 20
-49.5484
 30
0.0
 10
-82.9906
 20
-49.5484
 30
0.0
  0
SPLINE
  5
272
330
1F
100
AcDbEntity
  8
layer 1
370
     9
100
AcDbSpline
210
0.0
220
0.0
230
1.0
 70
    27
 71
     3
 72
     8
 73
     4
 74
     0
 42
0.0000000001
 43
0.0000000001
 40
0.0
 40
0.0
 40
0.0
 40
0.0
 40
1.0
 40
1.0
 40
1.0
 40
1.0
 10
-78.191
 20
-49.5484
 30
0.0
 10
-78.191
 20
-49.5484
 30
0.0
 10
-78.191
 20
-49.5484
 30
0.0
 10
-78.191
 20
-49.5484
 30
0.0
  0
SPLINE
  5
273
330
1F
100
AcDbEntity
  8
layer 1
370
     9
100
AcDbSpline
210
0.0
220
0.0
230
1.0
 70
    24
 71
     3
 72
     8
 73
     4
 74
     0
 42
0.0000000001
 43
0.0000000001
 40
0.0
 40
0.0
 40
0.0
 40
0.0
 40
1.0
 40
1.0
 40
1.0
 40
1.0
 10
-82.9906
 20
-49.5484
 30
0.0
 10
-82.9906
 20
-49.5484
 30
0.0
 10
-78.191
 20
-49.5484
 30
0.0
 10
-78.191
 20
-49.5484
 30
0.0
  0
SPLINE
  5
274
330
1F
100
AcDbEntity
  8
layer 1
370
     9
100
AcDbSpline
210
0.0
220
0.0
230
1.0
 70
     8
 71
     3
 72
    12
 73
     8
 74
     0
 42
0.0000000001
 43
0.0000000001
 40
0.0
 40
0.0
 40
0.0
 40
0.0
 40
0.5
 40
0.5
 40
0.5
 40
0.5
 40
1.0
 40
1.0
 40
1.0
 40
1.0
 10
-94.9214
 20
-29.2543
 30
0.0
 10
-95.4519
 20
-29.2543
 30
0.0
 10
-95.9606
 20
-29.4651
 30
0.0
 10
-96.3357
 20
-29.8401
 30
0.0
 10
-96.3357
 20
-29.8401
 30
0.0
 10
-96.7107
 20
-30.2152
 30
0.0
 10
-96.9214
 20
-30.7239
 30
0.0
 10
-96.9214
 20
-31.2543
 30
0.0
  0
SPLINE
  5
275
330
1F
100
AcDbEntity
  8
layer 1
370
     9
100
AcDbSpline
210
0.0
220
0.0
230
1.0
 70
     8
 71
     3
 72
    12
 73
     8
 74
     0
 42
0.0000000001
 43
0.0000000001
 40
0.0
 40
0.0
 40
0.0
 40
0.0
 40
0.5
 40
0.5
 40
0.5
 40
0.5
 40
1.0
 40
1.0
 40
1.0
 40
1.0
 10
-96.9214
 20
-8.182
 30
0.0
 10
-96.9214
 20
-8.7125
 30
0.0
 10
-96.7107
 20
-9.2212
 30
0.0
 10
-96.3357
 20
-9.5962
 30
0.0
 10
-96.3357
 20
-9.5962
 30
0.0
 10
-95.9606
 20
-9.9713
 30
0.0
 10
-95.4519
 20
-10.182
 30
0.0
 10
-94.9214
 20
-10.182
 30
0.0
  0
SPLINE
  5
276
330
1F
100
AcDbEntity
  8
layer 1
370
     9
100
AcDbSpline
210
0.0
220
0.0
230
1.0
 70
     8
 71
     3
 72
    12
 73
     8
 74
     0
 42
0.0000000001
 43
0.0000000001
 40
0.0
 40
0.0
 40
0.0
 40
0.0
 40
0.5
 40
0.5
 40
0.5
 40
0.5
 40
1.0
 40
1.0
 40
1.0
 40
1.0
 10
-87.9214
 20
-29.2543
 30
0.0
 10
-87.391
 20
-29.2543
 30
0.0
 10
-86.8823
 20
-29.0436
 30
0.0
 10
-86.5072
 20
-28.6686
 30
0.0
 10
-86.5072
 20
-28.6686
 30
0.0
 10
-86.1322
 20
-28.2935
 30
0.0
 10
-85.9214
 20
-27.7848
 30
0.0
 10
-85.9214
 20
-27.2543
 30
0.0
  0
SPLINE
  5
277
330
1F
100
AcDbEntity
  8
layer 1
370
     9
100
AcDbSpline
210
0.0
220
0.0
230
1.0
 70
     8
 71
     3
 72
    12
 73
     8
 74
     0
 42
0.0000000001
 43
0.0000000001
 40
0.0
 40
0.0
 40
0.0
 40
0.0
 40
0.5
 40
0.5
 40
0.5
 40
0.5
 40
1.0
 40
1.0
 40
1.0
 40
1.0
 10
-85.9214
 20
-12.182
 30
0.0
 10
-85.9214
 20
-11.6516
 30
0.0
 10
-86.1322
 20
-11.1429
 30
0.0
 10
-86.5072
 20
-10.7678
 30
0.0
 10
-86.5072
 20
-10.7678
 30
0.0
 10
-86.8823
 20
-10.3927
 30
0.0
 10
-87.391
 20
-10.182
 30
0.0
 10
-87.9214
 20
-10.182
 30
0.0
  0
ENDSEC
  0
SECTION
  2
OBJECTS
  0
DICTIONARY
  5
C
330
0
100
AcDbDictionary
281
     1
  3
ACAD_GROUP
350
D
  3
ACAD_LAYOUT
350
1A
  3
ACAD_MLEADERSTYLE
350
279
  3
ACAD_MLINESTYLE
350
17
  3
ACAD_PLOTSETTINGS
350
19
  3
ACAD_PLOTSTYLENAME
350
E
  3
ACAD_SCALELIST
350
3B
  3
ACAD_TABLESTYLE
350
278
  3
ACAD_VISUALSTYLE
350
2A
  0
DICTIONARY
  5
D
102
{ACAD_REACTORS
330
C
102
}
330
C
100
AcDbDictionary
281
     1
  0
DICTIONARY
  5
1A
102
{ACAD_REACTORS
330
C
102
}
330
C
100
AcDbDictionary
281
     1
  3
Layout1
350
1E
  3
Layout2
350
26
  3
Model
350
22
  0
DICTIONARY
  5
279
102
{ACAD_REACTORS
330
C
102
}
330
C
100
AcDbDictionary
281
     1
  0
DICTIONARY
  5
17
102
{ACAD_REACTORS
330
C
102
}
330
C
100
AcDbDictionary
281
     1
  3
Standard
350
18
  0
DICTIONARY
  5
19
102
{ACAD_REACTORS
330
C
102
}
330
C
100
AcDbDictionary
281
     1
  0
ACDBDICTIONARYWDFLT
  5
E
102
{ACAD_REACTORS
330
C
102
}
330
C
100
AcDbDictionary
281
     1
  3
Normal
350
F
100
AcDbDictionaryWithDefault
340
F
  0
DICTIONARY
  5
3B
102
{ACAD_REACTORS
330
C
102
}
330
C
100
AcDbDictionary
281
     1
  3
A0
350
3C
  3
A1
350
3D
  3
A2
350
3E
  3
A3
350
3F
  3
A4
350
40
  3
A5
350
41
  3
A6
350
42
  3
A7
350
43
  3
A8
350
44
  3
A9
350
45
  3
B0
350
46
  3
B1
350
47
  3
B2
350
48
  3
B3
350
49
  3
B4
350
4A
  3
B5
350
4B
  3
B6
350
4C
  3
B7
350
4D
  3
B8
350
4E
  3
B9
350
4F
  3
C0
350
50
  3
C1
350
51
  3
C2
350
52
  3
C3
350
53
  3
C4
350
54
  3
C5
350
55
  3
C6
350
56
  3
C7
350
57
  3
C8
350
58
  3
C9
350
59
  3
D0
350
5A
  3
D1
350
5B
  3
D2
350
5C
  0
DICTIONARY
  5
278
102
{ACAD_REACTORS
330
C
102
}
330
C
100
AcDbDictionary
281
     1
  0
DICTIONARY
  5
2A
102
{ACAD_REACTORS
330
C
102
}
330
C
100
AcDbDictionary
281
     1
  3
2dWireframe
350
2F
  3
3D Hidden
350
31
  3
3dWireframe
350
30
  3
Basic
350
32
  3
Brighten
350
36
  3
ColorChange
350
3A
  3
Conceptual
350
34
  3
Dim
350
35
  3
Facepattern
350
39
  3
Flat
350
2B
  3
FlatWithEdges
350
2C
  3
Gouraud
350
2D
  3
GouraudWithEdges
350
2E
  3
Linepattern
350
38
  3
Realistic
350
33
  3
Thicken
350
37
  0
LAYOUT
  5
1E
102
{ACAD_REACTORS
330
1A
102
}
330
1A
100
AcDbPlotSettings
  1

  2
none_device
  4

  6

 40
0.0
 41
0.0
 42
0.0
 43
0.0
 44
0.0
 45
0.0
 46
0.0
 47
0.0
 48
0.0
 49
0.0
140
0.0
141
0.0
142
1.0
143
1.0
 70
   688
 72
     0
 73
     0
 74
     5
  7

 75
    16
 76
     0
 77
     2
 78
   300
147
1.0
148
0.0
149
0.0
100
AcDbLayout
  1
Layout1
 70
     1
 71
     1
 10
0.0
 20
0.0
 11
12.0
 21
9.0
 12
0.0
 22
0.0
 32
0.0
 14
1.000000000000000E+20
 24
1.000000000000000E+20
 34
1.000000000000000E+20
 15
-1.000000000000000E+20
 25
-1.000000000000000E+20
 35
-1.000000000000000E+20
146
0.0
 13
0.0
 23
0.0
 33
0.0
 16
1.0
 26
0.0
 36
0.0
 17
0.0
 27
1.0
 37
0.0
 76
     0
330
1B
  0
LAYOUT
  5
26
102
{ACAD_REACTORS
330
1A
102
}
330
1A
100
AcDbPlotSettings
  1

  2
none_device
  4

  6

 40
0.0
 41
0.0
 42
0.0
 43
0.0
 44
0.0
 45
0.0
 46
0.0
 47
0.0
 48
0.0
 49
0.0
140
0.0
141
0.0
142
1.0
143
1.0
 70
   688
 72
     0
 73
     0
 74
     5
  7

 75
    16
 76
     0
 77
     2
 78
   300
147
1.0
148
0.0
149
0.0
100
AcDbLayout
  1
Layout2
 70
     1
 71
     2
 10
0.0
 20
0.0
 11
0.0
 21
0.0
 12
0.0
 22
0.0
 32
0.0
 14
0.0
 24
0.0
 34
0.0
 15
0.0
 25
0.0
 35
0.0
146
0.0
 13
0.0
 23
0.0
 33
0.0
 16
1.0
 26
0.0
 36
0.0
 17
0.0
 27
1.0
 37
0.0
 76
     0
330
23
  0
LAYOUT
  5
22
102
{ACAD_REACTORS
330
1A
102
}
330
1A
100
AcDbPlotSettings
  1

  2
none_device
  4

  6

 40
0.0
 41
0.0
 42
0.0
 43
0.0
 44
0.0
 45
0.0
 46
0.0
 47
0.0
 48
0.0
 49
0.0
140
0.0
141
0.0
142
1.0
143
1.0
 70
  1712
 72
     0
 73
     0
 74
     0
  7

 75
     0
 76
     0
 77
     2
 78
   300
147
1.0
148
0.0
149
0.0
100
AcDbLayout
  1
Model
 70
     1
 71
     0
 10
0.0
 20
0.0
 11
12.0
 21
9.0
 12
0.0
 22
0.0
 32
0.0
 14
-97.0346
 24
-55.4863
 34
0.0
 15
49.7342
 25
136.9003
 35
0.0
146
0.0
 13
0.0
 23
0.0
 33
0.0
 16
1.0
 26
0.0
 36
0.0
 17
0.0
 27
1.0
 37
0.0
 76
     0
330
1F
331
29
  0
MLINESTYLE
  5
18
102
{ACAD_REACTORS
330
17
102
}
330
17
100
AcDbMlineStyle
  2
Standard
 70
     0
  3

 62
   256
 51
90.0
 52
90.0
 71
     2
 49
0.5
 62
   256
  6
BYLAYER
 49
-0.5
 62
   256
  6
BYLAYER
  0
ACDBPLACEHOLDER
  5
F
102
{ACAD_REACTORS
330
E
102
}
330
E
  0
SCALE
  5
3C
102
{ACAD_REACTORS
330
3B
102
}
330
3B
100
AcDbScale
 70
     0
300
1:1
140
1.0
141
1.0
290
     1
  0
SCALE
  5
3D
102
{ACAD_REACTORS
330
3B
102
}
330
3B
100
AcDbScale
 70
     0
300
1:2
140
1.0
141
2.0
290
     0
  0
SCALE
  5
3E
102
{ACAD_REACTORS
330
3B
102
}
330
3B
100
AcDbScale
 70
     0
300
1:4
140
1.0
141
4.0
290
     0
  0
SCALE
  5
3F
102
{ACAD_REACTORS
330
3B
102
}
330
3B
100
AcDbScale
 70
     0
300
1:5
140
1.0
141
5.0
290
     0
  0
SCALE
  5
40
102
{ACAD_REACTORS
330
3B
102
}
330
3B
100
AcDbScale
 70
     0
300
1:8
140
1.0
141
8.0
290
     0
  0
SCALE
  5
41
102
{ACAD_REACTORS
330
3B
102
}
330
3B
100
AcDbScale
 70
     0
300
1:10
140
1.0
141
10.0
290
     0
  0
SCALE
  5
42
102
{ACAD_REACTORS
330
3B
102
}
330
3B
100
AcDbScale
 70
     0
300
1:16
140
1.0
141
16.0
290
     0
  0
SCALE
  5
43
102
{ACAD_REACTORS
330
3B
102
}
330
3B
100
AcDbScale
 70
     0
300
1:20
140
1.0
141
20.0
290
     0
  0
SCALE
  5
44
102
{ACAD_REACTORS
330
3B
102
}
330
3B
100
AcDbScale
 70
     0
300
1:30
140
1.0
141
30.0
290
     0
  0
SCALE
  5
45
102
{ACAD_REACTORS
330
3B
102
}
330
3B
100
AcDbScale
 70
     0
300
1:40
140
1.0
141
40.0
290
     0
  0
SCALE
  5
46
102
{ACAD_REACTORS
330
3B
102
}
330
3B
100
AcDbScale
 70
     0
300
1:50
140
1.0
141
50.0
290
     0
  0
SCALE
  5
47
102
{ACAD_REACTORS
330
3B
102
}
330
3B
100
AcDbScale
 70
     0
300
1:100
140
1.0
141
100.0
290
     0
  0
SCALE
  5
48
102
{ACAD_REACTORS
330
3B
102
}
330
3B
100
AcDbScale
 70
     0
300
2:1
140
2.0
141
1.0
290
     0
  0
SCALE
  5
49
102
{ACAD_REACTORS
330
3B
102
}
330
3B
100
AcDbScale
 70
     0
300
4:1
140
4.0
141
1.0
290
     0
  0
SCALE
  5
4A
102
{ACAD_REACTORS
330
3B
102
}
330
3B
100
AcDbScale
 70
     0
300
8:1
140
8.0
141
1.0
290
     0
  0
SCALE
  5
4B
102
{ACAD_REACTORS
330
3B
102
}
330
3B
100
AcDbScale
 70
     0
300
10:1
140
10.0
141
1.0
290
     0
  0
SCALE
  5
4C
102
{ACAD_REACTORS
330
3B
102
}
330
3B
100
AcDbScale
 70
     0
300
100:1
140
100.0
141
1.0
290
     0
  0
SCALE
  5
4D
102
{ACAD_REACTORS
330
3B
102
}
330
3B
100
AcDbScale
 70
     0
300
1/128" = 1'-0"
140
0.0078125
141
12.0
290
     0
  0
SCALE
  5
4E
102
{ACAD_REACTORS
330
3B
102
}
330
3B
100
AcDbScale
 70
     0
300
1/64" = 1'-0"
140
0.015625
141
12.0
290
     0
  0
SCALE
  5
4F
102
{ACAD_REACTORS
330
3B
102
}
330
3B
100
AcDbScale
 70
     0
300
1/32" = 1'-0"
140
0.03125
141
12.0
290
     0
  0
SCALE
  5
50
102
{ACAD_REACTORS
330
3B
102
}
330
3B
100
AcDbScale
 70
     0
300
1/16" = 1'-0"
140
0.0625
141
12.0
290
     0
  0
SCALE
  5
51
102
{ACAD_REACTORS
330
3B
102
}
330
3B
100
AcDbScale
 70
     0
300
3/32" = 1'-0"
140
0.09375
141
12.0
290
     0
  0
SCALE
  5
52
102
{ACAD_REACTORS
330
3B
102
}
330
3B
100
AcDbScale
 70
     0
300
1/8" = 1'-0"
140
0.125
141
12.0
290
     0
  0
SCALE
  5
53
102
{ACAD_REACTORS
330
3B
102
}
330
3B
100
AcDbScale
 70
     0
300
3/16" = 1'-0"
140
0.1875
141
12.0
290
     0
  0
SCALE
  5
54
102
{ACAD_REACTORS
330
3B
102
}
330
3B
100
AcDbScale
 70
     0
300
1/4" = 1'-0"
140
0.25
141
12.0
290
     0
  0
SCALE
  5
55
102
{ACAD_REACTORS
330
3B
102
}
330
3B
100
AcDbScale
 70
     0
300
3/8" = 1'-0"
140
0.375
141
12.0
290
     0
  0
SCALE
  5
56
102
{ACAD_REACTORS
330
3B
102
}
330
3B
100
AcDbScale
 70
     0
300
1/2" = 1'-0"
140
0.5
141
12.0
290
     0
  0
SCALE
  5
57
102
{ACAD_REACTORS
330
3B
102
}
330
3B
100
AcDbScale
 70
     0
300
3/4" = 1'-0"
140
0.75
141
12.0
290
     0
  0
SCALE
  5
58
102
{ACAD_REACTORS
330
3B
102
}
330
3B
100
AcDbScale
 70
     0
300
1" = 1'-0"
140
1.0
141
12.0
290
     0
  0
SCALE
  5
59
102
{ACAD_REACTORS
330
3B
102
}
330
3B
100
AcDbScale
 70
     0
300
1-1/2" = 1'-0"
140
1.5
141
12.0
290
     0
  0
SCALE
  5
5A
102
{ACAD_REACTORS
330
3B
102
}
330
3B
100
AcDbScale
 70
     0
300
3" = 1'-0"
140
3.0
141
12.0
290
     0
  0
SCALE
  5
5B
102
{ACAD_REACTORS
330
3B
102
}
330
3B
100
AcDbScale
 70
     0
300
6" = 1'-0"
140
6.0
141
12.0
290
     0
  0
SCALE
  5
5C
102
{ACAD_REACTORS
330
3B
102
}
330
3B
100
AcDbScale
 70
     0
300
1'-0" = 1'-0"
140
12.0
141
12.0
290
     0
  0
VISUALSTYLE
  5
2F
102
{ACAD_REACTORS
330
2A
102
}
330
2A
100
AcDbVisualStyle
  2
2dWireframe
 70
     4
 71
     0
 72
     2
 73
     0
 90
        0
 40
-0.6
 41
-30.0
 62
     5
 63
     7
421
 16777215
 74
     1
 91
        4
 64
     7
 65
   257
 75
     1
175
     1
 42
1.0
 92
        0
 66
   257
 43
1.0
 76
     1
 77
     6
 78
     2
 67
     7
 79
     5
170
     0
171
     0
290
     0
174
     0
 93
        1
 44
0.0
173
     0
291
     0
 45
0.0
  0
VISUALSTYLE
  5
31
102
{ACAD_REACTORS
330
2A
102
}
330
2A
100
AcDbVisualStyle
  2
3D Hidden
 70
     6
 71
     1
 72
     2
 73
     2
 90
        0
 40
-0.6
 41
-30.0
 62
     5
 63
     7
421
 16777215
 74
     2
 91
        2
 64
     7
 65
   257
 75
     2
175
     1
 42
40.0
 92
        0
 66
   257
 43
1.0
 76
     1
 77
     6
 78
     2
 67
     7
 79
     3
170
     0
171
     0
290
     0
174
     0
 93
        1
 44
0.0
173
     0
291
     0
 45
0.0
  0
VISUALSTYLE
  5
30
102
{ACAD_REACTORS
330
2A
102
}
330
2A
100
AcDbVisualStyle
  2
3dWireframe
 70
     5
 71
     0
 72
     2
 73
     0
 90
        0
 40
-0.6
 41
-30.0
 62
     5
 63
     7
421
 16777215
 74
     1
 91
        4
 64
     7
 65
   257
 75
     1
175
     1
 42
1.0
 92
        0
 66
   257
 43
1.0
 76
     1
 77
     6
 78
     2
 67
     7
 79
     5
170
     0
171
     0
290
     0
174
     0
 93
        1
 44
0.0
173
     0
291
     0
 45
0.0
  0
VISUALSTYLE
  5
32
102
{ACAD_REACTORS
330
2A
102
}
330
2A
100
AcDbVisualStyle
  2
Basic
 70
     7
 71
     1
 72
     0
 73
     1
 90
        0
 40
-0.6
 41
-30.0
 62
     5
 63
     7
421
 16777215
 74
     0
 91
        4
 64
     7
 65
   257
 75
     1
175
     1
 42
1.0
 92
        8
 66
     7
 43
1.0
 76
     1
 77
     6
 78
     2
 67
     7
 79
     5
170
     0
171
     0
290
     0
174
     0
 93
        1
 44
0.0
173
     0
291
     1
 45
0.0
  0
VISUALSTYLE
  5
36
102
{ACAD_REACTORS
330
2A
102
}
330
2A
100
AcDbVisualStyle
  2
Brighten
 70
    12
 71
     2
 72
     2
 73
     0
 90
        0
 40
-0.6
 41
-30.0
 62
     5
 63
     7
421
 16777215
 74
     1
 91
        4
 64
     7
 65
   257
 75
     1
175
     1
 42
1.0
 92
        8
 66
     7
 43
1.0
 76
     1
 77
     6
 78
     2
 67
     7
 79
     5
170
     0
171
     0
290
     0
174
     0
 93
        1
 44
50.0
173
     0
291
     1
 45
0.0
  0
VISUALSTYLE
  5
3A
102
{ACAD_REACTORS
330
2A
102
}
330
2A
100
AcDbVisualStyle
  2
ColorChange
 70
    16
 71
     2
 72
     2
 73
     3
 90
        0
 40
-0.6
 41
-30.0
 62
     5
 63
     8
421
  8421504
 74
     1
 91
        4
 64
     7
 65
   257
 75
     1
175
     1
 42
1.0
 92
        8
 66
     8
424
  8421504
 43
1.0
 76
     1
 77
     6
 78
     2
 67
     7
 79
     5
170
     0
171
     0
290
     0
174
     0
 93
        1
 44
0.0
173
     0
291
     1
 45
0.0
  0
VISUALSTYLE
  5
34
102
{ACAD_REACTORS
330
2A
102
}
330
2A
100
AcDbVisualStyle
  2
Conceptual
 70
     9
 71
     3
 72
     2
 73
     0
 90
        0
 40
-0.6
 41
-30.0
 62
     5
 63
     7
421
 16777215
 74
     2
 91
        2
 64
     7
 65
   257
 75
     1
175
     1
 42
40.0
 92
        8
 66
     7
 43
1.0
 76
     1
 77
     6
 78
     2
 67
     7
 79
     3
170
     0
171
     0
290
     0
174
     0
 93
        1
 44
0.0
173
     0
291
     0
 45
0.0
  0
VISUALSTYLE
  5
35
102
{ACAD_REACTORS
330
2A
102
}
330
2A
100
AcDbVisualStyle
  2
Dim
 70
    11
 71
     2
 72
     2
 73
     0
 90
        0
 40
-0.6
 41
-30.0
 62
     5
 63
     7
421
 16777215
 74
     1
 91
        4
 64
     7
 65
   257
 75
     1
175
     1
 42
1.0
 92
        8
 66
     7
 43
1.0
 76
     1
 77
     6
 78
     2
 67
     7
 79
     5
170
     0
171
     0
290
     0
174
     0
 93
        1
 44
-50.0
173
     0
291
     1
 45
0.0
  0
VISUALSTYLE
  5
39
102
{ACAD_REACTORS
330
2A
102
}
330
2A
100
AcDbVisualStyle
  2
Facepattern
 70
    15
 71
     2
 72
     2
 73
     0
 90
        0
 40
-0.6
 41
-30.0
 62
     5
 63
     7
421
 16777215
 74
     1
 91
        4
 64
     7
 65
   257
 75
     1
175
     1
 42
1.0
 92
        8
 66
     7
 43
1.0
 76
     1
 77
     6
 78
     2
 67
     7
 79
     5
170
     0
171
     0
290
     0
174
     0
 93
        1
 44
0.0
173
     0
291
     1
 45
0.0
  0
VISUALSTYLE
  5
2B
102
{ACAD_REACTORS
330
2A
102
}
330
2A
100
AcDbVisualStyle
  2
Flat
 70
     0
 71
     2
 72
     1
 73
     1
 90
        2
 40
-0.6
 41
30.0
 62
     5
 63
     7
421
 16777215
 74
     0
 91
        4
 64
     7
 65
   257
 75
     1
175
     1
 42
1.0
 92
        8
 66
     7
 43
1.0
 76
     1
 77
     6
 78
     2
 67
     7
 79
     5
170
     0
171
     0
290
     0
174
     0
 93
       13
 44
0.0
173
     0
291
     1
 45
0.0
  0
VISUALSTYLE
  5
2C
102
{ACAD_REACTORS
330
2A
102
}
330
2A
100
AcDbVisualStyle
  2
FlatWithEdges
 70
     1
 71
     2
 72
     1
 73
     1
 90
        2
 40
-0.6
 41
30.0
 62
     5
 63
     7
421
 16777215
 74
     1
 91
        4
 64
     7
 65
   257
 75
     1
175
     1
 42
1.0
 92
        0
 66
   257
 43
1.0
 76
     1
 77
     6
 78
     2
 67
     7
 79
     5
170
     0
171
     0
290
     0
174
     0
 93
       13
 44
0.0
173
     0
291
     1
 45
0.0
  0
VISUALSTYLE
  5
2D
102
{ACAD_REACTORS
330
2A
102
}
330
2A
100
AcDbVisualStyle
  2
Gouraud
 70
     2
 71
     2
 72
     2
 73
     1
 90
        2
 40
-0.6
 41
30.0
 62
     5
 63
     7
421
 16777215
 74
     0
 91
        4
 64
     7
 65
   257
 75
     1
175
     1
 42
1.0
 92
        0
 66
     7
 43
1.0
 76
     1
 77
     6
 78
     2
 67
     7
 79
     5
170
     0
171
     0
290
     0
174
     0
 93
       13
 44
0.0
173
     0
291
     1
 45
0.0
  0
VISUALSTYLE
  5
2E
102
{ACAD_REACTORS
330
2A
102
}
330
2A
100
AcDbVisualStyle
  2
GouraudWithEdges
 70
     3
 71
     2
 72
     2
 73
     1
 90
        2
 40
-0.6
 41
30.0
 62
     5
 63
     7
421
 16777215
 74
     1
 91
        4
 64
     7
 65
   257
 75
     1
175
     1
 42
1.0
 92
        0
 66
   257
 43
1.0
 76
     1
 77
     6
 78
     2
 67
     7
 79
     5
170
     0
171
     0
290
     0
174
     0
 93
       13
 44
0.0
173
     0
291
     1
 45
0.0
  0
VISUALSTYLE
  5
38
102
{ACAD_REACTORS
330
2A
102
}
330
2A
100
AcDbVisualStyle
  2
Linepattern
 70
    14
 71
     2
 72
     2
 73
     0
 90
        0
 40
-0.6
 41
-30.0
 62
     5
 63
     7
421
 16777215
 74
     1
 91
        4
 64
     7
 65
   257
 75
     7
175
     7
 42
1.0
 92
        8
 66
     7
 43
1.0
 76
     1
 77
     6
 78
     2
 67
     7
 79
     5
170
     0
171
     0
290
     0
174
     0
 93
        1
 44
0.0
173
     0
291
     1
 45
0.0
  0
VISUALSTYLE
  5
33
102
{ACAD_REACTORS
330
2A
102
}
330
2A
100
AcDbVisualStyle
  2
Realistic
 70
     8
 71
     2
 72
     2
 73
     0
 90
        0
 40
-0.6
 41
-30.0
 62
     5
 63
     7
421
 16777215
 74
     1
 91
        0
 64
     7
 65
   257
 75
     1
175
     1
 42
1.0
 92
        8
 66
     8
424
  7895160
 43
1.0
 76
     1
 77
     6
 78
     2
 67
     7
 79
     5
170
     0
171
     0
290
     0
174
     0
 93
       13
 44
0.0
173
     0
291
     0
 45
0.0
  0
VISUALSTYLE
  5
37
102
{ACAD_REACTORS
330
2A
102
}
330
2A
100
AcDbVisualStyle
  2
Thicken
 70
    13
 71
     2
 72
     2
 73
     0
 90
        0
 40
-0.6
 41
-30.0
 62
     5
 63
     7
421
 16777215
 74
     1
 91
        4
 64
     7
 65
   257
 75
     1
175
     1
 42
1.0
 92
       12
 66
     7
 43
1.0
 76
     1
 77
     6
 78
     2
 67
     7
 79
     5
170
     0
171
     0
290
     0
174
     0
 93
        1
 44
0.0
173
     0
291
     1
 45
0.0
  0
ENDSEC
  0
EOF
