0
SECTION
2
HEADER
9
$INSUNITS
70
4
9
$ACADVER
1
AC1014
9
$HANDSEED
5
FFFF
0
ENDSEC
0
SECTION
2
TABLES
0
TABLE
2
VPORT
5
8
100
AcDbSymbolTable
0
ENDTAB
0
TABLE
2
LTYPE
5
5
100
AcDbSymbolTable
0
LTYPE
5
14
100
AcDbSymbolTableRecord
100
AcDbLinetypeTableRecord
2
BYBLOCK
70
0
0
LTYPE
5
15
100
AcDbSymbolTableRecord
100
AcDbLinetypeTableRecord
2
BYLAYER
70
0
0
ENDTAB
0
TABLE
2
LAYER
5
2
100
AcDbSymbolTable
70
2
0
LAYER
5
50
100
AcDbSymbolTableRecord
100
AcDbLayerTableRecord
2
0
70
0
6
CONTINUOUS
0
ENDTAB
0
TABLE
2
STYLE
5
3
100
AcDbSymbolTable
70
1
0
STYLE
5
11
100
AcDbSymbolTableRecord
100
AcDbTextStyleTableRecord
2
STANDARD
70
0
0
ENDTAB
0
TABLE
2
VIEW
5
6
100
AcDbSymbolTable
70
0
0
ENDTAB
0
TABLE
2
UCS
5
7
100
AcDbSymbolTable
70
0
0
ENDTAB
0
TABLE
2
APPID
5
9
100
AcDbSymbolTable
70
2
0
APPID
5
12
100
AcDbSymbolTableRecord
100
AcDbRegAppTableRecord
2
ACAD
70
0
0
ENDTAB
0
TABLE
2
DIMSTYLE
5
A
100
AcDbSymbolTable
70
1
0
ENDTAB
0
TABLE
2
BLOCK_RECORD
5
1
100
AcDbSymbolTable
70
1
0
BLOCK_RECORD
5
1F
100
AcDbSymbolTableRecord
100
AcDbBlockTableRecord
2
*MODEL_SPACE
0
BLOCK_RECORD
5
1B
100
AcDbSymbolTableRecord
100
AcDbBlockTableRecord
2
*PAPER_SPACE
0
ENDTAB
0
ENDSEC
0
SECTION
2
BLOCKS
0
BLOCK
5
20
100
AcDbEntity
100
AcDbBlockBegin
2
*MODEL_SPACE
0
ENDBLK
5
21
100
AcDbEntity
100
AcDbBlockEnd
0
BLOCK
5
1C
100
AcDbEntity
100
AcDbBlockBegin
2
*PAPER_SPACE
0
ENDBLK
5
1D
100
AcDbEntity
100
AcDbBlockEnd
0
ENDSEC
0
SECTION
2
ENTITIES
0
LINE
5
100
100
AcDbEntity
8
0
100
AcDbLine
10
-10.179999999999998
20
30.400000000000631
30
0
11
-5.1800000000000068
21
30.400000000000631
31
0
0
LINE
5
101
100
AcDbEntity
8
0
100
AcDbLine
10
-5.1800000000000068
20
30.400000000000631
30
0
11
-5.1799999999999997
21
198.02000610351638
31
0
0
LINE
5
102
100
AcDbEntity
8
0
100
AcDbLine
10
-5.1799999999999997
20
198.02000610351638
30
0
11
-198.20000000000005
21
198.02000610351641
31
0
0
LINE
5
103
100
AcDbEntity
8
0
100
AcDbLine
10
-198.20000000000005
20
198.02000610351641
30
0
11
-198.20000000000005
21
30.400000000000738
31
0
0
LINE
5
104
100
AcDbEntity
8
0
100
AcDbLine
10
-198.20000000000005
20
30.400000000000738
30
0
11
-193.20000000000005
21
30.400000000000631
31
0
0
LINE
5
105
100
AcDbEntity
8
0
100
AcDbLine
10
-193.20000000000005
20
30.400000000000631
30
0
11
-193.20000000000005
21
12.620000000000712
31
0
0
LINE
5
106
100
AcDbEntity
8
0
100
AcDbLine
10
-193.20000000000005
20
12.620000000000712
30
0
11
-198.20000000000005
21
12.620000000000715
31
0
0
LINE
5
107
100
AcDbEntity
8
0
100
AcDbLine
10
-198.20000000000005
20
12.620000000000715
30
0
11
-198.20000000000005
21
5.0000000000006377
31
0
0
LINE
5
108
100
AcDbEntity
8
0
100
AcDbLine
10
-198.20000000000005
20
5.0000000000006377
30
0
11
-183.19999999999999
21
5.0000000000007105
31
0
0
LINE
5
109
100
AcDbEntity
8
0
100
AcDbLine
10
-183.19999999999999
20
5.0000000000007105
30
0
11
-183.19999999999999
21
6.3837823915946501e-13
31
0
0
LINE
5
110
100
AcDbEntity
8
0
100
AcDbLine
10
-183.19999999999999
20
6.1035163412270776e-06
30
0
11
-172.62
21
6.1035163412270776e-06
31
0
0
LINE
5
111
100
AcDbEntity
8
0
100
AcDbLine
10
-172.62
20
6.3948846218409007e-13
30
0
11
-172.62
21
12.620000000000717
31
0
0
LINE
5
112
100
AcDbEntity
8
0
100
AcDbLine
10
-172.62
20
12.620000000000717
30
0
11
-167.62
21
12.620000000000715
31
0
0
LINE
5
113
100
AcDbEntity
8
0
100
AcDbLine
10
-167.62
20
12.620000000000715
30
0
11
-167.62
21
5.0000000000006377
31
-2.4563943719502666e-22
0
LINE
5
114
100
AcDbEntity
8
0
100
AcDbLine
10
-167.62
20
5.0000000000006377
30
-2.4563943719502666e-22
11
-147.62
21
5.0000000000007105
31
0
0
LINE
5
115
100
AcDbEntity
8
0
100
AcDbLine
10
-147.62
20
5.0000000000007105
30
0
11
-147.62
21
6.3837823915946501e-13
31
0
0
LINE
5
116
100
AcDbEntity
8
0
100
AcDbLine
10
-147.62
20
6.1035163412270776e-06
30
0
11
-132.62
21
6.1035163412270776e-06
31
0
0
LINE
5
117
100
AcDbEntity
8
0
100
AcDbLine
10
-132.62
20
6.3948846218409007e-13
30
0
11
-132.62
21
5.0000000000007114
31
0
0
LINE
5
118
100
AcDbEntity
8
0
100
AcDbLine
10
-132.62
20
5.0000000000007114
30
0
11
-112.62
21
5.0000000000007105
31
0
0
LINE
5
119
100
AcDbEntity
8
0
100
AcDbLine
10
-112.62
20
5.0000000000007105
30
0
11
-112.62
21
6.3837823915946501e-13
31
0
0
LINE
5
120
100
AcDbEntity
8
0
100
AcDbLine
10
-112.62
20
6.1035163412270776e-06
30
0
11
-90.579999999999998
21
6.1035163412270776e-06
31
0
0
LINE
5
121
100
AcDbEntity
8
0
100
AcDbLine
10
-90.579999999999998
20
6.3948846218409007e-13
30
0
11
-90.579999999999998
21
5.0000000000007114
31
0
0
LINE
5
122
100
AcDbEntity
8
0
100
AcDbLine
10
-90.579999999999998
20
5.0000000000007114
30
0
11
-70.579999999999998
21
5.0000000000007105
31
0
0
LINE
5
123
100
AcDbEntity
8
0
100
AcDbLine
10
-70.579999999999998
20
5.0000000000007105
30
0
11
-70.580000000000013
21
6.3837823915946501e-13
31
0
0
LINE
5
124
100
AcDbEntity
8
0
100
AcDbLine
10
-70.579999999999998
20
6.1035163412270776e-06
30
0
11
-55.579999999999998
21
6.1035163412270776e-06
31
0
0
LINE
5
125
100
AcDbEntity
8
0
100
AcDbLine
10
-55.579999999999998
20
6.3948846218409007e-13
30
0
11
-55.579999999999998
21
5.0000000000007114
31
0
0
LINE
5
126
100
AcDbEntity
8
0
100
AcDbLine
10
-55.579999999999998
20
5.0000000000007114
30
0
11
-35.579999999999998
21
5.0000000000007105
31
0
0
LINE
5
127
100
AcDbEntity
8
0
100
AcDbLine
10
-35.579999999999998
20
5.0000000000007105
30
0
11
-35.579999999999998
21
12.620000000000148
31
2.456403207192405e-22
0
LINE
5
128
100
AcDbEntity
8
0
100
AcDbLine
10
-35.579999999999998
20
12.620000000000148
30
2.456403207192405e-22
11
-30.579999999999998
21
12.620000000000147
31
0
0
LINE
5
129
100
AcDbEntity
8
0
100
AcDbLine
10
-30.579999999999998
20
12.620000000000147
30
0
11
-30.579999999999998
21
6.8833827526759706e-14
31
0
0
LINE
5
130
100
AcDbEntity
8
0
100
AcDbLine
10
-30.579999999999998
20
6.1035163412270776e-06
30
0
11
-20
21
6.1035163412270776e-06
31
0
0
LINE
5
131
100
AcDbEntity
8
0
100
AcDbLine
10
-20
20
6.3948846218409007e-13
30
0
11
-20
21
5.0000000000007114
31
0
0
LINE
5
132
100
AcDbEntity
8
0
100
AcDbLine
10
-20
20
5.0000000000007114
30
0
11
-5.1799999999999997
21
5.0000000000006395
31
0
0
LINE
5
133
100
AcDbEntity
8
0
100
AcDbLine
10
-5.1799999999999997
20
5.0000000000006395
30
0
11
-5.1799999999999997
21
12.620000000000717
31
0
0
LINE
5
134
100
AcDbEntity
8
0
100
AcDbLine
10
-5.1799999999999997
20
12.620000000000717
30
0
11
-10.180000000000007
21
12.620000000000715
31
0
0
LINE
5
135
100
AcDbEntity
8
0
100
AcDbLine
10
-10.180000000000007
20
12.620000000000715
30
0
11
-10.179999999999998
21
30.400000000000631
31
0
0
LWPOLYLINE
5
136
100
AcDbEntity
8
0
100
AcDbPolyline
90
4
70
1
43
0.0
10
-35.579999999999998
20
112.62000000000022
10
-30.579999999999998
20
112.62000000000022
10
-30.579999999999998
20
132.62000000000023
10
-35.579999999999998
20
132.62000000000023
0
LWPOLYLINE
5
137
100
AcDbEntity
8
0
100
AcDbPolyline
90
4
70
1
43
0.0
10
-35.579999999999998
20
72.620000000000147
10
-30.579999999999998
20
72.620000000000147
10
-30.579999999999998
20
92.620000000000218
10
-35.579999999999998
20
92.620000000000147
0
LWPOLYLINE
5
138
100
AcDbEntity
8
0
100
AcDbPolyline
90
4
70
1
43
0.0
10
-35.579999999999998
20
32.620000000000147
10
-30.579999999999998
20
32.620000000000147
10
-30.579999999999998
20
52.620000000000147
10
-35.579999999999998
20
52.620000000000147
0
LWPOLYLINE
5
139
100
AcDbEntity
8
0
100
AcDbPolyline
90
6
70
1
43
0.0
10
-147.61999999999998
20
172.62000000000072
10
-172.61999999999998
20
172.6200000000008
10
-172.61999999999998
20
152.6200000000008
10
-167.61999999999998
20
152.6200000000008
10
-167.61999999999998
20
167.62000000000072
10
-147.61999999999998
20
167.62000000000072
0
LWPOLYLINE
5
140
100
AcDbEntity
8
0
100
AcDbPolyline
90
4
70
1
43
0.0
10
-172.62
20
112.62000000000079
10
-167.62
20
112.62000000000079
10
-167.62
20
132.6200000000008
10
-172.62
20
132.6200000000008
0
LWPOLYLINE
5
141
100
AcDbEntity
8
0
100
AcDbPolyline
90
4
70
1
43
0.0
10
-172.62
20
72.620000000000715
10
-167.62
20
72.620000000000715
10
-167.62
20
92.620000000000786
10
-172.62
20
92.620000000000715
0
LWPOLYLINE
5
142
100
AcDbEntity
8
0
100
AcDbPolyline
90
4
70
1
43
0.0
10
-172.62
20
32.620000000000715
10
-167.62
20
32.620000000000715
10
-167.62
20
52.620000000000715
10
-172.62
20
52.620000000000715
0
LWPOLYLINE
5
143
100
AcDbEntity
8
0
100
AcDbPolyline
90
6
70
1
43
0.0
10
-30.579999999999998
20
172.62000000000023
10
-55.579999999999984
20
172.62000000000072
10
-55.579999999999984
20
167.62000000000072
10
-35.579999999999998
20
167.62000000000072
10
-35.579999999999998
20
152.62000000000023
10
-30.579999999999998
20
152.62000000000023
0
LWPOLYLINE
5
144
100
AcDbEntity
8
0
100
AcDbPolyline
90
4
70
1
43
0.0
10
-112.61999999999999
20
172.62000000000072
10
-132.61999999999998
20
172.62000000000072
10
-132.61999999999998
20
167.62000000000072
10
-112.61999999999999
20
167.62000000000072
0
LWPOLYLINE
5
145
100
AcDbEntity
8
0
100
AcDbPolyline
90
4
70
1
43
0.0
10
-70.579999999999984
20
172.62000000000072
10
-90.579999999999984
20
172.62000000000072
10
-90.579999999999984
20
167.62000000000072
10
-70.579999999999984
20
167.62000000000072
0
CIRCLE
5
146
100
AcDbEntity
8
0
100
AcDbCircle
10
-101.69000000000003
20
99.010006103516375
30
0
40
50.79999999999999
0
ENDSEC
0
SECTION
2
OBJECTS
0
DICTIONARY
5
C
100
AcDbDictionary
3
ACAD_GROUP
350
D
3
ACAD_MLINESTYLE
350
17
0
DICTIONARY
5
D
100
AcDbDictionary
0
DICTIONARY
5
1A
330
C
100
AcDbDictionary
0
DICTIONARY
5
17
100
AcDbDictionary
0
ENDSEC
0
EOF
