  0
SECTION
  2
HEADER
  9
$ACADVER
  1
AC1018
  9
$ACADMAINTVER
 70
     0
  9
$DWGCODEPAGE
  3
MAC-ROMAN
  9
$INSBASE
 10
0.0
 20
0.0
 30
0.0
  9
$EXTMIN
 10
-2.899970529541013
 20
0.1999999999999993
 30
0.0
  9
$EXTMAX
 10
12.205
 20
8.8
 30
0.0
  9
$LIMMIN
 10
0.0
 20
0.0
  9
$LIMMAX
 10
12.0
 20
9.0
  9
$ORTHOMODE
 70
     0
  9
$REGENMODE
 70
     1
  9
$FILLMODE
 70
     1
  9
$QTEXTMODE
 70
     0
  9
$MIRRTEXT
 70
     1
  9
$LTSCALE
 40
1.0
  9
$ATTMODE
 70
     1
  9
$TEXTSIZE
 40
0.2
  9
$TRACEWID
 40
0.05
  9
$TEXTSTYLE
  7
Standard
  9
$CLAYER
  8
Default
  9
$CELTYPE
  6
ByLayer
  9
$CECOLOR
 62
   256
  9
$CELTSCALE
 40
1.0
  9
$DISPSILH
 70
     0
  9
$DIMSCALE
 40
1.0
  9
$DIMASZ
 40
0.18
  9
$DIMEXO
 40
0.0625
  9
$DIMDLI
 40
0.38
  9
$DIMRND
 40
0.0
  9
$DIMDLE
 40
0.0
  9
$DIMEXE
 40
0.18
  9
$DIMTP
 40
0.0
  9
$DIMTM
 40
0.0
  9
$DIMTXT
 40
0.18
  9
$DIMCEN
 40
0.09
  9
$DIMTSZ
 40
0.0
  9
$DIMTOL
 70
     0
  9
$DIMLIM
 70
     0
  9
$DIMTIH
 70
     1
  9
$DIMTOH
 70
     1
  9
$DIMSE1
 70
     0
  9
$DIMSE2
 70
     0
  9
$DIMTAD
 70
     0
  9
$DIMZIN
 70
     0
  9
$DIMBLK
  1

  9
$DIMASO
 70
     1
  9
$DIMSHO
 70
     1
  9
$DIMPOST
  1

  9
$DIMAPOST
  1

  9
$DIMALT
 70
     0
  9
$DIMALTD
 70
     2
  9
$DIMALTF
 40
25.4
  9
$DIMLFAC
 40
1.0
  9
$DIMTOFL
 70
     0
  9
$DIMTVP
 40
0.0
  9
$DIMTIX
 70
     0
  9
$DIMSOXD
 70
     0
  9
$DIMSAH
 70
     0
  9
$DIMBLK1
  1

  9
$DIMBLK2
  1

  9
$DIMSTYLE
  2
Standard
  9
$DIMCLRD
 70
     0
  9
$DIMCLRE
 70
     0
  9
$DIMCLRT
 70
     0
  9
$DIMTFAC
 40
1.0
  9
$DIMGAP
 40
0.09
  9
$DIMJUST
 70
     0
  9
$DIMSD1
 70
     0
  9
$DIMSD2
 70
     0
  9
$DIMTOLJ
 70
     1
  9
$DIMTZIN
 70
     0
  9
$DIMALTZ
 70
     0
  9
$DIMALTTZ
 70
     0
  9
$DIMUPT
 70
     0
  9
$DIMDEC
 70
     4
  9
$DIMTDEC
 70
     4
  9
$DIMALTU
 70
     2
  9
$DIMALTTD
 70
     2
  9
$DIMTXSTY
  7
Standard
  9
$DIMAUNIT
 70
     0
  9
$DIMADEC
 70
     0
  9
$DIMALTRND
 40
0.0
  9
$DIMAZIN
 70
     0
  9
$DIMDSEP
 70
    46
  9
$DIMATFIT
 70
     3
  9
$DIMFRAC
 70
     0
  9
$DIMLDRBLK
  1

  9
$DIMLUNIT
 70
     2
  9
$DIMLWD
 70
    -2
  9
$DIMLWE
 70
    -2
  9
$DIMTMOVE
 70
     2
  9
$LUNITS
 70
     2
  9
$LUPREC
 70
     2
  9
$SKETCHINC
 40
0.1
  9
$FILLETRAD
 40
0.5
  9
$AUNITS
 70
     0
  9
$AUPREC
 70
     0
  9
$MENU
  1
.
  9
$ELEVATION
 40
0.0
  9
$PELEVATION
 40
0.0
  9
$THICKNESS
 40
0.0
  9
$LIMCHECK
 70
     0
  9
$CHAMFERA
 40
0.0
  9
$CHAMFERB
 40
0.0
  9
$CHAMFERC
 40
0.0
  9
$CHAMFERD
 40
0.0
  9
$SKPOLY
 70
     0
  9
$TDCREATE
 40
2456962.458564803
  9
$TDUCREATE
 40
2456962.791898148
  9
$TDUPDATE
 40
2456962.458587951
  9
$TDUUPDATE
 40
2456962.791921296
  9
$TDINDWG
 40
0.0000000116
  9
$TDUSRTIMER
 40
0.0000000116
  9
$USRTIMER
 70
     1
  9
$ANGBASE
 50
0.0
  9
$ANGDIR
 70
     0
  9
$PDMODE
 70
     0
  9
$PDSIZE
 40
0.0
  9
$PLINEWID
 40
0.0
  9
$SPLFRAME
 70
     0
  9
$SPLINETYPE
 70
     6
  9
$SPLINESEGS
 70
     8
  9
$HANDSEED
  5
34F
  9
$SURFTAB1
 70
     6
  9
$SURFTAB2
 70
     6
  9
$SURFTYPE
 70
     6
  9
$SURFU
 70
     6
  9
$SURFV
 70
     6
  9
$UCSBASE
  2

  9
$UCSNAME
  2

  9
$UCSORG
 10
0.0
 20
0.0
 30
0.0
  9
$UCSXDIR
 10
1.0
 20
0.0
 30
0.0
  9
$UCSYDIR
 10
0.0
 20
1.0
 30
0.0
  9
$UCSORTHOREF
  2

  9
$UCSORTHOVIEW
 70
     0
  9
$UCSORGTOP
 10
0.0
 20
0.0
 30
0.0
  9
$UCSORGBOTTOM
 10
0.0
 20
0.0
 30
0.0
  9
$UCSORGLEFT
 10
0.0
 20
0.0
 30
0.0
  9
$UCSORGRIGHT
 10
0.0
 20
0.0
 30
0.0
  9
$UCSORGFRONT
 10
0.0
 20
0.0
 30
0.0
  9
$UCSORGBACK
 10
0.0
 20
0.0
 30
0.0
  9
$PUCSBASE
  2

  9
$PUCSNAME
  2

  9
$PUCSORG
 10
0.0
 20
0.0
 30
0.0
  9
$PUCSXDIR
 10
1.0
 20
0.0
 30
0.0
  9
$PUCSYDIR
 10
0.0
 20
1.0
 30
0.0
  9
$PUCSORTHOREF
  2

  9
$PUCSORTHOVIEW
 70
     0
  9
$PUCSORGTOP
 10
0.0
 20
0.0
 30
0.0
  9
$PUCSORGBOTTOM
 10
0.0
 20
0.0
 30
0.0
  9
$PUCSORGLEFT
 10
0.0
 20
0.0
 30
0.0
  9
$PUCSORGRIGHT
 10
0.0
 20
0.0
 30
0.0
  9
$PUCSORGFRONT
 10
0.0
 20
0.0
 30
0.0
  9
$PUCSORGBACK
 10
0.0
 20
0.0
 30
0.0
  9
$USERI1
 70
     0
  9
$USERI2
 70
     0
  9
$USERI3
 70
     0
  9
$USERI4
 70
     0
  9
$USERI5
 70
     0
  9
$USERR1
 40
0.0
  9
$USERR2
 40
0.0
  9
$USERR3
 40
0.0
  9
$USERR4
 40
0.0
  9
$USERR5
 40
0.0
  9
$WORLDVIEW
 70
     1
  9
$SHADEDGE
 70
     3
  9
$SHADEDIF
 70
    70
  9
$TILEMODE
 70
     1
  9
$MAXACTVP
 70
    64
  9
$PINSBASE
 10
0.0
 20
0.0
 30
0.0
  9
$PLIMCHECK
 70
     0
  9
$PEXTMIN
 10
1.000000000000000E+20
 20
1.000000000000000E+20
 30
1.000000000000000E+20
  9
$PEXTMAX
 10
-1.000000000000000E+20
 20
-1.000000000000000E+20
 30
-1.000000000000000E+20
  9
$PLIMMIN
 10
0.0
 20
0.0
  9
$PLIMMAX
 10
12.0
 20
9.0
  9
$UNITMODE
 70
     0
  9
$VISRETAIN
 70
     1
  9
$PLINEGEN
 70
     0
  9
$PSLTSCALE
 70
     1
  9
$TREEDEPTH
 70
  3020
  9
$CMLSTYLE
  2
Standard
  9
$CMLJUST
 70
     0
  9
$CMLSCALE
 40
1.0
  9
$PROXYGRAPHICS
 70
     1
  9
$MEASUREMENT
 70
     0
  9
$CELWEIGHT
370
    -1
  9
$ENDCAPS
280
     0
  9
$JOINSTYLE
280
     0
  9
$LWDISPLAY
290
     0
  9
$INSUNITS
 70
     1
  9
$HYPERLINKBASE
  1

  9
$STYLESHEET
  1

  9
$XEDIT
290
     1
  9
$CEPSNTYPE
380
     0
  9
$PSTYLEMODE
290
     1
  9
$FINGERPRINTGUID
  2
{1A50BD25-2A4C-F901-1E65-C02CC210E7F9}
  9
$VERSIONGUID
  2
{FAEB1C32-E019-11D5-929B-00C0DF256EC4}
  9
$EXTNAMES
290
     1
  9
$PSVPSCALE
 40
0.0
  9
$OLESTARTUP
290
     0
  9
$SORTENTS
280
   127
  9
$INDEXCTL
280
     0
  9
$HIDETEXT
280
     1
  9
$XCLIPFRAME
290
     0
  9
$HALOGAP
280
     0
  9
$OBSCOLOR
 70
   257
  9
$OBSLTYPE
280
     0
  9
$INTERSECTIONDISPLAY
280
     0
  9
$INTERSECTIONCOLOR
 70
   257
  9
$DIMASSOC
280
     2
  9
$PROJECTNAME
  1

  0
ENDSEC
  0
SECTION
  2
CLASSES
  0
CLASS
  1
ACDBDICTIONARYWDFLT
  2
AcDbDictionaryWithDefault
  3
ObjectDBX Classes
 90
        0
 91
        4
280
     0
281
     0
  0
CLASS
  1
VISUALSTYLE
  2
AcDbVisualStyle
  3
ObjectDBX Classes
 90
     4095
 91
        4
280
     0
281
     0
  0
CLASS
  1
MATERIAL
  2
AcDbMaterial
  3
ObjectDBX Classes
 90
     1153
 91
        4
280
     0
281
     0
  0
CLASS
  1
SCALE
  2
AcDbScale
  3
ObjectDBX Classes
 90
     1153
 91
        4
280
     0
281
     0
  0
CLASS
  1
SUN
  2
AcDbSun
  3
SCENEOE
 90
     1153
 91
        4
280
     0
281
     0
  0
CLASS
  1
DICTIONARYVAR
  2
AcDbDictionaryVar
  3
ObjectDBX Classes
 90
        0
 91
        4
280
     0
281
     0
  0
ENDSEC
  0
SECTION
  2
TABLES
  0
TABLE
  2
VPORT
  5
8
102
{ACAD_XDICTIONARY
360
310
102
}
330
0
100
AcDbSymbolTable
 70
     1
  0
VPORT
  5
29
330
8
100
AcDbSymbolTableRecord
100
AcDbViewportTableRecord
  2
*Active
 70
     0
 10
0.0
 20
0.0
 11
1.0
 21
1.0
 12
4.652514735229494
 22
4.5
 13
0.0
 23
0.0
 14
0.5
 24
0.5
 15
0.5
 25
0.5
 16
0.0
 26
0.0
 36
1.0
 17
0.0
 27
0.0
 37
0.0
 40
8.772000000000002
 41
1.756391922039652
 42
50.0
 43
0.0
 44
0.0
 50
0.0
 51
0.0
 71
     0
 72
   100
 73
     1
 74
     3
 75
     0
 76
     0
 77
     0
 78
     0
281
     0
 65
     1
110
0.0
120
0.0
130
0.0
111
1.0
121
0.0
131
0.0
112
0.0
122
1.0
132
0.0
 79
     0
146
0.0
  0
ENDTAB
  0
TABLE
  2
LTYPE
  5
5
330
0
100
AcDbSymbolTable
 70
     1
  0
LTYPE
  5
14
330
5
100
AcDbSymbolTableRecord
100
AcDbLinetypeTableRecord
  2
ByBlock
 70
     0
  3

 72
    65
 73
     0
 40
0.0
  0
LTYPE
  5
15
330
5
100
AcDbSymbolTableRecord
100
AcDbLinetypeTableRecord
  2
ByLayer
 70
     0
  3

 72
    65
 73
     0
 40
0.0
  0
LTYPE
  5
16
330
5
100
AcDbSymbolTableRecord
100
AcDbLinetypeTableRecord
  2
Continuous
 70
     0
  3
Solid line
 72
    65
 73
     0
 40
0.0
  0
ENDTAB
  0
TABLE
  2
LAYER
  5
2
330
0
100
AcDbSymbolTable
 70
     2
  0
LAYER
  5
10
330
2
100
AcDbSymbolTableRecord
100
AcDbLayerTableRecord
  2
0
 70
     0
 62
     7
  6
Continuous
370
    -3
390
F
  0
LAYER
  5
6A
330
2
100
AcDbSymbolTableRecord
100
AcDbLayerTableRecord
  2
Default
 70
     0
 62
   178
420
        0
  6
Continuous
370
    -3
390
F
  0
ENDTAB
  0
TABLE
  2
STYLE
  5
3
330
0
100
AcDbSymbolTable
 70
     1
  0
STYLE
  5
11
330
3
100
AcDbSymbolTableRecord
100
AcDbTextStyleTableRecord
  2
Standard
 70
     0
 40
0.0
 41
1.0
 50
0.0
 71
     0
 42
0.2
  3
txt
  4

  0
ENDTAB
  0
TABLE
  2
VIEW
  5
6
330
0
100
AcDbSymbolTable
 70
     0
  0
ENDTAB
  0
TABLE
  2
UCS
  5
7
330
0
100
AcDbSymbolTable
 70
     0
  0
ENDTAB
  0
TABLE
  2
APPID
  5
9
330
0
100
AcDbSymbolTable
 70
     1
  0
APPID
  5
12
330
9
100
AcDbSymbolTableRecord
100
AcDbRegAppTableRecord
  2
ACAD
 70
     0
  0
ENDTAB
  0
TABLE
  2
DIMSTYLE
  5
A
330
0
100
AcDbSymbolTable
 70
     1
100
AcDbDimStyleTable
  0
DIMSTYLE
105
27
330
A
100
AcDbSymbolTableRecord
100
AcDbDimStyleTableRecord
  2
Standard
 70
     0
178
     0
340
11
  0
ENDTAB
  0
TABLE
  2
BLOCK_RECORD
  5
1
330
0
100
AcDbSymbolTable
 70
     1
  0
BLOCK_RECORD
  5
1F
330
1
100
AcDbSymbolTableRecord
100
AcDbBlockTableRecord
  2
*Model_Space
340
22
  0
BLOCK_RECORD
  5
1B
330
1
100
AcDbSymbolTableRecord
100
AcDbBlockTableRecord
  2
*Paper_Space
340
1E
  0
BLOCK_RECORD
  5
23
330
1
100
AcDbSymbolTableRecord
100
AcDbBlockTableRecord
  2
*Paper_Space0
340
26
  0
ENDTAB
  0
ENDSEC
  0
SECTION
  2
BLOCKS
  0
BLOCK
  5
20
330
1F
100
AcDbEntity
  8
0
100
AcDbBlockBegin
  2
*Model_Space
 70
     0
 10
0.0
 20
0.0
 30
0.0
  3
*Model_Space
  1
*Model_Space
  0
ENDBLK
  5
21
330
1F
100
AcDbEntity
  8
0
100
AcDbBlockEnd
  0
BLOCK
  5
1C
330
1B
100
AcDbEntity
 67
     1
  8
0
100
AcDbBlockBegin
  2
*Paper_Space
 70
     0
 10
0.0
 20
0.0
 30
0.0
  3
*Paper_Space
  1
*Paper_Space
  0
ENDBLK
  5
1D
330
1B
100
AcDbEntity
 67
     1
  8
0
100
AcDbBlockEnd
  0
BLOCK
  5
24
330
23
100
AcDbEntity
  8
0
100
AcDbBlockBegin
  2
*Paper_Space0
 70
     0
 10
0.0
 20
0.0
 30
0.0
  3
*Paper_Space0
  1
*Paper_Space0
  0
ENDBLK
  5
25
330
23
100
AcDbEntity
  8
0
100
AcDbBlockEnd
  0
ENDSEC
  0
SECTION
  2
ENTITIES
  0
LINE
  5
6B
330
1F
100
AcDbEntity
  8
Default
100
AcDbLine
 10
8.405
 20
5.695
 30
0.0
 11
8.405
 21
5.685
 31
0.0
  0
LINE
  5
6C
330
1F
100
AcDbEntity
  8
Default
100
AcDbLine
 10
8.205000000000002
 20
5.874999999999999
 30
0.0
 11
8.205000000000002
 21
5.695
 31
0.0
  0
LINE
  5
6D
330
1F
100
AcDbEntity
  8
Default
100
AcDbLine
 10
12.205
 20
5.874999999999999
 30
0.0
 11
12.205
 21
5.695
 31
0.0
  0
LINE
  5
6E
330
1F
100
AcDbEntity
  8
Default
100
AcDbLine
 10
12.005
 20
5.695
 30
0.0
 11
12.005
 21
5.67
 31
0.0
  0
LINE
  5
6F
330
1F
100
AcDbEntity
  8
Default
100
AcDbLine
 10
12.005
 20
5.875
 30
0.0
 11
12.005
 21
5.89
 31
0.0
  0
LINE
  5
70
330
1F
100
AcDbEntity
  8
Default
100
AcDbLine
 10
12.205
 20
5.695
 30
0.0
 11
12.005
 21
5.695
 31
0.0
  0
LINE
  5
71
330
1F
100
AcDbEntity
  8
Default
100
AcDbLine
 10
12.205
 20
5.875
 30
0.0
 11
12.005
 21
5.875
 31
0.0
  0
LINE
  5
72
330
1F
100
AcDbEntity
  8
Default
100
AcDbLine
 10
8.205
 20
5.695
 30
0.0
 11
8.405
 21
5.695
 31
0.0
  0
LINE
  5
73
330
1F
100
AcDbEntity
  8
Default
100
AcDbLine
 10
8.405
 20
5.875
 30
0.0
 11
8.405
 21
5.885
 31
0.0
  0
LINE
  5
74
330
1F
100
AcDbEntity
  8
Default
100
AcDbLine
 10
8.205
 20
5.875
 30
0.0
 11
8.405
 21
5.875
 31
0.0
  0
LINE
  5
75
330
1F
100
AcDbEntity
  8
Default
100
AcDbLine
 10
8.405
 20
3.085
 30
0.0
 11
8.405
 21
2.885000000000001
 31
0.0
  0
LINE
  5
76
330
1F
100
AcDbEntity
  8
Default
100
AcDbLine
 10
9.605
 20
2.885
 30
0.0
 11
9.605
 21
2.785000000000001
 31
0.0
  0
LINE
  5
77
330
1F
100
AcDbEntity
  8
Default
100
AcDbLine
 10
9.705
 20
2.885
 30
0.0
 11
9.705
 21
3.085000000000001
 31
0.0
  0
LINE
  5
78
330
1F
100
AcDbEntity
  8
Default
100
AcDbLine
 10
10.705
 20
3.085000000000001
 30
0.0
 11
10.705
 21
2.885
 31
0.0
  0
LINE
  5
79
330
1F
100
AcDbEntity
  8
Default
100
AcDbLine
 10
10.805
 20
2.785
 30
0.0
 11
10.805
 21
2.885000000000001
 31
0.0
  0
LINE
  5
7A
330
1F
100
AcDbEntity
  8
Default
100
AcDbLine
 10
12.005
 20
3.085
 30
0.0
 11
12.005
 21
2.885000000000001
 31
0.0
  0
LINE
  5
7B
330
1F
100
AcDbEntity
  8
Default
100
AcDbLine
 10
9.705000000000002
 20
3.085000000000001
 30
0.0
 11
10.705
 21
3.085000000000001
 31
0.0
  0
LINE
  5
7C
330
1F
100
AcDbEntity
  8
Default
100
AcDbLine
 10
9.705000000000002
 20
2.885
 30
0.0
 11
10.705
 21
2.885
 31
0.0
  0
LINE
  5
7D
330
1F
100
AcDbEntity
  8
Default
100
AcDbLine
 10
10.705
 20
2.785000000000001
 30
0.0
 11
10.805
 21
2.785000000000001
 31
0.0
  0
LINE
  5
7E
330
1F
100
AcDbEntity
  8
Default
100
AcDbLine
 10
10.805
 20
2.885000000000001
 30
0.0
 11
12.005
 21
2.885000000000001
 31
0.0
  0
LINE
  5
7F
330
1F
100
AcDbEntity
  8
Default
100
AcDbLine
 10
9.705000000000002
 20
2.785000000000001
 30
0.0
 11
9.605000000000002
 21
2.785000000000001
 31
0.0
  0
LINE
  5
80
330
1F
100
AcDbEntity
  8
Default
100
AcDbLine
 10
9.705000000000002
 20
2.785000000000001
 30
0.0
 11
10.705
 21
2.785000000000001
 31
0.0
  0
LINE
  5
81
330
1F
100
AcDbEntity
  8
Default
100
AcDbLine
 10
8.405000000000003
 20
2.885000000000001
 30
0.0
 11
9.605000000000002
 21
2.885000000000001
 31
0.0
  0
LINE
  5
82
330
1F
100
AcDbEntity
  8
Default
100
AcDbLine
 10
12.005
 20
5.885000000000001
 30
0.0
 11
12.005
 21
6.085
 31
0.0
  0
LINE
  5
83
330
1F
100
AcDbEntity
  8
Default
100
AcDbLine
 10
8.405000000000001
 20
5.885000000000001
 30
0.0
 11
8.405000000000001
 21
6.085
 31
0.0
  0
LINE
  5
84
330
1F
100
AcDbEntity
  8
Default
100
AcDbLine
 10
12.005
 20
5.085
 30
0.0
 11
12.005
 21
5.685000000000001
 31
0.0
  0
LINE
  5
85
330
1F
100
AcDbEntity
  8
Default
100
AcDbLine
 10
8.405000000000003
 20
5.085
 30
0.0
 11
8.405000000000003
 21
5.685000000000001
 31
0.0
  0
LINE
  5
86
330
1F
100
AcDbEntity
  8
Default
100
AcDbLine
 10
12.005
 20
5.085
 30
0.0
 11
12.005
 21
4.085
 31
0.0
  0
LINE
  5
87
330
1F
100
AcDbEntity
  8
Default
100
AcDbLine
 10
8.405000000000001
 20
5.085
 30
0.0
 11
8.405000000000001
 21
4.085
 31
0.0
  0
LINE
  5
88
330
1F
100
AcDbEntity
  8
Default
100
AcDbLine
 10
8.405000000000003
 20
4.085
 30
0.0
 11
8.405000000000003
 21
3.085
 31
0.0
  0
LINE
  5
89
330
1F
100
AcDbEntity
  8
Default
100
AcDbLine
 10
12.005
 20
4.085
 30
0.0
 11
12.005
 21
3.085
 31
0.0
  0
LINE
  5
8A
330
1F
100
AcDbEntity
  8
Default
100
AcDbLine
 10
8.405000000000003
 20
6.085
 30
0.0
 11
9.705000000000002
 21
6.085
 31
0.0
  0
LINE
  5
8B
330
1F
100
AcDbEntity
  8
Default
100
AcDbLine
 10
10.705
 20
6.085
 30
0.0
 11
12.005
 21
6.085
 31
0.0
  0
LINE
  5
8C
330
1F
100
AcDbEntity
  8
Default
100
AcDbLine
 10
9.705000000000002
 20
6.085
 30
0.0
 11
10.705
 21
6.085
 31
0.0
  0
LINE
  5
8D
330
1F
100
AcDbEntity
  8
Default
100
AcDbLine
 10
8.83
 20
4.585
 30
0.0
 11
8.83
 21
5.085
 31
0.0
  0
LINE
  5
8E
330
1F
100
AcDbEntity
  8
Default
100
AcDbLine
 10
8.83
 20
4.585
 30
0.0
 11
8.83
 21
4.085
 31
0.0
  0
LINE
  5
8F
330
1F
100
AcDbEntity
  8
Default
100
AcDbLine
 10
11.58
 20
4.585
 30
0.0
 11
11.58
 21
5.085
 31
0.0
  0
LINE
  5
90
330
1F
100
AcDbEntity
  8
Default
100
AcDbLine
 10
11.58
 20
4.585
 30
0.0
 11
11.58
 21
4.085
 31
0.0
  0
LINE
  5
91
330
1F
100
AcDbEntity
  8
Default
100
AcDbLine
 10
11.58
 20
5.085
 30
0.0
 11
8.83
 21
5.085
 31
0.0
  0
LINE
  5
92
330
1F
100
AcDbEntity
  8
Default
100
AcDbLine
 10
8.83
 20
4.085
 30
0.0
 11
11.58
 21
4.085
 31
0.0
  0
MTEXT
  5
93
330
1F
100
AcDbEntity
  8
Default
100
AcDbMText
 10
9.355
 20
5.53
 30
0.0
 40
0.2
 41
1.933734939759036
 71
     1
 72
     1
  1
\fArial;Thermometer
 73
     2
 44
0.9638554216867472
1001
ACAD
1000
ACAD_MTEXT_DEFINED_HEIGHT_BEGIN
1070
    46
1040
0.2108433734939759
1000
ACAD_MTEXT_DEFINED_HEIGHT_END
  0
LINE
  5
94
330
1F
100
AcDbEntity
  8
Default
100
AcDbLine
 10
10.075
 20
3.625
 30
0.0
 11
10.325
 21
3.625
 31
0.0
  0
LINE
  5
95
330
1F
100
AcDbEntity
  8
Default
100
AcDbLine
 10
10.325
 20
3.625
 30
0.0
 11
10.325
 21
3.875
 31
0.0
  0
LINE
  5
96
330
1F
100
AcDbEntity
  8
Default
100
AcDbLine
 10
10.325
 20
3.875
 30
0.0
 11
10.075
 21
3.875
 31
0.0
  0
LINE
  5
97
330
1F
100
AcDbEntity
  8
Default
100
AcDbLine
 10
10.075
 20
3.875
 30
0.0
 11
10.075
 21
3.625
 31
0.0
  0
LINE
  5
98
330
1F
100
AcDbEntity
  8
Default
100
AcDbLine
 10
9.575000000000001
 20
3.625
 30
0.0
 11
9.825000000000001
 21
3.625
 31
0.0
  0
LINE
  5
99
330
1F
100
AcDbEntity
  8
Default
100
AcDbLine
 10
9.825000000000001
 20
3.625
 30
0.0
 11
9.825000000000001
 21
3.875
 31
0.0
  0
LINE
  5
9A
330
1F
100
AcDbEntity
  8
Default
100
AcDbLine
 10
9.825000000000001
 20
3.875
 30
0.0
 11
9.575000000000001
 21
3.875
 31
0.0
  0
LINE
  5
9B
330
1F
100
AcDbEntity
  8
Default
100
AcDbLine
 10
9.575000000000001
 20
3.875
 30
0.0
 11
9.575000000000001
 21
3.625
 31
0.0
  0
LINE
  5
9C
330
1F
100
AcDbEntity
  8
Default
100
AcDbLine
 10
10.575
 20
3.625
 30
0.0
 11
10.825
 21
3.625
 31
0.0
  0
LINE
  5
9D
330
1F
100
AcDbEntity
  8
Default
100
AcDbLine
 10
10.825
 20
3.625
 30
0.0
 11
10.825
 21
3.875
 31
0.0
  0
LINE
  5
9E
330
1F
100
AcDbEntity
  8
Default
100
AcDbLine
 10
10.825
 20
3.875
 30
0.0
 11
10.575
 21
3.875
 31
0.0
  0
LINE
  5
9F
330
1F
100
AcDbEntity
  8
Default
100
AcDbLine
 10
10.575
 20
3.875
 30
0.0
 11
10.575
 21
3.625
 31
0.0
  0
LINE
  5
A0
330
1F
100
AcDbEntity
  8
Default
100
AcDbLine
 10
1.5
 20
3.0
 30
0.0
 11
2.5
 21
3.0
 31
0.0
  0
LINE
  5
A1
330
1F
100
AcDbEntity
  8
Default
100
AcDbLine
 10
2.5
 20
2.8
 30
0.0
 11
4.0
 21
2.8
 31
0.0
  0
LINE
  5
A2
330
1F
100
AcDbEntity
  8
Default
100
AcDbLine
 10
4.0
 20
6.2
 30
0.0
 11
4.0
 21
6.0
 31
0.0
  0
LINE
  5
A3
330
1F
100
AcDbEntity
  8
Default
100
AcDbLine
 10
2.5
 20
6.2
 30
0.0
 11
4.0
 21
6.2
 31
0.0
  0
LINE
  5
A4
330
1F
100
AcDbEntity
  8
Default
100
AcDbLine
 10
2.5
 20
6.0
 30
0.0
 11
2.5
 21
6.2
 31
0.0
  0
LINE
  5
A5
330
1F
100
AcDbEntity
  8
Default
100
AcDbLine
 10
1.5
 20
6.0
 30
0.0
 11
2.5
 21
6.0
 31
0.0
  0
LINE
  5
A6
330
1F
100
AcDbEntity
  8
Default
100
AcDbLine
 10
1.5
 20
6.2
 30
0.0
 11
1.5
 21
6.0
 31
0.0
  0
LINE
  5
A7
330
1F
100
AcDbEntity
  8
Default
100
AcDbLine
 10
0.0
 20
6.2
 30
0.0
 11
1.5
 21
6.2
 31
0.0
  0
LINE
  5
A8
330
1F
100
AcDbEntity
  8
Default
100
AcDbLine
 10
0.0
 20
6.0
 30
0.0
 11
0.0
 21
6.2
 31
0.0
  0
LINE
  5
A9
330
1F
100
AcDbEntity
  8
Default
100
AcDbLine
 10
4.0
 20
2.8
 30
0.0
 11
4.0
 21
3.0
 31
0.0
  0
LINE
  5
AA
330
1F
100
AcDbEntity
  8
Default
100
AcDbLine
 10
2.5
 20
3.0
 30
0.0
 11
2.5
 21
2.8
 31
0.0
  0
LINE
  5
AB
330
1F
100
AcDbEntity
  8
Default
100
AcDbLine
 10
1.5
 20
2.8
 30
0.0
 11
1.5
 21
3.0
 31
0.0
  0
LINE
  5
AC
330
1F
100
AcDbEntity
  8
Default
100
AcDbLine
 10
0.0
 20
2.8
 30
0.0
 11
1.5
 21
2.8
 31
0.0
  0
LINE
  5
AD
330
1F
100
AcDbEntity
  8
Default
100
AcDbLine
 10
0.0
 20
3.0
 30
0.0
 11
0.0
 21
2.8
 31
0.0
  0
LINE
  5
AE
330
1F
100
AcDbEntity
  8
Default
100
AcDbLine
 10
2.375
 20
8.1
 30
0.0
 11
2.375
 21
7.9
 31
0.0
  0
LINE
  5
AF
330
1F
100
AcDbEntity
  8
Default
100
AcDbLine
 10
1.625
 20
8.1
 30
0.0
 11
1.625
 21
7.9
 31
0.0
  0
LINE
  5
B0
330
1F
100
AcDbEntity
  8
Default
100
AcDbLine
 10
1.5
 20
7.9
 30
0.0
 11
1.625
 21
7.9
 31
0.0
  0
LINE
  5
B1
330
1F
100
AcDbEntity
  8
Default
100
AcDbLine
 10
1.5
 20
8.1
 30
0.0
 11
1.625
 21
8.1
 31
0.0
  0
LINE
  5
B2
330
1F
100
AcDbEntity
  8
Default
100
AcDbLine
 10
2.5
 20
7.9
 30
0.0
 11
2.375
 21
7.9
 31
0.0
  0
LINE
  5
B3
330
1F
100
AcDbEntity
  8
Default
100
AcDbLine
 10
2.5
 20
8.1
 30
0.0
 11
2.375
 21
8.1
 31
0.0
  0
LINE
  5
B4
330
1F
100
AcDbEntity
  8
Default
100
AcDbLine
 10
2.5
 20
8.0
 30
0.0
 11
2.5
 21
7.9
 31
0.0
  0
LINE
  5
B5
330
1F
100
AcDbEntity
  8
Default
100
AcDbLine
 10
2.5
 20
8.0
 30
0.0
 11
2.5
 21
8.1
 31
0.0
  0
LINE
  5
B6
330
1F
100
AcDbEntity
  8
Default
100
AcDbLine
 10
1.5
 20
8.0
 30
0.0
 11
1.5
 21
7.9
 31
0.0
  0
LINE
  5
B7
330
1F
100
AcDbEntity
  8
Default
100
AcDbLine
 10
1.5
 20
8.0
 30
0.0
 11
1.5
 21
8.1
 31
0.0
  0
LINE
  5
B8
330
1F
100
AcDbEntity
  8
Default
100
AcDbLine
 10
8.0
 20
7.5
 30
0.0
 11
8.0
 21
7.600000000000001
 31
0.0
  0
LINE
  5
B9
330
1F
100
AcDbEntity
  8
Default
100
AcDbLine
 10
7.0
 20
7.5
 30
0.0
 11
8.0
 21
7.5
 31
0.0
  0
LINE
  5
BA
330
1F
100
AcDbEntity
  8
Default
100
AcDbLine
 10
7.0
 20
7.600000000000001
 30
0.0
 11
7.0
 21
7.5
 31
0.0
  0
LINE
  5
BB
330
1F
100
AcDbEntity
  8
Default
100
AcDbLine
 10
6.9
 20
7.4
 30
0.0
 11
6.9
 21
7.5
 31
0.0
  0
LINE
  5
BC
330
1F
100
AcDbEntity
  8
Default
100
AcDbLine
 10
7.0
 20
7.4
 30
0.0
 11
6.9
 21
7.4
 31
0.0
  0
LINE
  5
BD
330
1F
100
AcDbEntity
  8
Default
100
AcDbLine
 10
8.1
 20
7.4
 30
0.0
 11
8.1
 21
7.5
 31
0.0
  0
LINE
  5
BE
330
1F
100
AcDbEntity
  8
Default
100
AcDbLine
 10
7.0
 20
7.4
 30
0.0
 11
8.1
 21
7.4
 31
0.0
  0
LINE
  5
BF
330
1F
100
AcDbEntity
  8
Default
100
AcDbLine
 10
7.0
 20
7.8
 30
0.0
 11
6.92
 21
7.8
 31
0.0
  0
LINE
  5
C0
330
1F
100
AcDbEntity
  8
Default
100
AcDbLine
 10
8.0
 20
7.8
 30
0.0
 11
8.035
 21
7.8
 31
0.0
  0
LINE
  5
C1
330
1F
100
AcDbEntity
  8
Default
100
AcDbLine
 10
7.800000000000001
 20
7.8
 30
0.0
 11
7.875
 21
7.8
 31
0.0
  0
LINE
  5
C2
330
1F
100
AcDbEntity
  8
Default
100
AcDbLine
 10
7.125
 20
7.8
 30
0.0
 11
7.2
 21
7.8
 31
0.0
  0
LINE
  5
C3
330
1F
100
AcDbEntity
  8
Default
100
AcDbLine
 10
7.800000000000001
 20
7.7
 30
0.0
 11
8.0
 21
7.7
 31
0.0
  0
LINE
  5
C4
330
1F
100
AcDbEntity
  8
Default
100
AcDbLine
 10
7.0
 20
7.7
 30
0.0
 11
7.2
 21
7.7
 31
0.0
  0
LINE
  5
C5
330
1F
100
AcDbEntity
  8
Default
100
AcDbLine
 10
7.2
 20
7.7
 30
0.0
 11
7.2
 21
7.800000000000001
 31
0.0
  0
LINE
  5
C6
330
1F
100
AcDbEntity
  8
Default
100
AcDbLine
 10
7.800000000000001
 20
7.7
 30
0.0
 11
7.800000000000001
 21
7.800000000000001
 31
0.0
  0
LINE
  5
C7
330
1F
100
AcDbEntity
  8
Default
100
AcDbLine
 10
8.0
 20
7.7
 30
0.0
 11
8.0
 21
7.600000000000001
 31
0.0
  0
LINE
  5
C8
330
1F
100
AcDbEntity
  8
Default
100
AcDbLine
 10
7.0
 20
7.7
 30
0.0
 11
7.0
 21
7.600000000000001
 31
0.0
  0
LINE
  5
C9
330
1F
100
AcDbEntity
  8
Default
100
AcDbLine
 10
8.0
 20
7.8
 30
0.0
 11
8.0
 21
8.0
 31
0.0
  0
LINE
  5
CA
330
1F
100
AcDbEntity
  8
Default
100
AcDbLine
 10
8.0
 20
8.0
 30
0.0
 11
7.875
 21
8.0
 31
0.0
  0
LINE
  5
CB
330
1F
100
AcDbEntity
  8
Default
100
AcDbLine
 10
7.875
 20
7.875
 30
0.0
 11
7.875
 21
7.8
 31
0.0
  0
LINE
  5
CC
330
1F
100
AcDbEntity
  8
Default
100
AcDbLine
 10
7.125
 20
8.0
 30
0.0
 11
7.0
 21
8.0
 31
0.0
  0
LINE
  5
CD
330
1F
100
AcDbEntity
  8
Default
100
AcDbLine
 10
7.0
 20
8.0
 30
0.0
 11
7.0
 21
7.8
 31
0.0
  0
LINE
  5
CE
330
1F
100
AcDbEntity
  8
Default
100
AcDbLine
 10
8.1
 20
7.8
 30
0.0
 11
8.1
 21
7.5
 31
0.0
  0
LINE
  5
CF
330
1F
100
AcDbEntity
  8
Default
100
AcDbLine
 10
6.9
 20
7.8
 30
0.0
 11
6.9
 21
7.5
 31
0.0
  0
LINE
  5
D0
330
1F
100
AcDbEntity
  8
Default
100
AcDbLine
 10
8.0
 20
7.800000000000001
 30
0.0
 11
8.1
 21
7.800000000000001
 31
0.0
  0
LINE
  5
D1
330
1F
100
AcDbEntity
  8
Default
100
AcDbLine
 10
7.0
 20
7.800000000000001
 30
0.0
 11
6.9
 21
7.800000000000001
 31
0.0
  0
LINE
  5
D2
330
1F
100
AcDbEntity
  8
Default
100
AcDbLine
 10
7.875
 20
7.875
 30
0.0
 11
7.875
 21
8.0
 31
0.0
  0
LINE
  5
D3
330
1F
100
AcDbEntity
  8
Default
100
AcDbLine
 10
7.125
 20
8.0
 30
0.0
 11
7.125
 21
7.8
 31
0.0
  0
LINE
  5
D4
330
1F
100
AcDbEntity
  8
Default
100
AcDbLine
 10
0.0
 20
8.5
 30
0.0
 11
0.0
 21
8.8
 31
0.0
  0
LINE
  5
D5
330
1F
100
AcDbEntity
  8
Default
100
AcDbLine
 10
4.0
 20
8.8
 30
0.0
 11
4.0
 21
8.5
 31
0.0
  0
LINE
  5
D6
330
1F
100
AcDbEntity
  8
Default
100
AcDbLine
 10
0.0
 20
8.8
 30
0.0
 11
4.0
 21
8.8
 31
0.0
  0
LINE
  5
D7
330
1F
100
AcDbEntity
  8
Default
100
AcDbLine
 10
6.4
 20
6.0
 30
0.0
 11
6.4
 21
6.200000000000001
 31
0.0
  0
LINE
  5
D8
330
1F
100
AcDbEntity
  8
Default
100
AcDbLine
 10
6.4
 20
6.200000000000001
 30
0.0
 11
5.4
 21
6.200000000000001
 31
0.0
  0
LINE
  5
D9
330
1F
100
AcDbEntity
  8
Default
100
AcDbLine
 10
5.4
 20
6.200000000000001
 30
0.0
 11
5.4
 21
6.0
 31
0.0
  0
LINE
  5
DA
330
1F
100
AcDbEntity
  8
Default
100
AcDbLine
 10
6.4
 20
3.0
 30
0.0
 11
6.4
 21
2.8
 31
0.0
  0
LINE
  5
DB
330
1F
100
AcDbEntity
  8
Default
100
AcDbLine
 10
6.4
 20
2.8
 30
0.0
 11
5.4
 21
2.8
 31
0.0
  0
LINE
  5
DC
330
1F
100
AcDbEntity
  8
Default
100
AcDbLine
 10
5.4
 20
2.8
 30
0.0
 11
5.4
 21
3.0
 31
0.0
  0
LINE
  5
DD
330
1F
100
AcDbEntity
  8
Default
100
AcDbLine
 10
7.1
 20
5.0
 30
0.0
 11
7.1
 21
4.0
 31
0.0
  0
LINE
  5
DE
330
1F
100
AcDbEntity
  8
Default
100
AcDbLine
 10
4.9
 20
5.0
 30
0.0
 11
4.7
 21
5.0
 31
0.0
  0
LINE
  5
DF
330
1F
100
AcDbEntity
  8
Default
100
AcDbLine
 10
4.9
 20
4.0
 30
0.0
 11
4.7
 21
4.0
 31
0.0
  0
LINE
  5
E0
330
1F
100
AcDbEntity
  8
Default
100
AcDbLine
 10
4.7
 20
4.0
 30
0.0
 11
4.7
 21
5.0
 31
0.0
  0
LINE
  5
E1
330
1F
100
AcDbEntity
  8
Default
100
AcDbLine
 10
6.9
 20
6.0
 30
0.0
 11
6.4
 21
6.0
 31
0.0
  0
LINE
  5
E2
330
1F
100
AcDbEntity
  8
Default
100
AcDbLine
 10
5.4
 20
6.0
 30
0.0
 11
4.9
 21
6.0
 31
0.0
  0
LINE
  5
E3
330
1F
100
AcDbEntity
  8
Default
100
AcDbLine
 10
4.9
 20
6.0
 30
0.0
 11
4.9
 21
5.0
 31
0.0
  0
LINE
  5
E4
330
1F
100
AcDbEntity
  8
Default
100
AcDbLine
 10
4.9
 20
4.0
 30
0.0
 11
4.9
 21
3.0
 31
0.0
  0
LINE
  5
E5
330
1F
100
AcDbEntity
  8
Default
100
AcDbLine
 10
4.9
 20
3.0
 30
0.0
 11
5.4
 21
3.0
 31
0.0
  0
LINE
  5
E6
330
1F
100
AcDbEntity
  8
Default
100
AcDbLine
 10
6.4
 20
3.0
 30
0.0
 11
6.9
 21
3.0
 31
0.0
  0
LINE
  5
E7
330
1F
100
AcDbEntity
  8
Default
100
AcDbLine
 10
7.100000000000001
 20
4.0
 30
0.0
 11
7.100000000000001
 21
3.0
 31
0.0
  0
LINE
  5
E8
330
1F
100
AcDbEntity
  8
Default
100
AcDbLine
 10
7.100000000000001
 20
3.0
 30
0.0
 11
6.9
 21
3.0
 31
0.0
  0
LINE
  5
E9
330
1F
100
AcDbEntity
  8
Default
100
AcDbLine
 10
7.100000000000001
 20
6.0
 30
0.0
 11
6.9
 21
6.0
 31
0.0
  0
LINE
  5
EA
330
1F
100
AcDbEntity
  8
Default
100
AcDbLine
 10
6.900000000000001
 20
5.700000000000001
 30
0.0
 11
6.900060246105631
 21
5.70347067594752
 31
0.0
  0
LINE
  5
EB
330
1F
100
AcDbEntity
  8
Default
100
AcDbLine
 10
6.900060246105631
 20
5.70347067594752
 30
0.0
 11
6.900240911830655
 21
5.706937170000843
 31
0.0
  0
LINE
  5
EC
330
1F
100
AcDbEntity
  8
Default
100
AcDbLine
 10
6.900240911830655
 20
5.706937170000843
 30
0.0
 11
6.900541779486946
 21
5.710395305304633
 31
0.0
  0
LINE
  5
ED
330
1F
100
AcDbEntity
  8
Default
100
AcDbLine
 10
6.900541779486946
 20
5.710395305304633
 30
0.0
 11
6.900962486552412
 21
5.713840915075195
 31
0.0
  0
LINE
  5
EE
330
1F
100
AcDbEntity
  8
Default
100
AcDbLine
 10
6.900962486552412
 20
5.713840915075195
 30
0.0
 11
6.901502526107808
 21
5.717269847621124
 31
0.0
  0
LINE
  5
EF
330
1F
100
AcDbEntity
  8
Default
100
AcDbLine
 10
6.901502526107808
 20
5.717269847621124
 30
0.0
 11
6.902161247447531
 21
5.720677971345774
 31
0.0
  0
LINE
  5
F0
330
1F
100
AcDbEntity
  8
Default
100
AcDbLine
 10
6.902161247447531
 20
5.720677971345774
 30
0.0
 11
6.902937856863673
 21
5.724061179725505
 31
0.0
  0
LINE
  5
F1
330
1F
100
AcDbEntity
  8
Default
100
AcDbLine
 10
6.902937856863673
 20
5.724061179725505
 30
0.0
 11
6.903831418602375
 21
5.72741539625773
 31
0.0
  0
LINE
  5
F2
330
1F
100
AcDbEntity
  8
Default
100
AcDbLine
 10
6.903831418602375
 20
5.72741539625773
 30
0.0
 11
6.904840855991341
 21
5.730736579372778
 31
0.0
  0
LINE
  5
F3
330
1F
100
AcDbEntity
  8
Default
100
AcDbLine
 10
6.904840855991341
 20
5.730736579372778
 30
0.0
 11
6.905964952737137
 21
5.734020727303676
 31
0.0
  0
LINE
  5
F4
330
1F
100
AcDbEntity
  8
Default
100
AcDbLine
 10
6.905964952737137
 20
5.734020727303676
 30
0.0
 11
6.90720235439074
 21
5.737263882907958
 31
0.0
  0
LINE
  5
F5
330
1F
100
AcDbEntity
  8
Default
100
AcDbLine
 10
6.90720235439074
 20
5.737263882907958
 30
0.0
 11
6.908551569979533
 21
5.740462138435723
 31
0.0
  0
LINE
  5
F6
330
1F
100
AcDbEntity
  8
Default
100
AcDbLine
 10
6.908551569979533
 20
5.740462138435723
 30
0.0
 11
6.91001097380382
 21
5.743611640238165
 31
0.0
  0
LINE
  5
F7
330
1F
100
AcDbEntity
  8
Default
100
AcDbLine
 10
6.91001097380382
 20
5.743611640238165
 30
0.0
 11
6.911578807395661
 21
5.746708593410917
 31
0.0
  0
LINE
  5
F8
330
1F
100
AcDbEntity
  8
Default
100
AcDbLine
 10
6.911578807395661
 20
5.746708593410917
 30
0.0
 11
6.913253181637693
 21
5.74974926636662
 31
0.0
  0
LINE
  5
F9
330
1F
100
AcDbEntity
  8
Default
100
AcDbLine
 10
6.913253181637693
 20
5.74974926636662
 30
0.0
 11
6.915032079039367
 21
5.752729995331193
 31
0.0
  0
LINE
  5
FA
330
1F
100
AcDbEntity
  8
Default
100
AcDbLine
 10
6.915032079039367
 20
5.752729995331193
 30
0.0
 11
6.916913356167868
 21
5.755647188758394
 31
0.0
  0
LINE
  5
FB
330
1F
100
AcDbEntity
  8
Default
100
AcDbLine
 10
6.916913356167868
 20
5.755647188758394
 30
0.0
 11
6.918894746230782
 21
5.758497331657357
 31
0.0
  0
LINE
  5
FC
330
1F
100
AcDbEntity
  8
Default
100
AcDbLine
 10
6.918894746230782
 20
5.758497331657357
 30
0.0
 11
6.920973861807411
 21
5.761276989827878
 31
0.0
  0
LINE
  5
FD
330
1F
100
AcDbEntity
  8
Default
100
AcDbLine
 10
6.920973861807411
 20
5.761276989827878
 30
0.0
 11
6.923148197725421
 21
5.763982813998362
 31
0.0
  0
LINE
  5
FE
330
1F
100
AcDbEntity
  8
Default
100
AcDbLine
 10
6.923148197725421
 20
5.763982813998362
 30
0.0
 11
6.925415134079384
 21
5.766611543861434
 31
0.0
  0
LINE
  5
FF
330
1F
100
AcDbEntity
  8
Default
100
AcDbLine
 10
6.925415134079384
 20
5.766611543861434
 30
0.0
 11
6.92777193938756
 21
5.769160012002353
 31
0.0
  0
LINE
  5
100
330
1F
100
AcDbEntity
  8
Default
100
AcDbLine
 10
6.92777193938756
 20
5.769160012002353
 30
0.0
 11
6.930215773883116
 21
5.771625147715504
 31
0.0
  0
LINE
  5
101
330
1F
100
AcDbEntity
  8
Default
100
AcDbLine
 10
6.930215773883116
 20
5.771625147715504
 30
0.0
 11
6.932743692935832
 21
5.774003980704354
 31
0.0
  0
LINE
  5
102
330
1F
100
AcDbEntity
  8
Default
100
AcDbLine
 10
6.932743692935832
 20
5.774003980704354
 30
0.0
 11
6.935352650600141
 21
5.776293644660433
 31
0.0
  0
LINE
  5
103
330
1F
100
AcDbEntity
  8
Default
100
AcDbLine
 10
6.935352650600141
 20
5.776293644660433
 30
0.0
 11
6.938039503285261
 21
5.778491380717012
 31
0.0
  0
LINE
  5
104
330
1F
100
AcDbEntity
  8
Default
100
AcDbLine
 10
6.938039503285261
 20
5.778491380717012
 30
0.0
 11
6.940801013542981
 21
5.780594540773317
 31
0.0
  0
LINE
  5
105
330
1F
100
AcDbEntity
  8
Default
100
AcDbLine
 10
6.940801013542981
 20
5.780594540773317
 30
0.0
 11
6.943633853968525
 21
5.782600590685289
 31
0.0
  0
LINE
  5
106
330
1F
100
AcDbEntity
  8
Default
100
AcDbLine
 10
6.943633853968525
 20
5.782600590685289
 30
0.0
 11
6.946534611209826
 21
5.784507113319031
 31
0.0
  0
LINE
  5
107
330
1F
100
AcDbEntity
  8
Default
100
AcDbLine
 10
6.946534611209826
 20
5.784507113319031
 30
0.0
 11
6.949499790080337
 21
5.786311811463264
 31
0.0
  0
LINE
  5
108
330
1F
100
AcDbEntity
  8
Default
100
AcDbLine
 10
6.949499790080337
 20
5.786311811463264
 30
0.0
 11
6.952525817770471
 21
5.788012510597287
 31
0.0
  0
LINE
  5
109
330
1F
100
AcDbEntity
  8
Default
100
AcDbLine
 10
6.952525817770471
 20
5.788012510597287
 30
0.0
 11
6.95560904815255
 21
5.789607161511107
 31
0.0
  0
LINE
  5
10A
330
1F
100
AcDbEntity
  8
Default
100
AcDbLine
 10
6.95560904815255
 20
5.789607161511107
 30
0.0
 11
6.95874576617411
 21
5.791093842774575
 31
0.0
  0
LINE
  5
10B
330
1F
100
AcDbEntity
  8
Default
100
AcDbLine
 10
6.95874576617411
 20
5.791093842774575
 30
0.0
 11
6.961932192334245
 21
5.792470763052563
 31
0.0
  0
LINE
  5
10C
330
1F
100
AcDbEntity
  8
Default
100
AcDbLine
 10
6.961932192334245
 20
5.792470763052563
 30
0.0
 11
6.965164487237614
 21
5.793736263263381
 31
0.0
  0
LINE
  5
10D
330
1F
100
AcDbEntity
  8
Default
100
AcDbLine
 10
6.965164487237614
 20
5.793736263263381
 30
0.0
 11
6.968438756220614
 21
5.79488881857784
 31
0.0
  0
LINE
  5
10E
330
1F
100
AcDbEntity
  8
Default
100
AcDbLine
 10
6.968438756220614
 20
5.79488881857784
 30
0.0
 11
6.971751054044145
 21
5.795927040256558
 31
0.0
  0
LINE
  5
10F
330
1F
100
AcDbEntity
  8
Default
100
AcDbLine
 10
6.971751054044145
 20
5.795927040256558
 30
0.0
 11
6.975097389647315
 21
5.796849677323275
 31
0.0
  0
LINE
  5
110
330
1F
100
AcDbEntity
  8
Default
100
AcDbLine
 10
6.975097389647315
 20
5.796849677323275
 30
0.0
 11
6.97847373095636
 21
5.797655618072188
 31
0.0
  0
LINE
  5
111
330
1F
100
AcDbEntity
  8
Default
100
AcDbLine
 10
6.97847373095636
 20
5.797655618072188
 30
0.0
 11
6.981876009742978
 21
5.798343891407466
 31
0.0
  0
LINE
  5
112
330
1F
100
AcDbEntity
  8
Default
100
AcDbLine
 10
6.981876009742978
 20
5.798343891407466
 30
0.0
 11
6.985300126526225
 21
5.79891366801335
 31
0.0
  0
LINE
  5
113
330
1F
100
AcDbEntity
  8
Default
100
AcDbLine
 10
6.985300126526225
 20
5.79891366801335
 30
0.0
 11
6.988741955512072
 21
5.799364261353406
 31
0.0
  0
LINE
  5
114
330
1F
100
AcDbEntity
  8
Default
100
AcDbLine
 10
6.988741955512072
 20
5.799364261353406
 30
0.0
 11
6.992197349564669
 21
5.799695128497756
 31
0.0
  0
LINE
  5
115
330
1F
100
AcDbEntity
  8
Default
100
AcDbLine
 10
6.992197349564669
 20
5.799695128497756
 30
0.0
 11
6.99566214520331
 21
5.799905870777263
 31
0.0
  0
LINE
  5
116
330
1F
100
AcDbEntity
  8
Default
100
AcDbLine
 10
6.99566214520331
 20
5.799905870777263
 30
0.0
 11
6.999132167619118
 21
5.799996234263891
 31
0.0
  0
LINE
  5
117
330
1F
100
AcDbEntity
  8
Default
100
AcDbLine
 10
6.999132167619118
 20
5.799996234263891
 30
0.0
 11
7.002603235705352
 21
5.799966110076679
 31
0.0
  0
LINE
  5
118
330
1F
100
AcDbEntity
  8
Default
100
AcDbLine
 10
7.002603235705352
 20
5.799966110076679
 30
0.0
 11
7.00607116709532
 21
5.799815534512925
 31
0.0
  0
LINE
  5
119
330
1F
100
AcDbEntity
  8
Default
100
AcDbLine
 10
7.00607116709532
 20
5.799815534512925
 30
0.0
 11
7.009531783201806
 21
5.799544689004457
 31
0.0
  0
LINE
  5
11A
330
1F
100
AcDbEntity
  8
Default
100
AcDbLine
 10
7.009531783201806
 20
5.799544689004457
 30
0.0
 11
7.012980914251939
 21
5.799153899899016
 31
0.0
  0
LINE
  5
11B
330
1F
100
AcDbEntity
  8
Default
100
AcDbLine
 10
7.012980914251939
 20
5.799153899899016
 30
0.0
 11
7.016414404311448
 21
5.798643638067037
 31
0.0
  0
LINE
  5
11C
330
1F
100
AcDbEntity
  8
Default
100
AcDbLine
 10
7.016414404311448
 20
5.798643638067037
 30
0.0
 11
7.019828116292238
 21
5.798014518334284
 31
0.0
  0
LINE
  5
11D
330
1F
100
AcDbEntity
  8
Default
100
AcDbLine
 10
7.019828116292238
 20
5.798014518334284
 30
0.0
 11
7.023217936937256
 21
5.797267298741035
 31
0.0
  0
LINE
  5
11E
330
1F
100
AcDbEntity
  8
Default
100
AcDbLine
 10
7.023217936937256
 20
5.797267298741035
 30
0.0
 11
7.02657978177665
 21
5.796402879628702
 31
0.0
  0
LINE
  5
11F
330
1F
100
AcDbEntity
  8
Default
100
AcDbLine
 10
7.02657978177665
 20
5.796402879628702
 30
0.0
 11
7.029909600049232
 21
5.795422302554986
 31
0.0
  0
LINE
  5
120
330
1F
100
AcDbEntity
  8
Default
100
AcDbLine
 10
7.029909600049232
 20
5.795422302554986
 30
0.0
 11
7.033203379583338
 21
5.794326749038887
 31
0.0
  0
LINE
  5
121
330
1F
100
AcDbEntity
  8
Default
100
AcDbLine
 10
7.033203379583338
 20
5.794326749038887
 30
0.0
 11
7.036457151631169
 21
5.793117539137062
 31
0.0
  0
LINE
  5
122
330
1F
100
AcDbEntity
  8
Default
100
AcDbLine
 10
7.036457151631169
 20
5.793117539137062
 30
0.0
 11
7.039666995650839
 21
5.79179612985326
 31
0.0
  0
LINE
  5
123
330
1F
100
AcDbEntity
  8
Default
100
AcDbLine
 10
7.039666995650839
 20
5.79179612985326
 30
0.0
 11
7.042829044030309
 21
5.790364113382748
 31
0.0
  0
LINE
  5
124
330
1F
100
AcDbEntity
  8
Default
100
AcDbLine
 10
7.042829044030309
 20
5.790364113382748
 30
0.0
 11
7.045939486747565
 21
5.788823215193837
 31
0.0
  0
LINE
  5
125
330
1F
100
AcDbEntity
  8
Default
100
AcDbLine
 10
7.045939486747565
 20
5.788823215193837
 30
0.0
 11
7.048994575961398
 21
5.787175291948826
 31
0.0
  0
LINE
  5
126
330
1F
100
AcDbEntity
  8
Default
100
AcDbLine
 10
7.048994575961398
 20
5.787175291948826
 30
0.0
 11
7.051990630527258
 21
5.785422329266875
 31
0.0
  0
LINE
  5
127
330
1F
100
AcDbEntity
  8
Default
100
AcDbLine
 10
7.051990630527258
 20
5.785422329266875
 30
0.0
 11
7.054924040432748
 21
5.783566439331481
 31
0.0
  0
LINE
  5
128
330
1F
100
AcDbEntity
  8
Default
100
AcDbLine
 10
7.054924040432748
 20
5.783566439331481
 30
0.0
 11
7.057791271147408
 21
5.781609858345465
 31
0.0
  0
LINE
  5
129
330
1F
100
AcDbEntity
  8
Default
100
AcDbLine
 10
7.057791271147408
 20
5.781609858345465
 30
0.0
 11
7.060588867881548
 21
5.779554943836525
 31
0.0
  0
LINE
  5
12A
330
1F
100
AcDbEntity
  8
Default
100
AcDbLine
 10
7.060588867881548
 20
5.779554943836525
 30
0.0
 11
7.063313459749
 21
5.777404171816589
 31
0.0
  0
LINE
  5
12B
330
1F
100
AcDbEntity
  8
Default
100
AcDbLine
 10
7.063313459749
 20
5.777404171816589
 30
0.0
 11
7.065961763828776
 21
5.775160133798424
 31
0.0
  0
LINE
  5
12C
330
1F
100
AcDbEntity
  8
Default
100
AcDbLine
 10
7.065961763828776
 20
5.775160133798424
 30
0.0
 11
7.068530589120729
 21
5.772825533673061
 31
0.0
  0
LINE
  5
12D
330
1F
100
AcDbEntity
  8
Default
100
AcDbLine
 10
7.068530589120729
 20
5.772825533673061
 30
0.0
 11
7.071016840390461
 21
5.770403184451813
 31
0.0
  0
LINE
  5
12E
330
1F
100
AcDbEntity
  8
Default
100
AcDbLine
 10
7.071016840390461
 20
5.770403184451813
 30
0.0
 11
7.073417521898841
 21
5.767896004876823
 31
0.0
  0
LINE
  5
12F
330
1F
100
AcDbEntity
  8
Default
100
AcDbLine
 10
7.073417521898841
 20
5.767896004876823
 30
0.0
 11
7.075729741011632
 21
5.7653070159042
 31
0.0
  0
LINE
  5
130
330
1F
100
AcDbEntity
  8
Default
100
AcDbLine
 10
7.075729741011632
 20
5.7653070159042
 30
0.0
 11
7.077950711684898
 21
5.762639337064005
 31
0.0
  0
LINE
  5
131
330
1F
100
AcDbEntity
  8
Default
100
AcDbLine
 10
7.077950711684898
 20
5.762639337064005
 30
0.0
 11
7.080077757821963
 21
5.759896182701465
 31
0.0
  0
LINE
  5
132
330
1F
100
AcDbEntity
  8
Default
100
AcDbLine
 10
7.080077757821963
 20
5.759896182701465
 30
0.0
 11
7.082108316497901
 21
5.757080858103929
 31
0.0
  0
LINE
  5
133
330
1F
100
AcDbEntity
  8
Default
100
AcDbLine
 10
7.082108316497901
 20
5.757080858103929
 30
0.0
 11
7.084039941047663
 21
5.754196755518256
 31
0.0
  0
LINE
  5
134
330
1F
100
AcDbEntity
  8
Default
100
AcDbLine
 10
7.084039941047663
 20
5.754196755518256
 30
0.0
 11
7.085870304014116
 21
5.751247350063429
 31
0.0
  0
LINE
  5
135
330
1F
100
AcDbEntity
  8
Default
100
AcDbLine
 10
7.085870304014116
 20
5.751247350063429
 30
0.0
 11
7.087597199952446
 21
5.748236195543298
 31
0.0
  0
LINE
  5
136
330
1F
100
AcDbEntity
  8
Default
100
AcDbLine
 10
7.087597199952446
 20
5.748236195543298
 30
0.0
 11
7.089218548087554
 21
5.745166920164531
 31
0.0
  0
LINE
  5
137
330
1F
100
AcDbEntity
  8
Default
100
AcDbLine
 10
7.089218548087554
 20
5.745166920164531
 30
0.0
 11
7.090732394821217
 21
5.7420432221649
 31
0.0
  0
LINE
  5
138
330
1F
100
AcDbEntity
  8
Default
100
AcDbLine
 10
7.090732394821217
 20
5.7420432221649
 30
0.0
 11
7.092136916086031
 21
5.738868865357197
 31
0.0
  0
LINE
  5
139
330
1F
100
AcDbEntity
  8
Default
100
AcDbLine
 10
7.092136916086031
 20
5.738868865357197
 30
0.0
 11
7.093430419543267
 21
5.735647674594134
 31
0.0
  0
LINE
  5
13A
330
1F
100
AcDbEntity
  8
Default
100
AcDbLine
 10
7.093430419543267
 20
5.735647674594134
 30
0.0
 11
7.094611346622008
 21
5.732383531159689
 31
0.0
  0
LINE
  5
13B
330
1F
100
AcDbEntity
  8
Default
100
AcDbLine
 10
7.094611346622008
 20
5.732383531159689
 30
0.0
 11
7.0956782743971
 21
5.729080368092467
 31
0.0
  0
LINE
  5
13C
330
1F
100
AcDbEntity
  8
Default
100
AcDbLine
 10
7.0956782743971
 20
5.729080368092467
 30
0.0
 11
7.096629917303678
 21
5.725742165446689
 31
0.0
  0
LINE
  5
13D
330
1F
100
AcDbEntity
  8
Default
100
AcDbLine
 10
7.096629917303678
 20
5.725742165446689
 30
0.0
 11
7.097465128686157
 21
5.722372945496536
 31
0.0
  0
LINE
  5
13E
330
1F
100
AcDbEntity
  8
Default
100
AcDbLine
 10
7.097465128686157
 20
5.722372945496536
 30
0.0
 11
7.098182902179877
 21
5.718976767889632
 31
0.0
  0
LINE
  5
13F
330
1F
100
AcDbEntity
  8
Default
100
AcDbLine
 10
7.098182902179877
 20
5.718976767889632
 30
0.0
 11
7.098782372923681
 21
5.715557724755472
 31
0.0
  0
LINE
  5
140
330
1F
100
AcDbEntity
  8
Default
100
AcDbLine
 10
7.098782372923681
 20
5.715557724755472
 30
0.0
 11
7.099262818602015
 21
5.712119935774732
 31
0.0
  0
LINE
  5
141
330
1F
100
AcDbEntity
  8
Default
100
AcDbLine
 10
7.099262818602015
 20
5.712119935774732
 30
0.0
 11
7.099623660315258
 21
5.708667543215374
 31
0.0
  0
LINE
  5
142
330
1F
100
AcDbEntity
  8
Default
100
AcDbLine
 10
7.099623660315258
 20
5.708667543215374
 30
0.0
 11
7.099864463277249
 21
5.705204706941535
 31
0.0
  0
LINE
  5
143
330
1F
100
AcDbEntity
  8
Default
100
AcDbLine
 10
7.099864463277249
 20
5.705204706941535
 30
0.0
 11
7.099984937339174
 21
5.701735599401212
 31
0.0
  0
LINE
  5
144
330
1F
100
AcDbEntity
  8
Default
100
AcDbLine
 10
7.099984937339174
 20
5.701735599401212
 30
0.0
 11
7.099984937339174
 21
5.698264400598791
 31
0.0
  0
LINE
  5
145
330
1F
100
AcDbEntity
  8
Default
100
AcDbLine
 10
7.099984937339174
 20
5.698264400598791
 30
0.0
 11
7.099864463277249
 21
5.694795293058467
 31
0.0
  0
LINE
  5
146
330
1F
100
AcDbEntity
  8
Default
100
AcDbLine
 10
7.099864463277249
 20
5.694795293058467
 30
0.0
 11
7.099623660315258
 21
5.691332456784628
 31
0.0
  0
LINE
  5
147
330
1F
100
AcDbEntity
  8
Default
100
AcDbLine
 10
7.099623660315258
 20
5.691332456784628
 30
0.0
 11
7.099262818602015
 21
5.68788006422527
 31
0.0
  0
LINE
  5
148
330
1F
100
AcDbEntity
  8
Default
100
AcDbLine
 10
7.099262818602015
 20
5.68788006422527
 30
0.0
 11
7.098782372923681
 21
5.68444227524453
 31
0.0
  0
LINE
  5
149
330
1F
100
AcDbEntity
  8
Default
100
AcDbLine
 10
7.098782372923681
 20
5.68444227524453
 30
0.0
 11
7.098182902179877
 21
5.68102323211037
 31
0.0
  0
LINE
  5
14A
330
1F
100
AcDbEntity
  8
Default
100
AcDbLine
 10
7.098182902179877
 20
5.68102323211037
 30
0.0
 11
7.097465128686157
 21
5.677627054503466
 31
0.0
  0
LINE
  5
14B
330
1F
100
AcDbEntity
  8
Default
100
AcDbLine
 10
7.097465128686157
 20
5.677627054503466
 30
0.0
 11
7.096629917303678
 21
5.674257834553314
 31
0.0
  0
LINE
  5
14C
330
1F
100
AcDbEntity
  8
Default
100
AcDbLine
 10
7.096629917303678
 20
5.674257834553314
 30
0.0
 11
7.0956782743971
 21
5.670919631907535
 31
0.0
  0
LINE
  5
14D
330
1F
100
AcDbEntity
  8
Default
100
AcDbLine
 10
7.0956782743971
 20
5.670919631907535
 30
0.0
 11
7.094611346622008
 21
5.667616468840313
 31
0.0
  0
LINE
  5
14E
330
1F
100
AcDbEntity
  8
Default
100
AcDbLine
 10
7.094611346622008
 20
5.667616468840313
 30
0.0
 11
7.093430419543267
 21
5.664352325405869
 31
0.0
  0
LINE
  5
14F
330
1F
100
AcDbEntity
  8
Default
100
AcDbLine
 10
7.093430419543267
 20
5.664352325405869
 30
0.0
 11
7.092136916086031
 21
5.661131134642805
 31
0.0
  0
LINE
  5
150
330
1F
100
AcDbEntity
  8
Default
100
AcDbLine
 10
7.092136916086031
 20
5.661131134642805
 30
0.0
 11
7.090732394821217
 21
5.657956777835103
 31
0.0
  0
LINE
  5
151
330
1F
100
AcDbEntity
  8
Default
100
AcDbLine
 10
7.090732394821217
 20
5.657956777835103
 30
0.0
 11
7.089218548087554
 21
5.654833079835472
 31
0.0
  0
LINE
  5
152
330
1F
100
AcDbEntity
  8
Default
100
AcDbLine
 10
7.089218548087554
 20
5.654833079835472
 30
0.0
 11
7.087597199952446
 21
5.651763804456704
 31
0.0
  0
LINE
  5
153
330
1F
100
AcDbEntity
  8
Default
100
AcDbLine
 10
7.087597199952446
 20
5.651763804456704
 30
0.0
 11
7.085870304014116
 21
5.648752649936573
 31
0.0
  0
LINE
  5
154
330
1F
100
AcDbEntity
  8
Default
100
AcDbLine
 10
7.085870304014116
 20
5.648752649936573
 30
0.0
 11
7.084039941047663
 21
5.645803244481747
 31
0.0
  0
LINE
  5
155
330
1F
100
AcDbEntity
  8
Default
100
AcDbLine
 10
7.084039941047663
 20
5.645803244481747
 30
0.0
 11
7.082108316497901
 21
5.642919141896074
 31
0.0
  0
LINE
  5
156
330
1F
100
AcDbEntity
  8
Default
100
AcDbLine
 10
7.082108316497901
 20
5.642919141896074
 30
0.0
 11
7.080077757821963
 21
5.640103817298537
 31
0.0
  0
LINE
  5
157
330
1F
100
AcDbEntity
  8
Default
100
AcDbLine
 10
7.080077757821963
 20
5.640103817298537
 30
0.0
 11
7.077950711684898
 21
5.637360662935997
 31
0.0
  0
LINE
  5
158
330
1F
100
AcDbEntity
  8
Default
100
AcDbLine
 10
7.077950711684898
 20
5.637360662935997
 30
0.0
 11
7.075729741011632
 21
5.634692984095802
 31
0.0
  0
LINE
  5
159
330
1F
100
AcDbEntity
  8
Default
100
AcDbLine
 10
7.075729741011632
 20
5.634692984095802
 30
0.0
 11
7.073417521898841
 21
5.632103995123179
 31
0.0
  0
LINE
  5
15A
330
1F
100
AcDbEntity
  8
Default
100
AcDbLine
 10
7.073417521898841
 20
5.632103995123179
 30
0.0
 11
7.071016840390461
 21
5.629596815548189
 31
0.0
  0
LINE
  5
15B
330
1F
100
AcDbEntity
  8
Default
100
AcDbLine
 10
7.071016840390461
 20
5.629596815548189
 30
0.0
 11
7.068530589120729
 21
5.627174466326942
 31
0.0
  0
LINE
  5
15C
330
1F
100
AcDbEntity
  8
Default
100
AcDbLine
 10
7.068530589120729
 20
5.627174466326942
 30
0.0
 11
7.065961763828776
 21
5.624839866201578
 31
0.0
  0
LINE
  5
15D
330
1F
100
AcDbEntity
  8
Default
100
AcDbLine
 10
7.065961763828776
 20
5.624839866201578
 30
0.0
 11
7.063313459749001
 21
5.622595828183413
 31
0.0
  0
LINE
  5
15E
330
1F
100
AcDbEntity
  8
Default
100
AcDbLine
 10
7.063313459749001
 20
5.622595828183413
 30
0.0
 11
7.060588867881548
 21
5.620445056163478
 31
0.0
  0
LINE
  5
15F
330
1F
100
AcDbEntity
  8
Default
100
AcDbLine
 10
7.060588867881548
 20
5.620445056163478
 30
0.0
 11
7.057791271147408
 21
5.618390141654537
 31
0.0
  0
LINE
  5
160
330
1F
100
AcDbEntity
  8
Default
100
AcDbLine
 10
7.057791271147408
 20
5.618390141654537
 30
0.0
 11
7.054924040432748
 21
5.616433560668521
 31
0.0
  0
LINE
  5
161
330
1F
100
AcDbEntity
  8
Default
100
AcDbLine
 10
7.054924040432748
 20
5.616433560668521
 30
0.0
 11
7.051990630527258
 21
5.614577670733127
 31
0.0
  0
LINE
  5
162
330
1F
100
AcDbEntity
  8
Default
100
AcDbLine
 10
7.051990630527258
 20
5.614577670733127
 30
0.0
 11
7.048994575961398
 21
5.612824708051176
 31
0.0
  0
LINE
  5
163
330
1F
100
AcDbEntity
  8
Default
100
AcDbLine
 10
7.048994575961398
 20
5.612824708051176
 30
0.0
 11
7.045939486747565
 21
5.611176784806165
 31
0.0
  0
LINE
  5
164
330
1F
100
AcDbEntity
  8
Default
100
AcDbLine
 10
7.045939486747565
 20
5.611176784806165
 30
0.0
 11
7.042829044030309
 21
5.609635886617254
 31
0.0
  0
LINE
  5
165
330
1F
100
AcDbEntity
  8
Default
100
AcDbLine
 10
7.042829044030309
 20
5.609635886617254
 30
0.0
 11
7.039666995650839
 21
5.608203870146742
 31
0.0
  0
LINE
  5
166
330
1F
100
AcDbEntity
  8
Default
100
AcDbLine
 10
7.039666995650839
 20
5.608203870146742
 30
0.0
 11
7.036457151631169
 21
5.60688246086294
 31
0.0
  0
LINE
  5
167
330
1F
100
AcDbEntity
  8
Default
100
AcDbLine
 10
7.036457151631169
 20
5.60688246086294
 30
0.0
 11
7.033203379583338
 21
5.605673250961115
 31
0.0
  0
LINE
  5
168
330
1F
100
AcDbEntity
  8
Default
100
AcDbLine
 10
7.033203379583338
 20
5.605673250961115
 30
0.0
 11
7.029909600049232
 21
5.604577697445016
 31
0.0
  0
LINE
  5
169
330
1F
100
AcDbEntity
  8
Default
100
AcDbLine
 10
7.029909600049232
 20
5.604577697445016
 30
0.0
 11
7.02657978177665
 21
5.6035971203713
 31
0.0
  0
LINE
  5
16A
330
1F
100
AcDbEntity
  8
Default
100
AcDbLine
 10
7.02657978177665
 20
5.6035971203713
 30
0.0
 11
7.023217936937256
 21
5.602732701258967
 31
0.0
  0
LINE
  5
16B
330
1F
100
AcDbEntity
  8
Default
100
AcDbLine
 10
7.023217936937256
 20
5.602732701258967
 30
0.0
 11
7.019828116292238
 21
5.601985481665718
 31
0.0
  0
LINE
  5
16C
330
1F
100
AcDbEntity
  8
Default
100
AcDbLine
 10
7.019828116292238
 20
5.601985481665718
 30
0.0
 11
7.016414404311448
 21
5.601356361932965
 31
0.0
  0
LINE
  5
16D
330
1F
100
AcDbEntity
  8
Default
100
AcDbLine
 10
7.016414404311448
 20
5.601356361932965
 30
0.0
 11
7.012980914251939
 21
5.600846100100986
 31
0.0
  0
LINE
  5
16E
330
1F
100
AcDbEntity
  8
Default
100
AcDbLine
 10
7.012980914251939
 20
5.600846100100986
 30
0.0
 11
7.009531783201806
 21
5.600455310995545
 31
0.0
  0
LINE
  5
16F
330
1F
100
AcDbEntity
  8
Default
100
AcDbLine
 10
7.009531783201806
 20
5.600455310995545
 30
0.0
 11
7.00607116709532
 21
5.600184465487077
 31
0.0
  0
LINE
  5
170
330
1F
100
AcDbEntity
  8
Default
100
AcDbLine
 10
7.00607116709532
 20
5.600184465487077
 30
0.0
 11
7.002603235705352
 21
5.600033889923323
 31
0.0
  0
LINE
  5
171
330
1F
100
AcDbEntity
  8
Default
100
AcDbLine
 10
7.002603235705352
 20
5.600033889923323
 30
0.0
 11
6.999132167619118
 21
5.600003765736111
 31
0.0
  0
LINE
  5
172
330
1F
100
AcDbEntity
  8
Default
100
AcDbLine
 10
6.999132167619118
 20
5.600003765736111
 30
0.0
 11
6.995662145203311
 21
5.60009412922274
 31
0.0
  0
LINE
  5
173
330
1F
100
AcDbEntity
  8
Default
100
AcDbLine
 10
6.995662145203311
 20
5.60009412922274
 30
0.0
 11
6.992197349564669
 21
5.600304871502246
 31
0.0
  0
LINE
  5
174
330
1F
100
AcDbEntity
  8
Default
100
AcDbLine
 10
6.992197349564669
 20
5.600304871502246
 30
0.0
 11
6.988741955512073
 21
5.600635738646596
 31
0.0
  0
LINE
  5
175
330
1F
100
AcDbEntity
  8
Default
100
AcDbLine
 10
6.988741955512073
 20
5.600635738646596
 30
0.0
 11
6.985300126526225
 21
5.601086331986652
 31
0.0
  0
LINE
  5
176
330
1F
100
AcDbEntity
  8
Default
100
AcDbLine
 10
6.985300126526225
 20
5.601086331986652
 30
0.0
 11
6.981876009742978
 21
5.601656108592536
 31
0.0
  0
LINE
  5
177
330
1F
100
AcDbEntity
  8
Default
100
AcDbLine
 10
6.981876009742978
 20
5.601656108592536
 30
0.0
 11
6.97847373095636
 21
5.602344381927814
 31
0.0
  0
LINE
  5
178
330
1F
100
AcDbEntity
  8
Default
100
AcDbLine
 10
6.97847373095636
 20
5.602344381927814
 30
0.0
 11
6.975097389647315
 21
5.603150322676727
 31
0.0
  0
LINE
  5
179
330
1F
100
AcDbEntity
  8
Default
100
AcDbLine
 10
6.975097389647315
 20
5.603150322676727
 30
0.0
 11
6.971751054044145
 21
5.604072959743444
 31
0.0
  0
LINE
  5
17A
330
1F
100
AcDbEntity
  8
Default
100
AcDbLine
 10
6.971751054044145
 20
5.604072959743444
 30
0.0
 11
6.968438756220614
 21
5.605111181422162
 31
0.0
  0
LINE
  5
17B
330
1F
100
AcDbEntity
  8
Default
100
AcDbLine
 10
6.968438756220614
 20
5.605111181422162
 30
0.0
 11
6.965164487237614
 21
5.606263736736621
 31
0.0
  0
LINE
  5
17C
330
1F
100
AcDbEntity
  8
Default
100
AcDbLine
 10
6.965164487237614
 20
5.606263736736621
 30
0.0
 11
6.961932192334245
 21
5.607529236947439
 31
0.0
  0
LINE
  5
17D
330
1F
100
AcDbEntity
  8
Default
100
AcDbLine
 10
6.961932192334245
 20
5.607529236947439
 30
0.0
 11
6.95874576617411
 21
5.608906157225428
 31
0.0
  0
LINE
  5
17E
330
1F
100
AcDbEntity
  8
Default
100
AcDbLine
 10
6.95874576617411
 20
5.608906157225428
 30
0.0
 11
6.95560904815255
 21
5.610392838488895
 31
0.0
  0
LINE
  5
17F
330
1F
100
AcDbEntity
  8
Default
100
AcDbLine
 10
6.95560904815255
 20
5.610392838488895
 30
0.0
 11
6.952525817770471
 21
5.611987489402715
 31
0.0
  0
LINE
  5
180
330
1F
100
AcDbEntity
  8
Default
100
AcDbLine
 10
6.952525817770471
 20
5.611987489402715
 30
0.0
 11
6.949499790080337
 21
5.613688188536738
 31
0.0
  0
LINE
  5
181
330
1F
100
AcDbEntity
  8
Default
100
AcDbLine
 10
6.949499790080337
 20
5.613688188536738
 30
0.0
 11
6.946534611209826
 21
5.615492886680971
 31
0.0
  0
LINE
  5
182
330
1F
100
AcDbEntity
  8
Default
100
AcDbLine
 10
6.946534611209826
 20
5.615492886680971
 30
0.0
 11
6.943633853968525
 21
5.617399409314713
 31
0.0
  0
LINE
  5
183
330
1F
100
AcDbEntity
  8
Default
100
AcDbLine
 10
6.943633853968525
 20
5.617399409314713
 30
0.0
 11
6.940801013542981
 21
5.619405459226686
 31
0.0
  0
LINE
  5
184
330
1F
100
AcDbEntity
  8
Default
100
AcDbLine
 10
6.940801013542981
 20
5.619405459226686
 30
0.0
 11
6.938039503285261
 21
5.62150861928299
 31
0.0
  0
LINE
  5
185
330
1F
100
AcDbEntity
  8
Default
100
AcDbLine
 10
6.938039503285261
 20
5.62150861928299
 30
0.0
 11
6.935352650600141
 21
5.623706355339569
 31
0.0
  0
LINE
  5
186
330
1F
100
AcDbEntity
  8
Default
100
AcDbLine
 10
6.935352650600141
 20
5.623706355339569
 30
0.0
 11
6.932743692935832
 21
5.625996019295648
 31
0.0
  0
LINE
  5
187
330
1F
100
AcDbEntity
  8
Default
100
AcDbLine
 10
6.932743692935832
 20
5.625996019295648
 30
0.0
 11
6.930215773883116
 21
5.628374852284498
 31
0.0
  0
LINE
  5
188
330
1F
100
AcDbEntity
  8
Default
100
AcDbLine
 10
6.930215773883116
 20
5.628374852284498
 30
0.0
 11
6.92777193938756
 21
5.630839987997649
 31
0.0
  0
LINE
  5
189
330
1F
100
AcDbEntity
  8
Default
100
AcDbLine
 10
6.92777193938756
 20
5.630839987997649
 30
0.0
 11
6.925415134079384
 21
5.633388456138568
 31
0.0
  0
LINE
  5
18A
330
1F
100
AcDbEntity
  8
Default
100
AcDbLine
 10
6.925415134079384
 20
5.633388456138568
 30
0.0
 11
6.923148197725421
 21
5.63601718600164
 31
0.0
  0
LINE
  5
18B
330
1F
100
AcDbEntity
  8
Default
100
AcDbLine
 10
6.923148197725421
 20
5.63601718600164
 30
0.0
 11
6.920973861807411
 21
5.638723010172124
 31
0.0
  0
LINE
  5
18C
330
1F
100
AcDbEntity
  8
Default
100
AcDbLine
 10
6.920973861807411
 20
5.638723010172124
 30
0.0
 11
6.918894746230782
 21
5.641502668342645
 31
0.0
  0
LINE
  5
18D
330
1F
100
AcDbEntity
  8
Default
100
AcDbLine
 10
6.918894746230782
 20
5.641502668342645
 30
0.0
 11
6.916913356167868
 21
5.644352811241608
 31
0.0
  0
LINE
  5
18E
330
1F
100
AcDbEntity
  8
Default
100
AcDbLine
 10
6.916913356167868
 20
5.644352811241608
 30
0.0
 11
6.915032079039367
 21
5.647270004668809
 31
0.0
  0
LINE
  5
18F
330
1F
100
AcDbEntity
  8
Default
100
AcDbLine
 10
6.915032079039367
 20
5.647270004668809
 30
0.0
 11
6.913253181637693
 21
5.650250733633382
 31
0.0
  0
LINE
  5
190
330
1F
100
AcDbEntity
  8
Default
100
AcDbLine
 10
6.913253181637693
 20
5.650250733633382
 30
0.0
 11
6.911578807395661
 21
5.653291406589085
 31
0.0
  0
LINE
  5
191
330
1F
100
AcDbEntity
  8
Default
100
AcDbLine
 10
6.911578807395661
 20
5.653291406589085
 30
0.0
 11
6.91001097380382
 21
5.656388359761837
 31
0.0
  0
LINE
  5
192
330
1F
100
AcDbEntity
  8
Default
100
AcDbLine
 10
6.91001097380382
 20
5.656388359761837
 30
0.0
 11
6.908551569979533
 21
5.659537861564279
 31
0.0
  0
LINE
  5
193
330
1F
100
AcDbEntity
  8
Default
100
AcDbLine
 10
6.908551569979533
 20
5.659537861564279
 30
0.0
 11
6.90720235439074
 21
5.662736117092044
 31
0.0
  0
LINE
  5
194
330
1F
100
AcDbEntity
  8
Default
100
AcDbLine
 10
6.90720235439074
 20
5.662736117092044
 30
0.0
 11
6.905964952737137
 21
5.665979272696326
 31
0.0
  0
LINE
  5
195
330
1F
100
AcDbEntity
  8
Default
100
AcDbLine
 10
6.905964952737137
 20
5.665979272696326
 30
0.0
 11
6.904840855991341
 21
5.669263420627224
 31
0.0
  0
LINE
  5
196
330
1F
100
AcDbEntity
  8
Default
100
AcDbLine
 10
6.904840855991341
 20
5.669263420627224
 30
0.0
 11
6.903831418602375
 21
5.672584603742272
 31
0.0
  0
LINE
  5
197
330
1F
100
AcDbEntity
  8
Default
100
AcDbLine
 10
6.903831418602375
 20
5.672584603742272
 30
0.0
 11
6.902937856863673
 21
5.675938820274497
 31
0.0
  0
LINE
  5
198
330
1F
100
AcDbEntity
  8
Default
100
AcDbLine
 10
6.902937856863673
 20
5.675938820274497
 30
0.0
 11
6.902161247447531
 21
5.679322028654228
 31
0.0
  0
LINE
  5
199
330
1F
100
AcDbEntity
  8
Default
100
AcDbLine
 10
6.902161247447531
 20
5.679322028654228
 30
0.0
 11
6.901502526107808
 21
5.682730152378878
 31
0.0
  0
LINE
  5
19A
330
1F
100
AcDbEntity
  8
Default
100
AcDbLine
 10
6.901502526107808
 20
5.682730152378878
 30
0.0
 11
6.900962486552412
 21
5.686159084924807
 31
0.0
  0
LINE
  5
19B
330
1F
100
AcDbEntity
  8
Default
100
AcDbLine
 10
6.900962486552412
 20
5.686159084924807
 30
0.0
 11
6.900541779486946
 21
5.689604694695369
 31
0.0
  0
LINE
  5
19C
330
1F
100
AcDbEntity
  8
Default
100
AcDbLine
 10
6.900541779486946
 20
5.689604694695369
 30
0.0
 11
6.900240911830655
 21
5.693062829999159
 31
0.0
  0
LINE
  5
19D
330
1F
100
AcDbEntity
  8
Default
100
AcDbLine
 10
6.900240911830655
 20
5.693062829999159
 30
0.0
 11
6.900060246105631
 21
5.696529324052483
 31
0.0
  0
LINE
  5
19E
330
1F
100
AcDbEntity
  8
Default
100
AcDbLine
 10
6.900060246105631
 20
5.696529324052483
 30
0.0
 11
6.900000000000001
 21
5.700000000000001
 31
0.0
  0
LINE
  5
19F
330
1F
100
AcDbEntity
  8
Default
100
AcDbLine
 10
7.100000000000001
 20
5.873205080756927
 30
0.0
 11
7.100000000000001
 21
6.0
 31
0.0
  0
LINE
  5
1A0
330
1F
100
AcDbEntity
  8
Default
100
AcDbLine
 10
7.100000000000001
 20
5.0
 30
0.0
 11
7.100000000000001
 21
5.526794919243079
 31
0.0
  0
LINE
  5
1A1
330
1F
100
AcDbEntity
  8
Default
100
AcDbLine
 10
7.099999999999222
 20
5.873205080757339
 30
0.0
 11
7.105886778242887
 21
5.869670239562931
 31
0.0
  0
LINE
  5
1A2
330
1F
100
AcDbEntity
  8
Default
100
AcDbLine
 10
7.105886778242887
 20
5.869670239562931
 30
0.0
 11
7.111648744404651
 21
5.865935402711011
 31
0.0
  0
LINE
  5
1A3
330
1F
100
AcDbEntity
  8
Default
100
AcDbLine
 10
7.111648744404651
 20
5.865935402711011
 30
0.0
 11
7.117279106673447
 21
5.862004972571458
 31
0.0
  0
LINE
  5
1A4
330
1F
100
AcDbEntity
  8
Default
100
AcDbLine
 10
7.117279106673447
 20
5.862004972571458
 30
0.0
 11
7.12277122836386
 21
5.857883582066121
 31
0.0
  0
LINE
  5
1A5
330
1F
100
AcDbEntity
  8
Default
100
AcDbLine
 10
7.12277122836386
 20
5.857883582066121
 30
0.0
 11
7.128118635739003
 21
5.85357608920785
 31
0.0
  0
LINE
  5
1A6
330
1F
100
AcDbEntity
  8
Default
100
AcDbLine
 10
7.128118635739003
 20
5.85357608920785
 30
0.0
 11
7.13331502564131
 21
5.849087571374201
 31
0.0
  0
LINE
  5
1A7
330
1F
100
AcDbEntity
  8
Default
100
AcDbLine
 10
7.13331502564131
 20
5.849087571374201
 30
0.0
 11
7.138354272922271
 21
5.844423319322575
 31
0.0
  0
LINE
  5
1A8
330
1F
100
AcDbEntity
  8
Default
100
AcDbLine
 10
7.138354272922271
 20
5.844423319322575
 30
0.0
 11
7.143230437662336
 21
5.839588830953829
 31
0.0
  0
LINE
  5
1A9
330
1F
100
AcDbEntity
  8
Default
100
AcDbLine
 10
7.143230437662336
 20
5.839588830953829
 30
0.0
 11
7.147937772172479
 21
5.834589804831734
 31
0.0
  0
LINE
  5
1AA
330
1F
100
AcDbEntity
  8
Default
100
AcDbLine
 10
7.147937772172479
 20
5.834589804831734
 30
0.0
 11
7.152470727769193
 21
5.829432133465895
 31
0.0
  0
LINE
  5
1AB
330
1F
100
AcDbEntity
  8
Default
100
AcDbLine
 10
7.152470727769193
 20
5.829432133465895
 30
0.0
 11
7.156823961314887
 21
5.824121896366062
 31
0.0
  0
LINE
  5
1AC
330
1F
100
AcDbEntity
  8
Default
100
AcDbLine
 10
7.156823961314887
 20
5.824121896366062
 30
0.0
 11
7.160992341516012
 21
5.818665352876027
 31
0.0
  0
LINE
  5
1AD
330
1F
100
AcDbEntity
  8
Default
100
AcDbLine
 10
7.160992341516012
 20
5.818665352876027
 30
0.0
 11
7.164970954971487
 21
5.813068934795532
 31
0.0
  0
LINE
  5
1AE
330
1F
100
AcDbEntity
  8
Default
100
AcDbLine
 10
7.164970954971487
 20
5.813068934795532
 30
0.0
 11
7.168755111964268
 21
5.807339238798904
 31
0.0
  0
LINE
  5
1AF
330
1F
100
AcDbEntity
  8
Default
100
AcDbLine
 10
7.168755111964268
 20
5.807339238798904
 30
0.0
 11
7.172340351989272
 21
5.801483018659352
 31
0.0
  0
LINE
  5
1B0
330
1F
100
AcDbEntity
  8
Default
100
AcDbLine
 10
7.172340351989272
 20
5.801483018659352
 30
0.0
 11
7.175722449011116
 21
5.795507177288079
 31
0.0
  0
LINE
  5
1B1
330
1F
100
AcDbEntity
  8
Default
100
AcDbLine
 10
7.175722449011116
 20
5.795507177288079
 30
0.0
 11
7.178897416445472
 21
5.789418758597601
 31
0.0
  0
LINE
  5
1B2
330
1F
100
AcDbEntity
  8
Default
100
AcDbLine
 10
7.178897416445472
 20
5.789418758597601
 30
0.0
 11
7.181861511858186
 21
5.783224939198869
 31
0.0
  0
LINE
  5
1B3
330
1F
100
AcDbEntity
  8
Default
100
AcDbLine
 10
7.181861511858186
 20
5.783224939198869
 30
0.0
 11
7.1846112413766
 21
5.77693301994197
 31
0.0
  0
LINE
  5
1B4
330
1F
100
AcDbEntity
  8
Default
100
AcDbLine
 10
7.1846112413766
 20
5.77693301994197
 30
0.0
 11
7.187143363807889
 21
5.770550417310382
 31
0.0
  0
LINE
  5
1B5
330
1F
100
AcDbEntity
  8
Default
100
AcDbLine
 10
7.187143363807889
 20
5.770550417310382
 30
0.0
 11
7.189454894459558
 21
5.764084654678938
 31
0.0
  0
LINE
  5
1B6
330
1F
100
AcDbEntity
  8
Default
100
AcDbLine
 10
7.189454894459558
 20
5.764084654678938
 30
0.0
 11
7.191543108657592
 21
5.75754335344578
 31
0.0
  0
LINE
  5
1B7
330
1F
100
AcDbEntity
  8
Default
100
AcDbLine
 10
7.191543108657592
 20
5.75754335344578
 30
0.0
 11
7.193405544958124
 21
5.750934224048784
 31
0.0
  0
LINE
  5
1B8
330
1F
100
AcDbEntity
  8
Default
100
AcDbLine
 10
7.193405544958124
 20
5.750934224048784
 30
0.0
 11
7.195040008048798
 21
5.744265056877015
 31
0.0
  0
LINE
  5
1B9
330
1F
100
AcDbEntity
  8
Default
100
AcDbLine
 10
7.195040008048798
 20
5.744265056877015
 30
0.0
 11
7.19644457133647
 21
5.737543713087956
 31
0.0
  0
LINE
  5
1BA
330
1F
100
AcDbEntity
  8
Default
100
AcDbLine
 10
7.19644457133647
 20
5.737543713087956
 30
0.0
 11
7.197617579218138
 21
5.730778115341318
 31
0.0
  0
LINE
  5
1BB
330
1F
100
AcDbEntity
  8
Default
100
AcDbLine
 10
7.197617579218138
 20
5.730778115341318
 30
0.0
 11
7.198557649032449
 21
5.723976238460338
 31
0.0
  0
LINE
  5
1BC
330
1F
100
AcDbEntity
  8
Default
100
AcDbLine
 10
7.198557649032449
 20
5.723976238460338
 30
0.0
 11
7.199263672689495
 21
5.717146100031619
 31
0.0
  0
LINE
  5
1BD
330
1F
100
AcDbEntity
  8
Default
100
AcDbLine
 10
7.199263672689495
 20
5.717146100031619
 30
0.0
 11
7.199734817976942
 21
5.710295750954535
 31
0.0
  0
LINE
  5
1BE
330
1F
100
AcDbEntity
  8
Default
100
AcDbLine
 10
7.199734817976942
 20
5.710295750954535
 30
0.0
 11
7.199970529540998
 21
5.703433265951393
 31
0.0
  0
LINE
  5
1BF
330
1F
100
AcDbEntity
  8
Default
100
AcDbLine
 10
7.199970529540998
 20
5.703433265951393
 30
0.0
 11
7.199970529541013
 21
5.696566734049496
 31
0.0
  0
LINE
  5
1C0
330
1F
100
AcDbEntity
  8
Default
100
AcDbLine
 10
7.199970529541013
 20
5.696566734049496
 30
0.0
 11
7.199734817976989
 21
5.689704249046351
 31
0.0
  0
LINE
  5
1C1
330
1F
100
AcDbEntity
  8
Default
100
AcDbLine
 10
7.199734817976989
 20
5.689704249046351
 30
0.0
 11
7.199263672689571
 21
5.682853899969266
 31
0.0
  0
LINE
  5
1C2
330
1F
100
AcDbEntity
  8
Default
100
AcDbLine
 10
7.199263672689571
 20
5.682853899969266
 30
0.0
 11
7.198557649032556
 21
5.676023761540543
 31
0.0
  0
LINE
  5
1C3
330
1F
100
AcDbEntity
  8
Default
100
AcDbLine
 10
7.198557649032556
 20
5.676023761540543
 30
0.0
 11
7.197617579218274
 21
5.66922188465956
 31
0.0
  0
LINE
  5
1C4
330
1F
100
AcDbEntity
  8
Default
100
AcDbLine
 10
7.197617579218274
 20
5.66922188465956
 30
0.0
 11
7.196444571336637
 21
5.662456286912915
 31
0.0
  0
LINE
  5
1C5
330
1F
100
AcDbEntity
  8
Default
100
AcDbLine
 10
7.196444571336637
 20
5.662456286912915
 30
0.0
 11
7.195040008048994
 21
5.655734943123852
 31
0.0
  0
LINE
  5
1C6
330
1F
100
AcDbEntity
  8
Default
100
AcDbLine
 10
7.195040008048994
 20
5.655734943123852
 30
0.0
 11
7.193405544958349
 21
5.649065775952075
 31
0.0
  0
LINE
  5
1C7
330
1F
100
AcDbEntity
  8
Default
100
AcDbLine
 10
7.193405544958349
 20
5.649065775952075
 30
0.0
 11
7.191543108657848
 21
5.64245664655507
 31
0.0
  0
LINE
  5
1C8
330
1F
100
AcDbEntity
  8
Default
100
AcDbLine
 10
7.191543108657848
 20
5.64245664655507
 30
0.0
 11
7.189454894459841
 21
5.635915345321903
 31
0.0
  0
LINE
  5
1C9
330
1F
100
AcDbEntity
  8
Default
100
AcDbLine
 10
7.189454894459841
 20
5.635915345321903
 30
0.0
 11
7.187143363808201
 21
5.62944958269045
 31
0.0
  0
LINE
  5
1CA
330
1F
100
AcDbEntity
  8
Default
100
AcDbLine
 10
7.187143363808201
 20
5.62944958269045
 30
0.0
 11
7.18461124137694
 21
5.623066980058851
 31
0.0
  0
LINE
  5
1CB
330
1F
100
AcDbEntity
  8
Default
100
AcDbLine
 10
7.18461124137694
 20
5.623066980058851
 30
0.0
 11
7.181861511858554
 21
5.616775060801938
 31
0.0
  0
LINE
  5
1CC
330
1F
100
AcDbEntity
  8
Default
100
AcDbLine
 10
7.181861511858554
 20
5.616775060801938
 30
0.0
 11
7.178897416445868
 21
5.610581241403193
 31
0.0
  0
LINE
  5
1CD
330
1F
100
AcDbEntity
  8
Default
100
AcDbLine
 10
7.178897416445868
 20
5.610581241403193
 30
0.0
 11
7.175722449011539
 21
5.604492822712702
 31
0.0
  0
LINE
  5
1CE
330
1F
100
AcDbEntity
  8
Default
100
AcDbLine
 10
7.175722449011539
 20
5.604492822712702
 30
0.0
 11
7.172340351989722
 21
5.598516981341414
 31
0.0
  0
LINE
  5
1CF
330
1F
100
AcDbEntity
  8
Default
100
AcDbLine
 10
7.172340351989722
 20
5.598516981341414
 30
0.0
 11
7.168755111964743
 21
5.592660761201846
 31
0.0
  0
LINE
  5
1D0
330
1F
100
AcDbEntity
  8
Default
100
AcDbLine
 10
7.168755111964743
 20
5.592660761201846
 30
0.0
 11
7.164970954971988
 21
5.586931065205202
 31
0.0
  0
LINE
  5
1D1
330
1F
100
AcDbEntity
  8
Default
100
AcDbLine
 10
7.164970954971988
 20
5.586931065205202
 30
0.0
 11
7.160992341516538
 21
5.581334647124688
 31
0.0
  0
LINE
  5
1D2
330
1F
100
AcDbEntity
  8
Default
100
AcDbLine
 10
7.160992341516538
 20
5.581334647124688
 30
0.0
 11
7.156823961315436
 21
5.575878103634635
 31
0.0
  0
LINE
  5
1D3
330
1F
100
AcDbEntity
  8
Default
100
AcDbLine
 10
7.156823961315436
 20
5.575878103634635
 30
0.0
 11
7.152470727769766
 21
5.570567866534783
 31
0.0
  0
LINE
  5
1D4
330
1F
100
AcDbEntity
  8
Default
100
AcDbLine
 10
7.152470727769766
 20
5.570567866534783
 30
0.0
 11
7.147937772173075
 21
5.565410195168924
 31
0.0
  0
LINE
  5
1D5
330
1F
100
AcDbEntity
  8
Default
100
AcDbLine
 10
7.147937772173075
 20
5.565410195168924
 30
0.0
 11
7.143230437662954
 21
5.560411169046808
 31
0.0
  0
LINE
  5
1D6
330
1F
100
AcDbEntity
  8
Default
100
AcDbLine
 10
7.143230437662954
 20
5.560411169046808
 30
0.0
 11
7.138354272922911
 21
5.55557668067804
 31
0.0
  0
LINE
  5
1D7
330
1F
100
AcDbEntity
  8
Default
100
AcDbLine
 10
7.138354272922911
 20
5.55557668067804
 30
0.0
 11
7.13331502564197
 21
5.550912428626391
 31
0.0
  0
LINE
  5
1D8
330
1F
100
AcDbEntity
  8
Default
100
AcDbLine
 10
7.13331502564197
 20
5.550912428626391
 30
0.0
 11
7.128118635739682
 21
5.54642391079272
 31
0.0
  0
LINE
  5
1D9
330
1F
100
AcDbEntity
  8
Default
100
AcDbLine
 10
7.128118635739682
 20
5.54642391079272
 30
0.0
 11
7.122771228364559
 21
5.542116417934425
 31
0.0
  0
LINE
  5
1DA
330
1F
100
AcDbEntity
  8
Default
100
AcDbLine
 10
7.122771228364559
 20
5.542116417934425
 30
0.0
 11
7.117279106674165
 21
5.537995027429064
 31
0.0
  0
LINE
  5
1DB
330
1F
100
AcDbEntity
  8
Default
100
AcDbLine
 10
7.117279106674165
 20
5.537995027429064
 30
0.0
 11
7.111648744405386
 21
5.534064597289486
 31
0.0
  0
LINE
  5
1DC
330
1F
100
AcDbEntity
  8
Default
100
AcDbLine
 10
7.111648744405386
 20
5.534064597289486
 30
0.0
 11
7.105886778243638
 21
5.530329760437541
 31
0.0
  0
LINE
  5
1DD
330
1F
100
AcDbEntity
  8
Default
100
AcDbLine
 10
7.105886778243638
 20
5.530329760437541
 30
0.0
 11
7.099999999999989
 21
5.526794919243106
 31
0.0
  0
LINE
  5
1DE
330
1F
100
AcDbEntity
  8
Default
100
AcDbLine
 10
-2.79999999999922
 20
5.873205080757338
 30
0.0
 11
-2.805886778242886
 21
5.86967023956293
 31
0.0
  0
LINE
  5
1DF
330
1F
100
AcDbEntity
  8
Default
100
AcDbLine
 10
-2.805886778242886
 20
5.86967023956293
 30
0.0
 11
-2.811648744404651
 21
5.86593540271101
 31
0.0
  0
LINE
  5
1E0
330
1F
100
AcDbEntity
  8
Default
100
AcDbLine
 10
-2.811648744404651
 20
5.86593540271101
 30
0.0
 11
-2.817279106673447
 21
5.862004972571457
 31
0.0
  0
LINE
  5
1E1
330
1F
100
AcDbEntity
  8
Default
100
AcDbLine
 10
-2.817279106673447
 20
5.862004972571457
 30
0.0
 11
-2.82277122836386
 21
5.85788358206612
 31
0.0
  0
LINE
  5
1E2
330
1F
100
AcDbEntity
  8
Default
100
AcDbLine
 10
-2.82277122836386
 20
5.85788358206612
 30
0.0
 11
-2.828118635739002
 21
5.853576089207849
 31
0.0
  0
LINE
  5
1E3
330
1F
100
AcDbEntity
  8
Default
100
AcDbLine
 10
-2.828118635739002
 20
5.853576089207849
 30
0.0
 11
-2.833315025641309
 21
5.8490875713742
 31
0.0
  0
LINE
  5
1E4
330
1F
100
AcDbEntity
  8
Default
100
AcDbLine
 10
-2.833315025641309
 20
5.8490875713742
 30
0.0
 11
-2.838354272922271
 21
5.844423319322574
 31
0.0
  0
LINE
  5
1E5
330
1F
100
AcDbEntity
  8
Default
100
AcDbLine
 10
-2.838354272922271
 20
5.844423319322574
 30
0.0
 11
-2.843230437662334
 21
5.839588830953828
 31
0.0
  0
LINE
  5
1E6
330
1F
100
AcDbEntity
  8
Default
100
AcDbLine
 10
-2.843230437662334
 20
5.839588830953828
 30
0.0
 11
-2.847937772172479
 21
5.834589804831733
 31
0.0
  0
LINE
  5
1E7
330
1F
100
AcDbEntity
  8
Default
100
AcDbLine
 10
-2.847937772172479
 20
5.834589804831733
 30
0.0
 11
-2.852470727769193
 21
5.829432133465894
 31
0.0
  0
LINE
  5
1E8
330
1F
100
AcDbEntity
  8
Default
100
AcDbLine
 10
-2.852470727769193
 20
5.829432133465894
 30
0.0
 11
-2.856823961314886
 21
5.824121896366061
 31
0.0
  0
LINE
  5
1E9
330
1F
100
AcDbEntity
  8
Default
100
AcDbLine
 10
-2.856823961314886
 20
5.824121896366061
 30
0.0
 11
-2.860992341516012
 21
5.818665352876026
 31
0.0
  0
LINE
  5
1EA
330
1F
100
AcDbEntity
  8
Default
100
AcDbLine
 10
-2.860992341516012
 20
5.818665352876026
 30
0.0
 11
-2.864970954971486
 21
5.813068934795531
 31
0.0
  0
LINE
  5
1EB
330
1F
100
AcDbEntity
  8
Default
100
AcDbLine
 10
-2.864970954971486
 20
5.813068934795531
 30
0.0
 11
-2.868755111964267
 21
5.807339238798903
 31
0.0
  0
LINE
  5
1EC
330
1F
100
AcDbEntity
  8
Default
100
AcDbLine
 10
-2.868755111964267
 20
5.807339238798903
 30
0.0
 11
-2.872340351989271
 21
5.801483018659352
 31
0.0
  0
LINE
  5
1ED
330
1F
100
AcDbEntity
  8
Default
100
AcDbLine
 10
-2.872340351989271
 20
5.801483018659352
 30
0.0
 11
-2.875722449011115
 21
5.795507177288078
 31
0.0
  0
LINE
  5
1EE
330
1F
100
AcDbEntity
  8
Default
100
AcDbLine
 10
-2.875722449011115
 20
5.795507177288078
 30
0.0
 11
-2.878897416445471
 21
5.7894187585976
 31
0.0
  0
LINE
  5
1EF
330
1F
100
AcDbEntity
  8
Default
100
AcDbLine
 10
-2.878897416445471
 20
5.7894187585976
 30
0.0
 11
-2.881861511858185
 21
5.783224939198869
 31
0.0
  0
LINE
  5
1F0
330
1F
100
AcDbEntity
  8
Default
100
AcDbLine
 10
-2.881861511858185
 20
5.783224939198869
 30
0.0
 11
-2.884611241376599
 21
5.776933019941969
 31
0.0
  0
LINE
  5
1F1
330
1F
100
AcDbEntity
  8
Default
100
AcDbLine
 10
-2.884611241376599
 20
5.776933019941969
 30
0.0
 11
-2.887143363807887
 21
5.770550417310381
 31
0.0
  0
LINE
  5
1F2
330
1F
100
AcDbEntity
  8
Default
100
AcDbLine
 10
-2.887143363807887
 20
5.770550417310381
 30
0.0
 11
-2.889454894459556
 21
5.764084654678937
 31
0.0
  0
LINE
  5
1F3
330
1F
100
AcDbEntity
  8
Default
100
AcDbLine
 10
-2.889454894459556
 20
5.764084654678937
 30
0.0
 11
-2.891543108657592
 21
5.75754335344578
 31
0.0
  0
LINE
  5
1F4
330
1F
100
AcDbEntity
  8
Default
100
AcDbLine
 10
-2.891543108657592
 20
5.75754335344578
 30
0.0
 11
-2.893405544958123
 21
5.750934224048783
 31
0.0
  0
LINE
  5
1F5
330
1F
100
AcDbEntity
  8
Default
100
AcDbLine
 10
-2.893405544958123
 20
5.750934224048783
 30
0.0
 11
-2.895040008048797
 21
5.744265056877015
 31
0.0
  0
LINE
  5
1F6
330
1F
100
AcDbEntity
  8
Default
100
AcDbLine
 10
-2.895040008048797
 20
5.744265056877015
 30
0.0
 11
-2.89644457133647
 21
5.737543713087955
 31
0.0
  0
LINE
  5
1F7
330
1F
100
AcDbEntity
  8
Default
100
AcDbLine
 10
-2.89644457133647
 20
5.737543713087955
 30
0.0
 11
-2.897617579218137
 21
5.730778115341317
 31
0.0
  0
LINE
  5
1F8
330
1F
100
AcDbEntity
  8
Default
100
AcDbLine
 10
-2.897617579218137
 20
5.730778115341317
 30
0.0
 11
-2.898557649032449
 21
5.723976238460337
 31
0.0
  0
LINE
  5
1F9
330
1F
100
AcDbEntity
  8
Default
100
AcDbLine
 10
-2.898557649032449
 20
5.723976238460337
 30
0.0
 11
-2.899263672689494
 21
5.717146100031618
 31
0.0
  0
LINE
  5
1FA
330
1F
100
AcDbEntity
  8
Default
100
AcDbLine
 10
-2.899263672689494
 20
5.717146100031618
 30
0.0
 11
-2.899734817976943
 21
5.710295750954534
 31
0.0
  0
LINE
  5
1FB
330
1F
100
AcDbEntity
  8
Default
100
AcDbLine
 10
-2.899734817976943
 20
5.710295750954534
 30
0.0
 11
-2.899970529540998
 21
5.703433265951392
 31
0.0
  0
LINE
  5
1FC
330
1F
100
AcDbEntity
  8
Default
100
AcDbLine
 10
-2.899970529540998
 20
5.703433265951392
 30
0.0
 11
-2.899970529541013
 21
5.696566734049495
 31
0.0
  0
LINE
  5
1FD
330
1F
100
AcDbEntity
  8
Default
100
AcDbLine
 10
-2.899970529541013
 20
5.696566734049495
 30
0.0
 11
-2.899734817976988
 21
5.689704249046351
 31
0.0
  0
LINE
  5
1FE
330
1F
100
AcDbEntity
  8
Default
100
AcDbLine
 10
-2.899734817976988
 20
5.689704249046351
 30
0.0
 11
-2.89926367268957
 21
5.682853899969265
 31
0.0
  0
LINE
  5
1FF
330
1F
100
AcDbEntity
  8
Default
100
AcDbLine
 10
-2.89926367268957
 20
5.682853899969265
 30
0.0
 11
-2.898557649032555
 21
5.676023761540542
 31
0.0
  0
LINE
  5
200
330
1F
100
AcDbEntity
  8
Default
100
AcDbLine
 10
-2.898557649032555
 20
5.676023761540542
 30
0.0
 11
-2.897617579218274
 21
5.669221884659559
 31
0.0
  0
LINE
  5
201
330
1F
100
AcDbEntity
  8
Default
100
AcDbLine
 10
-2.897617579218274
 20
5.669221884659559
 30
0.0
 11
-2.896444571336636
 21
5.662456286912914
 31
0.0
  0
LINE
  5
202
330
1F
100
AcDbEntity
  8
Default
100
AcDbLine
 10
-2.896444571336636
 20
5.662456286912914
 30
0.0
 11
-2.895040008048993
 21
5.655734943123851
 31
0.0
  0
LINE
  5
203
330
1F
100
AcDbEntity
  8
Default
100
AcDbLine
 10
-2.895040008048993
 20
5.655734943123851
 30
0.0
 11
-2.893405544958349
 21
5.649065775952074
 31
0.0
  0
LINE
  5
204
330
1F
100
AcDbEntity
  8
Default
100
AcDbLine
 10
-2.893405544958349
 20
5.649065775952074
 30
0.0
 11
-2.891543108657847
 21
5.642456646555069
 31
0.0
  0
LINE
  5
205
330
1F
100
AcDbEntity
  8
Default
100
AcDbLine
 10
-2.891543108657847
 20
5.642456646555069
 30
0.0
 11
-2.88945489445984
 21
5.635915345321902
 31
0.0
  0
LINE
  5
206
330
1F
100
AcDbEntity
  8
Default
100
AcDbLine
 10
-2.88945489445984
 20
5.635915345321902
 30
0.0
 11
-2.8871433638082
 21
5.629449582690449
 31
0.0
  0
LINE
  5
207
330
1F
100
AcDbEntity
  8
Default
100
AcDbLine
 10
-2.8871433638082
 20
5.629449582690449
 30
0.0
 11
-2.88461124137694
 21
5.62306698005885
 31
0.0
  0
LINE
  5
208
330
1F
100
AcDbEntity
  8
Default
100
AcDbLine
 10
-2.88461124137694
 20
5.62306698005885
 30
0.0
 11
-2.881861511858554
 21
5.616775060801937
 31
0.0
  0
LINE
  5
209
330
1F
100
AcDbEntity
  8
Default
100
AcDbLine
 10
-2.881861511858554
 20
5.616775060801937
 30
0.0
 11
-2.878897416445867
 21
5.610581241403192
 31
0.0
  0
LINE
  5
20A
330
1F
100
AcDbEntity
  8
Default
100
AcDbLine
 10
-2.878897416445867
 20
5.610581241403192
 30
0.0
 11
-2.875722449011538
 21
5.604492822712701
 31
0.0
  0
LINE
  5
20B
330
1F
100
AcDbEntity
  8
Default
100
AcDbLine
 10
-2.875722449011538
 20
5.604492822712701
 30
0.0
 11
-2.872340351989721
 21
5.598516981341413
 31
0.0
  0
LINE
  5
20C
330
1F
100
AcDbEntity
  8
Default
100
AcDbLine
 10
-2.872340351989721
 20
5.598516981341413
 30
0.0
 11
-2.868755111964742
 21
5.592660761201845
 31
0.0
  0
LINE
  5
20D
330
1F
100
AcDbEntity
  8
Default
100
AcDbLine
 10
-2.868755111964742
 20
5.592660761201845
 30
0.0
 11
-2.864970954971987
 21
5.586931065205201
 31
0.0
  0
LINE
  5
20E
330
1F
100
AcDbEntity
  8
Default
100
AcDbLine
 10
-2.864970954971987
 20
5.586931065205201
 30
0.0
 11
-2.860992341516538
 21
5.581334647124687
 31
0.0
  0
LINE
  5
20F
330
1F
100
AcDbEntity
  8
Default
100
AcDbLine
 10
-2.860992341516538
 20
5.581334647124687
 30
0.0
 11
-2.856823961315436
 21
5.575878103634634
 31
0.0
  0
LINE
  5
210
330
1F
100
AcDbEntity
  8
Default
100
AcDbLine
 10
-2.856823961315436
 20
5.575878103634634
 30
0.0
 11
-2.852470727769766
 21
5.570567866534782
 31
0.0
  0
LINE
  5
211
330
1F
100
AcDbEntity
  8
Default
100
AcDbLine
 10
-2.852470727769766
 20
5.570567866534782
 30
0.0
 11
-2.847937772173075
 21
5.565410195168923
 31
0.0
  0
LINE
  5
212
330
1F
100
AcDbEntity
  8
Default
100
AcDbLine
 10
-2.847937772173075
 20
5.565410195168923
 30
0.0
 11
-2.843230437662953
 21
5.560411169046807
 31
0.0
  0
LINE
  5
213
330
1F
100
AcDbEntity
  8
Default
100
AcDbLine
 10
-2.843230437662953
 20
5.560411169046807
 30
0.0
 11
-2.83835427292291
 21
5.55557668067804
 31
0.0
  0
LINE
  5
214
330
1F
100
AcDbEntity
  8
Default
100
AcDbLine
 10
-2.83835427292291
 20
5.55557668067804
 30
0.0
 11
-2.833315025641969
 21
5.55091242862639
 31
0.0
  0
LINE
  5
215
330
1F
100
AcDbEntity
  8
Default
100
AcDbLine
 10
-2.833315025641969
 20
5.55091242862639
 30
0.0
 11
-2.828118635739682
 21
5.546423910792719
 31
0.0
  0
LINE
  5
216
330
1F
100
AcDbEntity
  8
Default
100
AcDbLine
 10
-2.828118635739682
 20
5.546423910792719
 30
0.0
 11
-2.822771228364558
 21
5.542116417934424
 31
0.0
  0
LINE
  5
217
330
1F
100
AcDbEntity
  8
Default
100
AcDbLine
 10
-2.822771228364558
 20
5.542116417934424
 30
0.0
 11
-2.817279106674164
 21
5.537995027429063
 31
0.0
  0
LINE
  5
218
330
1F
100
AcDbEntity
  8
Default
100
AcDbLine
 10
-2.817279106674164
 20
5.537995027429063
 30
0.0
 11
-2.811648744405386
 21
5.534064597289485
 31
0.0
  0
LINE
  5
219
330
1F
100
AcDbEntity
  8
Default
100
AcDbLine
 10
-2.811648744405386
 20
5.534064597289485
 30
0.0
 11
-2.805886778243638
 21
5.53032976043754
 31
0.0
  0
LINE
  5
21A
330
1F
100
AcDbEntity
  8
Default
100
AcDbLine
 10
-2.805886778243638
 20
5.53032976043754
 30
0.0
 11
-2.799999999999987
 21
5.526794919243105
 31
0.0
  0
LINE
  5
21B
330
1F
100
AcDbEntity
  8
Default
100
AcDbLine
 10
-2.8
 20
5.0
 30
0.0
 11
-2.8
 21
5.526794919243079
 31
0.0
  0
LINE
  5
21C
330
1F
100
AcDbEntity
  8
Default
100
AcDbLine
 10
-2.8
 20
5.873205080756926
 30
0.0
 11
-2.8
 21
6.0
 31
0.0
  0
LINE
  5
21D
330
1F
100
AcDbEntity
  8
Default
100
AcDbLine
 10
-2.6
 20
5.7
 30
0.0
 11
-2.60006024610563
 21
5.703470675947519
 31
0.0
  0
LINE
  5
21E
330
1F
100
AcDbEntity
  8
Default
100
AcDbLine
 10
-2.60006024610563
 20
5.703470675947519
 30
0.0
 11
-2.600240911830654
 21
5.706937170000842
 31
0.0
  0
LINE
  5
21F
330
1F
100
AcDbEntity
  8
Default
100
AcDbLine
 10
-2.600240911830654
 20
5.706937170000842
 30
0.0
 11
-2.600541779486945
 21
5.710395305304632
 31
0.0
  0
LINE
  5
220
330
1F
100
AcDbEntity
  8
Default
100
AcDbLine
 10
-2.600541779486945
 20
5.710395305304632
 30
0.0
 11
-2.600962486552412
 21
5.713840915075195
 31
0.0
  0
LINE
  5
221
330
1F
100
AcDbEntity
  8
Default
100
AcDbLine
 10
-2.600962486552412
 20
5.713840915075195
 30
0.0
 11
-2.601502526107808
 21
5.717269847621123
 31
0.0
  0
LINE
  5
222
330
1F
100
AcDbEntity
  8
Default
100
AcDbLine
 10
-2.601502526107808
 20
5.717269847621123
 30
0.0
 11
-2.602161247447531
 21
5.720677971345773
 31
0.0
  0
LINE
  5
223
330
1F
100
AcDbEntity
  8
Default
100
AcDbLine
 10
-2.602161247447531
 20
5.720677971345773
 30
0.0
 11
-2.602937856863672
 21
5.724061179725505
 31
0.0
  0
LINE
  5
224
330
1F
100
AcDbEntity
  8
Default
100
AcDbLine
 10
-2.602937856863672
 20
5.724061179725505
 30
0.0
 11
-2.603831418602375
 21
5.727415396257729
 31
0.0
  0
LINE
  5
225
330
1F
100
AcDbEntity
  8
Default
100
AcDbLine
 10
-2.603831418602375
 20
5.727415396257729
 30
0.0
 11
-2.60484085599134
 21
5.730736579372778
 31
0.0
  0
LINE
  5
226
330
1F
100
AcDbEntity
  8
Default
100
AcDbLine
 10
-2.60484085599134
 20
5.730736579372778
 30
0.0
 11
-2.605964952737136
 21
5.734020727303675
 31
0.0
  0
LINE
  5
227
330
1F
100
AcDbEntity
  8
Default
100
AcDbLine
 10
-2.605964952737136
 20
5.734020727303675
 30
0.0
 11
-2.607202354390739
 21
5.737263882907957
 31
0.0
  0
LINE
  5
228
330
1F
100
AcDbEntity
  8
Default
100
AcDbLine
 10
-2.607202354390739
 20
5.737263882907957
 30
0.0
 11
-2.608551569979532
 21
5.740462138435722
 31
0.0
  0
LINE
  5
229
330
1F
100
AcDbEntity
  8
Default
100
AcDbLine
 10
-2.608551569979532
 20
5.740462138435722
 30
0.0
 11
-2.610010973803819
 21
5.743611640238164
 31
0.0
  0
LINE
  5
22A
330
1F
100
AcDbEntity
  8
Default
100
AcDbLine
 10
-2.610010973803819
 20
5.743611640238164
 30
0.0
 11
-2.61157880739566
 21
5.746708593410916
 31
0.0
  0
LINE
  5
22B
330
1F
100
AcDbEntity
  8
Default
100
AcDbLine
 10
-2.61157880739566
 20
5.746708593410916
 30
0.0
 11
-2.613253181637693
 21
5.749749266366619
 31
0.0
  0
LINE
  5
22C
330
1F
100
AcDbEntity
  8
Default
100
AcDbLine
 10
-2.613253181637693
 20
5.749749266366619
 30
0.0
 11
-2.615032079039366
 21
5.752729995331192
 31
0.0
  0
LINE
  5
22D
330
1F
100
AcDbEntity
  8
Default
100
AcDbLine
 10
-2.615032079039366
 20
5.752729995331192
 30
0.0
 11
-2.616913356167867
 21
5.755647188758393
 31
0.0
  0
LINE
  5
22E
330
1F
100
AcDbEntity
  8
Default
100
AcDbLine
 10
-2.616913356167867
 20
5.755647188758393
 30
0.0
 11
-2.618894746230782
 21
5.758497331657356
 31
0.0
  0
LINE
  5
22F
330
1F
100
AcDbEntity
  8
Default
100
AcDbLine
 10
-2.618894746230782
 20
5.758497331657356
 30
0.0
 11
-2.620973861807411
 21
5.761276989827877
 31
0.0
  0
LINE
  5
230
330
1F
100
AcDbEntity
  8
Default
100
AcDbLine
 10
-2.620973861807411
 20
5.761276989827877
 30
0.0
 11
-2.62314819772542
 21
5.763982813998362
 31
0.0
  0
LINE
  5
231
330
1F
100
AcDbEntity
  8
Default
100
AcDbLine
 10
-2.62314819772542
 20
5.763982813998362
 30
0.0
 11
-2.625415134079383
 21
5.766611543861433
 31
0.0
  0
LINE
  5
232
330
1F
100
AcDbEntity
  8
Default
100
AcDbLine
 10
-2.625415134079383
 20
5.766611543861433
 30
0.0
 11
-2.627771939387559
 21
5.769160012002352
 31
0.0
  0
LINE
  5
233
330
1F
100
AcDbEntity
  8
Default
100
AcDbLine
 10
-2.627771939387559
 20
5.769160012002352
 30
0.0
 11
-2.630215773883116
 21
5.771625147715502
 31
0.0
  0
LINE
  5
234
330
1F
100
AcDbEntity
  8
Default
100
AcDbLine
 10
-2.630215773883116
 20
5.771625147715502
 30
0.0
 11
-2.632743692935831
 21
5.774003980704353
 31
0.0
  0
LINE
  5
235
330
1F
100
AcDbEntity
  8
Default
100
AcDbLine
 10
-2.632743692935831
 20
5.774003980704353
 30
0.0
 11
-2.63535265060014
 21
5.776293644660432
 31
0.0
  0
LINE
  5
236
330
1F
100
AcDbEntity
  8
Default
100
AcDbLine
 10
-2.63535265060014
 20
5.776293644660432
 30
0.0
 11
-2.638039503285261
 21
5.778491380717012
 31
0.0
  0
LINE
  5
237
330
1F
100
AcDbEntity
  8
Default
100
AcDbLine
 10
-2.638039503285261
 20
5.778491380717012
 30
0.0
 11
-2.64080101354298
 21
5.780594540773316
 31
0.0
  0
LINE
  5
238
330
1F
100
AcDbEntity
  8
Default
100
AcDbLine
 10
-2.64080101354298
 20
5.780594540773316
 30
0.0
 11
-2.643633853968525
 21
5.782600590685288
 31
0.0
  0
LINE
  5
239
330
1F
100
AcDbEntity
  8
Default
100
AcDbLine
 10
-2.643633853968525
 20
5.782600590685288
 30
0.0
 11
-2.646534611209825
 21
5.78450711331903
 31
0.0
  0
LINE
  5
23A
330
1F
100
AcDbEntity
  8
Default
100
AcDbLine
 10
-2.646534611209825
 20
5.78450711331903
 30
0.0
 11
-2.649499790080336
 21
5.786311811463263
 31
0.0
  0
LINE
  5
23B
330
1F
100
AcDbEntity
  8
Default
100
AcDbLine
 10
-2.649499790080336
 20
5.786311811463263
 30
0.0
 11
-2.65252581777047
 21
5.788012510597286
 31
0.0
  0
LINE
  5
23C
330
1F
100
AcDbEntity
  8
Default
100
AcDbLine
 10
-2.65252581777047
 20
5.788012510597286
 30
0.0
 11
-2.65560904815255
 21
5.789607161511106
 31
0.0
  0
LINE
  5
23D
330
1F
100
AcDbEntity
  8
Default
100
AcDbLine
 10
-2.65560904815255
 20
5.789607161511106
 30
0.0
 11
-2.65874576617411
 21
5.791093842774574
 31
0.0
  0
LINE
  5
23E
330
1F
100
AcDbEntity
  8
Default
100
AcDbLine
 10
-2.65874576617411
 20
5.791093842774574
 30
0.0
 11
-2.661932192334244
 21
5.792470763052562
 31
0.0
  0
LINE
  5
23F
330
1F
100
AcDbEntity
  8
Default
100
AcDbLine
 10
-2.661932192334244
 20
5.792470763052562
 30
0.0
 11
-2.665164487237613
 21
5.79373626326338
 31
0.0
  0
LINE
  5
240
330
1F
100
AcDbEntity
  8
Default
100
AcDbLine
 10
-2.665164487237613
 20
5.79373626326338
 30
0.0
 11
-2.668438756220613
 21
5.79488881857784
 31
0.0
  0
LINE
  5
241
330
1F
100
AcDbEntity
  8
Default
100
AcDbLine
 10
-2.668438756220613
 20
5.79488881857784
 30
0.0
 11
-2.671751054044144
 21
5.795927040256557
 31
0.0
  0
LINE
  5
242
330
1F
100
AcDbEntity
  8
Default
100
AcDbLine
 10
-2.671751054044144
 20
5.795927040256557
 30
0.0
 11
-2.675097389647314
 21
5.796849677323274
 31
0.0
  0
LINE
  5
243
330
1F
100
AcDbEntity
  8
Default
100
AcDbLine
 10
-2.675097389647314
 20
5.796849677323274
 30
0.0
 11
-2.678473730956359
 21
5.797655618072187
 31
0.0
  0
LINE
  5
244
330
1F
100
AcDbEntity
  8
Default
100
AcDbLine
 10
-2.678473730956359
 20
5.797655618072187
 30
0.0
 11
-2.681876009742977
 21
5.798343891407465
 31
0.0
  0
LINE
  5
245
330
1F
100
AcDbEntity
  8
Default
100
AcDbLine
 10
-2.681876009742977
 20
5.798343891407465
 30
0.0
 11
-2.685300126526224
 21
5.798913668013349
 31
0.0
  0
LINE
  5
246
330
1F
100
AcDbEntity
  8
Default
100
AcDbLine
 10
-2.685300126526224
 20
5.798913668013349
 30
0.0
 11
-2.688741955512072
 21
5.799364261353405
 31
0.0
  0
LINE
  5
247
330
1F
100
AcDbEntity
  8
Default
100
AcDbLine
 10
-2.688741955512072
 20
5.799364261353405
 30
0.0
 11
-2.692197349564668
 21
5.799695128497756
 31
0.0
  0
LINE
  5
248
330
1F
100
AcDbEntity
  8
Default
100
AcDbLine
 10
-2.692197349564668
 20
5.799695128497756
 30
0.0
 11
-2.69566214520331
 21
5.799905870777262
 31
0.0
  0
LINE
  5
249
330
1F
100
AcDbEntity
  8
Default
100
AcDbLine
 10
-2.69566214520331
 20
5.799905870777262
 30
0.0
 11
-2.699132167619118
 21
5.79999623426389
 31
0.0
  0
LINE
  5
24A
330
1F
100
AcDbEntity
  8
Default
100
AcDbLine
 10
-2.699132167619118
 20
5.79999623426389
 30
0.0
 11
-2.702603235705352
 21
5.799966110076678
 31
0.0
  0
LINE
  5
24B
330
1F
100
AcDbEntity
  8
Default
100
AcDbLine
 10
-2.702603235705352
 20
5.799966110076678
 30
0.0
 11
-2.706071167095319
 21
5.799815534512924
 31
0.0
  0
LINE
  5
24C
330
1F
100
AcDbEntity
  8
Default
100
AcDbLine
 10
-2.706071167095319
 20
5.799815534512924
 30
0.0
 11
-2.709531783201805
 21
5.799544689004456
 31
0.0
  0
LINE
  5
24D
330
1F
100
AcDbEntity
  8
Default
100
AcDbLine
 10
-2.709531783201805
 20
5.799544689004456
 30
0.0
 11
-2.712980914251938
 21
5.799153899899015
 31
0.0
  0
LINE
  5
24E
330
1F
100
AcDbEntity
  8
Default
100
AcDbLine
 10
-2.712980914251938
 20
5.799153899899015
 30
0.0
 11
-2.716414404311448
 21
5.798643638067036
 31
0.0
  0
LINE
  5
24F
330
1F
100
AcDbEntity
  8
Default
100
AcDbLine
 10
-2.716414404311448
 20
5.798643638067036
 30
0.0
 11
-2.719828116292237
 21
5.798014518334283
 31
0.0
  0
LINE
  5
250
330
1F
100
AcDbEntity
  8
Default
100
AcDbLine
 10
-2.719828116292237
 20
5.798014518334283
 30
0.0
 11
-2.723217936937255
 21
5.797267298741034
 31
0.0
  0
LINE
  5
251
330
1F
100
AcDbEntity
  8
Default
100
AcDbLine
 10
-2.723217936937255
 20
5.797267298741034
 30
0.0
 11
-2.726579781776649
 21
5.796402879628701
 31
0.0
  0
LINE
  5
252
330
1F
100
AcDbEntity
  8
Default
100
AcDbLine
 10
-2.726579781776649
 20
5.796402879628701
 30
0.0
 11
-2.729909600049232
 21
5.795422302554985
 31
0.0
  0
LINE
  5
253
330
1F
100
AcDbEntity
  8
Default
100
AcDbLine
 10
-2.729909600049232
 20
5.795422302554985
 30
0.0
 11
-2.733203379583336
 21
5.794326749038886
 31
0.0
  0
LINE
  5
254
330
1F
100
AcDbEntity
  8
Default
100
AcDbLine
 10
-2.733203379583336
 20
5.794326749038886
 30
0.0
 11
-2.736457151631169
 21
5.793117539137061
 31
0.0
  0
LINE
  5
255
330
1F
100
AcDbEntity
  8
Default
100
AcDbLine
 10
-2.736457151631169
 20
5.793117539137061
 30
0.0
 11
-2.739666995650838
 21
5.791796129853259
 31
0.0
  0
LINE
  5
256
330
1F
100
AcDbEntity
  8
Default
100
AcDbLine
 10
-2.739666995650838
 20
5.791796129853259
 30
0.0
 11
-2.742829044030308
 21
5.790364113382747
 31
0.0
  0
LINE
  5
257
330
1F
100
AcDbEntity
  8
Default
100
AcDbLine
 10
-2.742829044030308
 20
5.790364113382747
 30
0.0
 11
-2.745939486747564
 21
5.788823215193836
 31
0.0
  0
LINE
  5
258
330
1F
100
AcDbEntity
  8
Default
100
AcDbLine
 10
-2.745939486747564
 20
5.788823215193836
 30
0.0
 11
-2.748994575961397
 21
5.787175291948826
 31
0.0
  0
LINE
  5
259
330
1F
100
AcDbEntity
  8
Default
100
AcDbLine
 10
-2.748994575961397
 20
5.787175291948826
 30
0.0
 11
-2.751990630527258
 21
5.785422329266874
 31
0.0
  0
LINE
  5
25A
330
1F
100
AcDbEntity
  8
Default
100
AcDbLine
 10
-2.751990630527258
 20
5.785422329266874
 30
0.0
 11
-2.754924040432748
 21
5.78356643933148
 31
0.0
  0
LINE
  5
25B
330
1F
100
AcDbEntity
  8
Default
100
AcDbLine
 10
-2.754924040432748
 20
5.78356643933148
 30
0.0
 11
-2.757791271147408
 21
5.781609858345465
 31
0.0
  0
LINE
  5
25C
330
1F
100
AcDbEntity
  8
Default
100
AcDbLine
 10
-2.757791271147408
 20
5.781609858345465
 30
0.0
 11
-2.760588867881547
 21
5.779554943836524
 31
0.0
  0
LINE
  5
25D
330
1F
100
AcDbEntity
  8
Default
100
AcDbLine
 10
-2.760588867881547
 20
5.779554943836524
 30
0.0
 11
-2.763313459748999
 21
5.777404171816588
 31
0.0
  0
LINE
  5
25E
330
1F
100
AcDbEntity
  8
Default
100
AcDbLine
 10
-2.763313459748999
 20
5.777404171816588
 30
0.0
 11
-2.765961763828775
 21
5.775160133798424
 31
0.0
  0
LINE
  5
25F
330
1F
100
AcDbEntity
  8
Default
100
AcDbLine
 10
-2.765961763828775
 20
5.775160133798424
 30
0.0
 11
-2.768530589120728
 21
5.77282553367306
 31
0.0
  0
LINE
  5
260
330
1F
100
AcDbEntity
  8
Default
100
AcDbLine
 10
-2.768530589120728
 20
5.77282553367306
 30
0.0
 11
-2.771016840390461
 21
5.770403184451812
 31
0.0
  0
LINE
  5
261
330
1F
100
AcDbEntity
  8
Default
100
AcDbLine
 10
-2.771016840390461
 20
5.770403184451812
 30
0.0
 11
-2.77341752189884
 21
5.767896004876822
 31
0.0
  0
LINE
  5
262
330
1F
100
AcDbEntity
  8
Default
100
AcDbLine
 10
-2.77341752189884
 20
5.767896004876822
 30
0.0
 11
-2.775729741011632
 21
5.765307015904199
 31
0.0
  0
LINE
  5
263
330
1F
100
AcDbEntity
  8
Default
100
AcDbLine
 10
-2.775729741011632
 20
5.765307015904199
 30
0.0
 11
-2.777950711684898
 21
5.762639337064004
 31
0.0
  0
LINE
  5
264
330
1F
100
AcDbEntity
  8
Default
100
AcDbLine
 10
-2.777950711684898
 20
5.762639337064004
 30
0.0
 11
-2.780077757821962
 21
5.759896182701464
 31
0.0
  0
LINE
  5
265
330
1F
100
AcDbEntity
  8
Default
100
AcDbLine
 10
-2.780077757821962
 20
5.759896182701464
 30
0.0
 11
-2.7821083164979
 21
5.757080858103928
 31
0.0
  0
LINE
  5
266
330
1F
100
AcDbEntity
  8
Default
100
AcDbLine
 10
-2.7821083164979
 20
5.757080858103928
 30
0.0
 11
-2.784039941047662
 21
5.754196755518255
 31
0.0
  0
LINE
  5
267
330
1F
100
AcDbEntity
  8
Default
100
AcDbLine
 10
-2.784039941047662
 20
5.754196755518255
 30
0.0
 11
-2.785870304014115
 21
5.751247350063428
 31
0.0
  0
LINE
  5
268
330
1F
100
AcDbEntity
  8
Default
100
AcDbLine
 10
-2.785870304014115
 20
5.751247350063428
 30
0.0
 11
-2.787597199952446
 21
5.748236195543297
 31
0.0
  0
LINE
  5
269
330
1F
100
AcDbEntity
  8
Default
100
AcDbLine
 10
-2.787597199952446
 20
5.748236195543297
 30
0.0
 11
-2.789218548087553
 21
5.74516692016453
 31
0.0
  0
LINE
  5
26A
330
1F
100
AcDbEntity
  8
Default
100
AcDbLine
 10
-2.789218548087553
 20
5.74516692016453
 30
0.0
 11
-2.790732394821216
 21
5.742043222164899
 31
0.0
  0
LINE
  5
26B
330
1F
100
AcDbEntity
  8
Default
100
AcDbLine
 10
-2.790732394821216
 20
5.742043222164899
 30
0.0
 11
-2.792136916086031
 21
5.738868865357196
 31
0.0
  0
LINE
  5
26C
330
1F
100
AcDbEntity
  8
Default
100
AcDbLine
 10
-2.792136916086031
 20
5.738868865357196
 30
0.0
 11
-2.793430419543267
 21
5.735647674594133
 31
0.0
  0
LINE
  5
26D
330
1F
100
AcDbEntity
  8
Default
100
AcDbLine
 10
-2.793430419543267
 20
5.735647674594133
 30
0.0
 11
-2.794611346622007
 21
5.732383531159688
 31
0.0
  0
LINE
  5
26E
330
1F
100
AcDbEntity
  8
Default
100
AcDbLine
 10
-2.794611346622007
 20
5.732383531159688
 30
0.0
 11
-2.7956782743971
 21
5.729080368092466
 31
0.0
  0
LINE
  5
26F
330
1F
100
AcDbEntity
  8
Default
100
AcDbLine
 10
-2.7956782743971
 20
5.729080368092466
 30
0.0
 11
-2.796629917303677
 21
5.725742165446688
 31
0.0
  0
LINE
  5
270
330
1F
100
AcDbEntity
  8
Default
100
AcDbLine
 10
-2.796629917303677
 20
5.725742165446688
 30
0.0
 11
-2.797465128686157
 21
5.722372945496535
 31
0.0
  0
LINE
  5
271
330
1F
100
AcDbEntity
  8
Default
100
AcDbLine
 10
-2.797465128686157
 20
5.722372945496535
 30
0.0
 11
-2.798182902179876
 21
5.718976767889631
 31
0.0
  0
LINE
  5
272
330
1F
100
AcDbEntity
  8
Default
100
AcDbLine
 10
-2.798182902179876
 20
5.718976767889631
 30
0.0
 11
-2.79878237292368
 21
5.715557724755471
 31
0.0
  0
LINE
  5
273
330
1F
100
AcDbEntity
  8
Default
100
AcDbLine
 10
-2.79878237292368
 20
5.715557724755471
 30
0.0
 11
-2.799262818602014
 21
5.712119935774731
 31
0.0
  0
LINE
  5
274
330
1F
100
AcDbEntity
  8
Default
100
AcDbLine
 10
-2.799262818602014
 20
5.712119935774731
 30
0.0
 11
-2.799623660315257
 21
5.708667543215373
 31
0.0
  0
LINE
  5
275
330
1F
100
AcDbEntity
  8
Default
100
AcDbLine
 10
-2.799623660315257
 20
5.708667543215373
 30
0.0
 11
-2.799864463277248
 21
5.705204706941534
 31
0.0
  0
LINE
  5
276
330
1F
100
AcDbEntity
  8
Default
100
AcDbLine
 10
-2.799864463277248
 20
5.705204706941534
 30
0.0
 11
-2.799984937339174
 21
5.701735599401211
 31
0.0
  0
LINE
  5
277
330
1F
100
AcDbEntity
  8
Default
100
AcDbLine
 10
-2.799984937339174
 20
5.701735599401211
 30
0.0
 11
-2.799984937339174
 21
5.69826440059879
 31
0.0
  0
LINE
  5
278
330
1F
100
AcDbEntity
  8
Default
100
AcDbLine
 10
-2.799984937339174
 20
5.69826440059879
 30
0.0
 11
-2.799864463277248
 21
5.694795293058466
 31
0.0
  0
LINE
  5
279
330
1F
100
AcDbEntity
  8
Default
100
AcDbLine
 10
-2.799864463277248
 20
5.694795293058466
 30
0.0
 11
-2.799623660315257
 21
5.691332456784627
 31
0.0
  0
LINE
  5
27A
330
1F
100
AcDbEntity
  8
Default
100
AcDbLine
 10
-2.799623660315257
 20
5.691332456784627
 30
0.0
 11
-2.799262818602014
 21
5.687880064225269
 31
0.0
  0
LINE
  5
27B
330
1F
100
AcDbEntity
  8
Default
100
AcDbLine
 10
-2.799262818602014
 20
5.687880064225269
 30
0.0
 11
-2.79878237292368
 21
5.684442275244529
 31
0.0
  0
LINE
  5
27C
330
1F
100
AcDbEntity
  8
Default
100
AcDbLine
 10
-2.79878237292368
 20
5.684442275244529
 30
0.0
 11
-2.798182902179876
 21
5.681023232110369
 31
0.0
  0
LINE
  5
27D
330
1F
100
AcDbEntity
  8
Default
100
AcDbLine
 10
-2.798182902179876
 20
5.681023232110369
 30
0.0
 11
-2.797465128686157
 21
5.677627054503465
 31
0.0
  0
LINE
  5
27E
330
1F
100
AcDbEntity
  8
Default
100
AcDbLine
 10
-2.797465128686157
 20
5.677627054503465
 30
0.0
 11
-2.796629917303677
 21
5.674257834553313
 31
0.0
  0
LINE
  5
27F
330
1F
100
AcDbEntity
  8
Default
100
AcDbLine
 10
-2.796629917303677
 20
5.674257834553313
 30
0.0
 11
-2.7956782743971
 21
5.670919631907534
 31
0.0
  0
LINE
  5
280
330
1F
100
AcDbEntity
  8
Default
100
AcDbLine
 10
-2.7956782743971
 20
5.670919631907534
 30
0.0
 11
-2.794611346622007
 21
5.667616468840312
 31
0.0
  0
LINE
  5
281
330
1F
100
AcDbEntity
  8
Default
100
AcDbLine
 10
-2.794611346622007
 20
5.667616468840312
 30
0.0
 11
-2.793430419543267
 21
5.664352325405868
 31
0.0
  0
LINE
  5
282
330
1F
100
AcDbEntity
  8
Default
100
AcDbLine
 10
-2.793430419543267
 20
5.664352325405868
 30
0.0
 11
-2.792136916086031
 21
5.661131134642805
 31
0.0
  0
LINE
  5
283
330
1F
100
AcDbEntity
  8
Default
100
AcDbLine
 10
-2.792136916086031
 20
5.661131134642805
 30
0.0
 11
-2.790732394821216
 21
5.657956777835102
 31
0.0
  0
LINE
  5
284
330
1F
100
AcDbEntity
  8
Default
100
AcDbLine
 10
-2.790732394821216
 20
5.657956777835102
 30
0.0
 11
-2.789218548087553
 21
5.654833079835471
 31
0.0
  0
LINE
  5
285
330
1F
100
AcDbEntity
  8
Default
100
AcDbLine
 10
-2.789218548087553
 20
5.654833079835471
 30
0.0
 11
-2.787597199952446
 21
5.651763804456703
 31
0.0
  0
LINE
  5
286
330
1F
100
AcDbEntity
  8
Default
100
AcDbLine
 10
-2.787597199952446
 20
5.651763804456703
 30
0.0
 11
-2.785870304014115
 21
5.648752649936572
 31
0.0
  0
LINE
  5
287
330
1F
100
AcDbEntity
  8
Default
100
AcDbLine
 10
-2.785870304014115
 20
5.648752649936572
 30
0.0
 11
-2.784039941047662
 21
5.645803244481746
 31
0.0
  0
LINE
  5
288
330
1F
100
AcDbEntity
  8
Default
100
AcDbLine
 10
-2.784039941047662
 20
5.645803244481746
 30
0.0
 11
-2.7821083164979
 21
5.642919141896073
 31
0.0
  0
LINE
  5
289
330
1F
100
AcDbEntity
  8
Default
100
AcDbLine
 10
-2.7821083164979
 20
5.642919141896073
 30
0.0
 11
-2.780077757821962
 21
5.640103817298536
 31
0.0
  0
LINE
  5
28A
330
1F
100
AcDbEntity
  8
Default
100
AcDbLine
 10
-2.780077757821962
 20
5.640103817298536
 30
0.0
 11
-2.777950711684898
 21
5.637360662935996
 31
0.0
  0
LINE
  5
28B
330
1F
100
AcDbEntity
  8
Default
100
AcDbLine
 10
-2.777950711684898
 20
5.637360662935996
 30
0.0
 11
-2.775729741011632
 21
5.634692984095802
 31
0.0
  0
LINE
  5
28C
330
1F
100
AcDbEntity
  8
Default
100
AcDbLine
 10
-2.775729741011632
 20
5.634692984095802
 30
0.0
 11
-2.77341752189884
 21
5.632103995123178
 31
0.0
  0
LINE
  5
28D
330
1F
100
AcDbEntity
  8
Default
100
AcDbLine
 10
-2.77341752189884
 20
5.632103995123178
 30
0.0
 11
-2.771016840390461
 21
5.629596815548188
 31
0.0
  0
LINE
  5
28E
330
1F
100
AcDbEntity
  8
Default
100
AcDbLine
 10
-2.771016840390461
 20
5.629596815548188
 30
0.0
 11
-2.768530589120728
 21
5.627174466326941
 31
0.0
  0
LINE
  5
28F
330
1F
100
AcDbEntity
  8
Default
100
AcDbLine
 10
-2.768530589120728
 20
5.627174466326941
 30
0.0
 11
-2.765961763828775
 21
5.624839866201577
 31
0.0
  0
LINE
  5
290
330
1F
100
AcDbEntity
  8
Default
100
AcDbLine
 10
-2.765961763828775
 20
5.624839866201577
 30
0.0
 11
-2.763313459748999
 21
5.622595828183412
 31
0.0
  0
LINE
  5
291
330
1F
100
AcDbEntity
  8
Default
100
AcDbLine
 10
-2.763313459748999
 20
5.622595828183412
 30
0.0
 11
-2.760588867881547
 21
5.620445056163477
 31
0.0
  0
LINE
  5
292
330
1F
100
AcDbEntity
  8
Default
100
AcDbLine
 10
-2.760588867881547
 20
5.620445056163477
 30
0.0
 11
-2.757791271147408
 21
5.618390141654536
 31
0.0
  0
LINE
  5
293
330
1F
100
AcDbEntity
  8
Default
100
AcDbLine
 10
-2.757791271147408
 20
5.618390141654536
 30
0.0
 11
-2.754924040432748
 21
5.61643356066852
 31
0.0
  0
LINE
  5
294
330
1F
100
AcDbEntity
  8
Default
100
AcDbLine
 10
-2.754924040432748
 20
5.61643356066852
 30
0.0
 11
-2.751990630527258
 21
5.614577670733127
 31
0.0
  0
LINE
  5
295
330
1F
100
AcDbEntity
  8
Default
100
AcDbLine
 10
-2.751990630527258
 20
5.614577670733127
 30
0.0
 11
-2.748994575961397
 21
5.612824708051175
 31
0.0
  0
LINE
  5
296
330
1F
100
AcDbEntity
  8
Default
100
AcDbLine
 10
-2.748994575961397
 20
5.612824708051175
 30
0.0
 11
-2.745939486747564
 21
5.611176784806164
 31
0.0
  0
LINE
  5
297
330
1F
100
AcDbEntity
  8
Default
100
AcDbLine
 10
-2.745939486747564
 20
5.611176784806164
 30
0.0
 11
-2.742829044030308
 21
5.609635886617253
 31
0.0
  0
LINE
  5
298
330
1F
100
AcDbEntity
  8
Default
100
AcDbLine
 10
-2.742829044030308
 20
5.609635886617253
 30
0.0
 11
-2.739666995650838
 21
5.608203870146741
 31
0.0
  0
LINE
  5
299
330
1F
100
AcDbEntity
  8
Default
100
AcDbLine
 10
-2.739666995650838
 20
5.608203870146741
 30
0.0
 11
-2.736457151631169
 21
5.60688246086294
 31
0.0
  0
LINE
  5
29A
330
1F
100
AcDbEntity
  8
Default
100
AcDbLine
 10
-2.736457151631169
 20
5.60688246086294
 30
0.0
 11
-2.733203379583337
 21
5.605673250961114
 31
0.0
  0
LINE
  5
29B
330
1F
100
AcDbEntity
  8
Default
100
AcDbLine
 10
-2.733203379583337
 20
5.605673250961114
 30
0.0
 11
-2.729909600049232
 21
5.604577697445015
 31
0.0
  0
LINE
  5
29C
330
1F
100
AcDbEntity
  8
Default
100
AcDbLine
 10
-2.729909600049232
 20
5.604577697445015
 30
0.0
 11
-2.726579781776649
 21
5.603597120371299
 31
0.0
  0
LINE
  5
29D
330
1F
100
AcDbEntity
  8
Default
100
AcDbLine
 10
-2.726579781776649
 20
5.603597120371299
 30
0.0
 11
-2.723217936937255
 21
5.602732701258966
 31
0.0
  0
LINE
  5
29E
330
1F
100
AcDbEntity
  8
Default
100
AcDbLine
 10
-2.723217936937255
 20
5.602732701258966
 30
0.0
 11
-2.719828116292237
 21
5.601985481665717
 31
0.0
  0
LINE
  5
29F
330
1F
100
AcDbEntity
  8
Default
100
AcDbLine
 10
-2.719828116292237
 20
5.601985481665717
 30
0.0
 11
-2.716414404311448
 21
5.601356361932964
 31
0.0
  0
LINE
  5
2A0
330
1F
100
AcDbEntity
  8
Default
100
AcDbLine
 10
-2.716414404311448
 20
5.601356361932964
 30
0.0
 11
-2.712980914251938
 21
5.600846100100985
 31
0.0
  0
LINE
  5
2A1
330
1F
100
AcDbEntity
  8
Default
100
AcDbLine
 10
-2.712980914251938
 20
5.600846100100985
 30
0.0
 11
-2.709531783201805
 21
5.600455310995544
 31
0.0
  0
LINE
  5
2A2
330
1F
100
AcDbEntity
  8
Default
100
AcDbLine
 10
-2.709531783201805
 20
5.600455310995544
 30
0.0
 11
-2.706071167095319
 21
5.600184465487076
 31
0.0
  0
LINE
  5
2A3
330
1F
100
AcDbEntity
  8
Default
100
AcDbLine
 10
-2.706071167095319
 20
5.600184465487076
 30
0.0
 11
-2.702603235705352
 21
5.600033889923322
 31
0.0
  0
LINE
  5
2A4
330
1F
100
AcDbEntity
  8
Default
100
AcDbLine
 10
-2.702603235705352
 20
5.600033889923322
 30
0.0
 11
-2.699132167619118
 21
5.60000376573611
 31
0.0
  0
LINE
  5
2A5
330
1F
100
AcDbEntity
  8
Default
100
AcDbLine
 10
-2.699132167619118
 20
5.60000376573611
 30
0.0
 11
-2.69566214520331
 21
5.600094129222739
 31
0.0
  0
LINE
  5
2A6
330
1F
100
AcDbEntity
  8
Default
100
AcDbLine
 10
-2.69566214520331
 20
5.600094129222739
 30
0.0
 11
-2.692197349564668
 21
5.600304871502244
 31
0.0
  0
LINE
  5
2A7
330
1F
100
AcDbEntity
  8
Default
100
AcDbLine
 10
-2.692197349564668
 20
5.600304871502244
 30
0.0
 11
-2.688741955512072
 21
5.600635738646595
 31
0.0
  0
LINE
  5
2A8
330
1F
100
AcDbEntity
  8
Default
100
AcDbLine
 10
-2.688741955512072
 20
5.600635738646595
 30
0.0
 11
-2.685300126526224
 21
5.601086331986651
 31
0.0
  0
LINE
  5
2A9
330
1F
100
AcDbEntity
  8
Default
100
AcDbLine
 10
-2.685300126526224
 20
5.601086331986651
 30
0.0
 11
-2.681876009742977
 21
5.601656108592535
 31
0.0
  0
LINE
  5
2AA
330
1F
100
AcDbEntity
  8
Default
100
AcDbLine
 10
-2.681876009742977
 20
5.601656108592535
 30
0.0
 11
-2.67847373095636
 21
5.602344381927813
 31
0.0
  0
LINE
  5
2AB
330
1F
100
AcDbEntity
  8
Default
100
AcDbLine
 10
-2.67847373095636
 20
5.602344381927813
 30
0.0
 11
-2.675097389647314
 21
5.603150322676727
 31
0.0
  0
LINE
  5
2AC
330
1F
100
AcDbEntity
  8
Default
100
AcDbLine
 10
-2.675097389647314
 20
5.603150322676727
 30
0.0
 11
-2.671751054044144
 21
5.604072959743443
 31
0.0
  0
LINE
  5
2AD
330
1F
100
AcDbEntity
  8
Default
100
AcDbLine
 10
-2.671751054044144
 20
5.604072959743443
 30
0.0
 11
-2.668438756220613
 21
5.605111181422161
 31
0.0
  0
LINE
  5
2AE
330
1F
100
AcDbEntity
  8
Default
100
AcDbLine
 10
-2.668438756220613
 20
5.605111181422161
 30
0.0
 11
-2.665164487237613
 21
5.60626373673662
 31
0.0
  0
LINE
  5
2AF
330
1F
100
AcDbEntity
  8
Default
100
AcDbLine
 10
-2.665164487237613
 20
5.60626373673662
 30
0.0
 11
-2.661932192334244
 21
5.607529236947438
 31
0.0
  0
LINE
  5
2B0
330
1F
100
AcDbEntity
  8
Default
100
AcDbLine
 10
-2.661932192334244
 20
5.607529236947438
 30
0.0
 11
-2.65874576617411
 21
5.608906157225427
 31
0.0
  0
LINE
  5
2B1
330
1F
100
AcDbEntity
  8
Default
100
AcDbLine
 10
-2.65874576617411
 20
5.608906157225427
 30
0.0
 11
-2.65560904815255
 21
5.610392838488894
 31
0.0
  0
LINE
  5
2B2
330
1F
100
AcDbEntity
  8
Default
100
AcDbLine
 10
-2.65560904815255
 20
5.610392838488894
 30
0.0
 11
-2.65252581777047
 21
5.611987489402714
 31
0.0
  0
LINE
  5
2B3
330
1F
100
AcDbEntity
  8
Default
100
AcDbLine
 10
-2.65252581777047
 20
5.611987489402714
 30
0.0
 11
-2.649499790080336
 21
5.613688188536737
 31
0.0
  0
LINE
  5
2B4
330
1F
100
AcDbEntity
  8
Default
100
AcDbLine
 10
-2.649499790080336
 20
5.613688188536737
 30
0.0
 11
-2.646534611209825
 21
5.61549288668097
 31
0.0
  0
LINE
  5
2B5
330
1F
100
AcDbEntity
  8
Default
100
AcDbLine
 10
-2.646534611209825
 20
5.61549288668097
 30
0.0
 11
-2.643633853968525
 21
5.617399409314713
 31
0.0
  0
LINE
  5
2B6
330
1F
100
AcDbEntity
  8
Default
100
AcDbLine
 10
-2.643633853968525
 20
5.617399409314713
 30
0.0
 11
-2.64080101354298
 21
5.619405459226685
 31
0.0
  0
LINE
  5
2B7
330
1F
100
AcDbEntity
  8
Default
100
AcDbLine
 10
-2.64080101354298
 20
5.619405459226685
 30
0.0
 11
-2.638039503285261
 21
5.621508619282989
 31
0.0
  0
LINE
  5
2B8
330
1F
100
AcDbEntity
  8
Default
100
AcDbLine
 10
-2.638039503285261
 20
5.621508619282989
 30
0.0
 11
-2.63535265060014
 21
5.623706355339568
 31
0.0
  0
LINE
  5
2B9
330
1F
100
AcDbEntity
  8
Default
100
AcDbLine
 10
-2.63535265060014
 20
5.623706355339568
 30
0.0
 11
-2.632743692935831
 21
5.625996019295648
 31
0.0
  0
LINE
  5
2BA
330
1F
100
AcDbEntity
  8
Default
100
AcDbLine
 10
-2.632743692935831
 20
5.625996019295648
 30
0.0
 11
-2.630215773883116
 21
5.628374852284497
 31
0.0
  0
LINE
  5
2BB
330
1F
100
AcDbEntity
  8
Default
100
AcDbLine
 10
-2.630215773883116
 20
5.628374852284497
 30
0.0
 11
-2.627771939387559
 21
5.630839987997648
 31
0.0
  0
LINE
  5
2BC
330
1F
100
AcDbEntity
  8
Default
100
AcDbLine
 10
-2.627771939387559
 20
5.630839987997648
 30
0.0
 11
-2.625415134079383
 21
5.633388456138567
 31
0.0
  0
LINE
  5
2BD
330
1F
100
AcDbEntity
  8
Default
100
AcDbLine
 10
-2.625415134079383
 20
5.633388456138567
 30
0.0
 11
-2.62314819772542
 21
5.636017186001639
 31
0.0
  0
LINE
  5
2BE
330
1F
100
AcDbEntity
  8
Default
100
AcDbLine
 10
-2.62314819772542
 20
5.636017186001639
 30
0.0
 11
-2.620973861807411
 21
5.638723010172123
 31
0.0
  0
LINE
  5
2BF
330
1F
100
AcDbEntity
  8
Default
100
AcDbLine
 10
-2.620973861807411
 20
5.638723010172123
 30
0.0
 11
-2.618894746230782
 21
5.641502668342644
 31
0.0
  0
LINE
  5
2C0
330
1F
100
AcDbEntity
  8
Default
100
AcDbLine
 10
-2.618894746230782
 20
5.641502668342644
 30
0.0
 11
-2.616913356167867
 21
5.644352811241607
 31
0.0
  0
LINE
  5
2C1
330
1F
100
AcDbEntity
  8
Default
100
AcDbLine
 10
-2.616913356167867
 20
5.644352811241607
 30
0.0
 11
-2.615032079039366
 21
5.647270004668808
 31
0.0
  0
LINE
  5
2C2
330
1F
100
AcDbEntity
  8
Default
100
AcDbLine
 10
-2.615032079039366
 20
5.647270004668808
 30
0.0
 11
-2.613253181637693
 21
5.650250733633381
 31
0.0
  0
LINE
  5
2C3
330
1F
100
AcDbEntity
  8
Default
100
AcDbLine
 10
-2.613253181637693
 20
5.650250733633381
 30
0.0
 11
-2.61157880739566
 21
5.653291406589084
 31
0.0
  0
LINE
  5
2C4
330
1F
100
AcDbEntity
  8
Default
100
AcDbLine
 10
-2.61157880739566
 20
5.653291406589084
 30
0.0
 11
-2.610010973803819
 21
5.656388359761836
 31
0.0
  0
LINE
  5
2C5
330
1F
100
AcDbEntity
  8
Default
100
AcDbLine
 10
-2.610010973803819
 20
5.656388359761836
 30
0.0
 11
-2.608551569979532
 21
5.659537861564278
 31
0.0
  0
LINE
  5
2C6
330
1F
100
AcDbEntity
  8
Default
100
AcDbLine
 10
-2.608551569979532
 20
5.659537861564278
 30
0.0
 11
-2.607202354390739
 21
5.662736117092043
 31
0.0
  0
LINE
  5
2C7
330
1F
100
AcDbEntity
  8
Default
100
AcDbLine
 10
-2.607202354390739
 20
5.662736117092043
 30
0.0
 11
-2.605964952737136
 21
5.665979272696325
 31
0.0
  0
LINE
  5
2C8
330
1F
100
AcDbEntity
  8
Default
100
AcDbLine
 10
-2.605964952737136
 20
5.665979272696325
 30
0.0
 11
-2.60484085599134
 21
5.669263420627223
 31
0.0
  0
LINE
  5
2C9
330
1F
100
AcDbEntity
  8
Default
100
AcDbLine
 10
-2.60484085599134
 20
5.669263420627223
 30
0.0
 11
-2.603831418602375
 21
5.672584603742271
 31
0.0
  0
LINE
  5
2CA
330
1F
100
AcDbEntity
  8
Default
100
AcDbLine
 10
-2.603831418602375
 20
5.672584603742271
 30
0.0
 11
-2.602937856863672
 21
5.675938820274496
 31
0.0
  0
LINE
  5
2CB
330
1F
100
AcDbEntity
  8
Default
100
AcDbLine
 10
-2.602937856863672
 20
5.675938820274496
 30
0.0
 11
-2.602161247447531
 21
5.679322028654227
 31
0.0
  0
LINE
  5
2CC
330
1F
100
AcDbEntity
  8
Default
100
AcDbLine
 10
-2.602161247447531
 20
5.679322028654227
 30
0.0
 11
-2.601502526107808
 21
5.682730152378877
 31
0.0
  0
LINE
  5
2CD
330
1F
100
AcDbEntity
  8
Default
100
AcDbLine
 10
-2.601502526107808
 20
5.682730152378877
 30
0.0
 11
-2.600962486552412
 21
5.686159084924806
 31
0.0
  0
LINE
  5
2CE
330
1F
100
AcDbEntity
  8
Default
100
AcDbLine
 10
-2.600962486552412
 20
5.686159084924806
 30
0.0
 11
-2.600541779486945
 21
5.689604694695368
 31
0.0
  0
LINE
  5
2CF
330
1F
100
AcDbEntity
  8
Default
100
AcDbLine
 10
-2.600541779486945
 20
5.689604694695368
 30
0.0
 11
-2.600240911830654
 21
5.693062829999159
 31
0.0
  0
LINE
  5
2D0
330
1F
100
AcDbEntity
  8
Default
100
AcDbLine
 10
-2.600240911830654
 20
5.693062829999159
 30
0.0
 11
-2.60006024610563
 21
5.696529324052482
 31
0.0
  0
LINE
  5
2D1
330
1F
100
AcDbEntity
  8
Default
100
AcDbLine
 10
-2.60006024610563
 20
5.696529324052482
 30
0.0
 11
-2.6
 21
5.7
 31
0.0
  0
LINE
  5
2D2
330
1F
100
AcDbEntity
  8
Default
100
AcDbLine
 10
-2.8
 20
6.0
 30
0.0
 11
-2.6
 21
6.0
 31
0.0
  0
LINE
  5
2D3
330
1F
100
AcDbEntity
  8
Default
100
AcDbLine
 10
-2.8
 20
3.0
 30
0.0
 11
-2.6
 21
3.0
 31
0.0
  0
LINE
  5
2D4
330
1F
100
AcDbEntity
  8
Default
100
AcDbLine
 10
-2.8
 20
4.0
 30
0.0
 11
-2.8
 21
3.0
 31
0.0
  0
LINE
  5
2D5
330
1F
100
AcDbEntity
  8
Default
100
AcDbLine
 10
1.5
 20
0.3999999999999995
 30
0.0
 11
1.5
 21
0.1999999999999993
 31
0.0
  0
LINE
  5
2D6
330
1F
100
AcDbEntity
  8
Default
100
AcDbLine
 10
1.5
 20
0.2000000000000002
 30
0.0
 11
2.5
 21
0.2000000000000002
 31
0.0
  0
LINE
  5
2D7
330
1F
100
AcDbEntity
  8
Default
100
AcDbLine
 10
2.5
 20
0.2000000000000002
 30
0.0
 11
2.5
 21
0.3999999999999995
 31
0.0
  0
LINE
  5
2D8
330
1F
100
AcDbEntity
  8
Default
100
AcDbLine
 10
1.5
 20
2.399999999999999
 30
0.0
 11
1.5
 21
2.600000000000001
 31
0.0
  0
LINE
  5
2D9
330
1F
100
AcDbEntity
  8
Default
100
AcDbLine
 10
1.5
 20
2.600000000000001
 30
0.0
 11
2.5
 21
2.600000000000001
 31
0.0
  0
LINE
  5
2DA
330
1F
100
AcDbEntity
  8
Default
100
AcDbLine
 10
2.5
 20
2.600000000000001
 30
0.0
 11
2.5
 21
2.399999999999999
 31
0.0
  0
LINE
  5
2DB
330
1F
100
AcDbEntity
  8
Default
100
AcDbLine
 10
0.0
 20
1.899999999999999
 30
0.0
 11
0.2
 21
1.899999999999999
 31
0.0
  0
LINE
  5
2DC
330
1F
100
AcDbEntity
  8
Default
100
AcDbLine
 10
0.2
 20
1.899999999999999
 30
0.0
 11
0.2
 21
0.8999999999999995
 31
0.0
  0
LINE
  5
2DD
330
1F
100
AcDbEntity
  8
Default
100
AcDbLine
 10
0.2
 20
0.8999999999999995
 30
0.0
 11
0.0
 21
0.8999999999999995
 31
0.0
  0
LINE
  5
2DE
330
1F
100
AcDbEntity
  8
Default
100
AcDbLine
 10
4.0
 20
1.899999999999999
 30
0.0
 11
3.8
 21
1.899999999999999
 31
0.0
  0
LINE
  5
2DF
330
1F
100
AcDbEntity
  8
Default
100
AcDbLine
 10
3.8
 20
1.899999999999999
 30
0.0
 11
3.8
 21
0.8999999999999995
 31
0.0
  0
LINE
  5
2E0
330
1F
100
AcDbEntity
  8
Default
100
AcDbLine
 10
3.8
 20
0.8999999999999995
 30
0.0
 11
4.0
 21
0.8999999999999995
 31
0.0
  0
LINE
  5
2E1
330
1F
100
AcDbEntity
  8
Default
100
AcDbLine
 10
0.0
 20
0.3999999999999995
 30
0.0
 11
0.0
 21
0.8999999999999995
 31
0.0
  0
LINE
  5
2E2
330
1F
100
AcDbEntity
  8
Default
100
AcDbLine
 10
0.0
 20
1.899999999999999
 30
0.0
 11
0.0
 21
2.399999999999999
 31
0.0
  0
LINE
  5
2E3
330
1F
100
AcDbEntity
  8
Default
100
AcDbLine
 10
0.0
 20
2.399999999999999
 30
0.0
 11
1.5
 21
2.399999999999999
 31
0.0
  0
LINE
  5
2E4
330
1F
100
AcDbEntity
  8
Default
100
AcDbLine
 10
2.5
 20
2.399999999999999
 30
0.0
 11
4.0
 21
2.399999999999999
 31
0.0
  0
LINE
  5
2E5
330
1F
100
AcDbEntity
  8
Default
100
AcDbLine
 10
4.0
 20
2.399999999999999
 30
0.0
 11
4.0
 21
1.899999999999999
 31
0.0
  0
LINE
  5
2E6
330
1F
100
AcDbEntity
  8
Default
100
AcDbLine
 10
4.0
 20
0.8999999999999995
 30
0.0
 11
4.0
 21
0.3999999999999995
 31
0.0
  0
LINE
  5
2E7
330
1F
100
AcDbEntity
  8
Default
100
AcDbLine
 10
0.0
 20
0.3999999999999995
 30
0.0
 11
1.5
 21
0.3999999999999995
 31
0.0
  0
LINE
  5
2E8
330
1F
100
AcDbEntity
  8
Default
100
AcDbLine
 10
2.5
 20
0.3999999999999995
 30
0.0
 11
4.0
 21
0.3999999999999995
 31
0.0
  0
LINE
  5
2E9
330
1F
100
AcDbEntity
  8
Default
100
AcDbLine
 10
0.0
 20
5.0
 30
0.0
 11
0.2
 21
5.0
 31
0.0
  0
LINE
  5
2EA
330
1F
100
AcDbEntity
  8
Default
100
AcDbLine
 10
0.0
 20
4.0
 30
0.0
 11
0.2
 21
4.0
 31
0.0
  0
LINE
  5
2EB
330
1F
100
AcDbEntity
  8
Default
100
AcDbLine
 10
0.2
 20
5.0
 30
0.0
 11
0.2
 21
4.0
 31
0.0
  0
LINE
  5
2EC
330
1F
100
AcDbEntity
  8
Default
100
AcDbLine
 10
4.0
 20
5.0
 30
0.0
 11
3.8
 21
5.0
 31
0.0
  0
LINE
  5
2ED
330
1F
100
AcDbEntity
  8
Default
100
AcDbLine
 10
4.0
 20
4.0
 30
0.0
 11
3.8
 21
4.0
 31
0.0
  0
LINE
  5
2EE
330
1F
100
AcDbEntity
  8
Default
100
AcDbLine
 10
3.8
 20
5.0
 30
0.0
 11
3.8
 21
4.0
 31
0.0
  0
LINE
  5
2EF
330
1F
100
AcDbEntity
  8
Default
100
AcDbLine
 10
0.0
 20
6.0
 30
0.0
 11
0.0
 21
5.0
 31
0.0
  0
LINE
  5
2F0
330
1F
100
AcDbEntity
  8
Default
100
AcDbLine
 10
0.0
 20
4.0
 30
0.0
 11
0.0
 21
3.0
 31
0.0
  0
LINE
  5
2F1
330
1F
100
AcDbEntity
  8
Default
100
AcDbLine
 10
4.0
 20
6.0
 30
0.0
 11
4.0
 21
5.0
 31
0.0
  0
LINE
  5
2F2
330
1F
100
AcDbEntity
  8
Default
100
AcDbLine
 10
4.0
 20
4.0
 30
0.0
 11
4.0
 21
3.0
 31
0.0
  0
LINE
  5
2F3
330
1F
100
AcDbEntity
  8
Default
100
AcDbLine
 10
1.5
 20
7.0
 30
0.0
 11
1.5
 21
6.8
 31
0.0
  0
LINE
  5
2F4
330
1F
100
AcDbEntity
  8
Default
100
AcDbLine
 10
1.5
 20
6.800000000000001
 30
0.0
 11
2.5
 21
6.800000000000001
 31
0.0
  0
LINE
  5
2F5
330
1F
100
AcDbEntity
  8
Default
100
AcDbLine
 10
2.5
 20
6.800000000000001
 30
0.0
 11
2.5
 21
7.0
 31
0.0
  0
LINE
  5
2F6
330
1F
100
AcDbEntity
  8
Default
100
AcDbLine
 10
0.0
 20
8.5
 30
0.0
 11
0.2
 21
8.5
 31
0.0
  0
LINE
  5
2F7
330
1F
100
AcDbEntity
  8
Default
100
AcDbLine
 10
0.2
 20
8.5
 30
0.0
 11
0.2
 21
7.5
 31
0.0
  0
LINE
  5
2F8
330
1F
100
AcDbEntity
  8
Default
100
AcDbLine
 10
0.2
 20
7.5
 30
0.0
 11
0.0
 21
7.5
 31
0.0
  0
LINE
  5
2F9
330
1F
100
AcDbEntity
  8
Default
100
AcDbLine
 10
4.0
 20
8.5
 30
0.0
 11
3.8
 21
8.5
 31
0.0
  0
LINE
  5
2FA
330
1F
100
AcDbEntity
  8
Default
100
AcDbLine
 10
3.8
 20
8.5
 30
0.0
 11
3.8
 21
7.5
 31
0.0
  0
LINE
  5
2FB
330
1F
100
AcDbEntity
  8
Default
100
AcDbLine
 10
3.8
 20
7.5
 30
0.0
 11
4.0
 21
7.5
 31
0.0
  0
LINE
  5
2FC
330
1F
100
AcDbEntity
  8
Default
100
AcDbLine
 10
0.0
 20
7.0
 30
0.0
 11
0.0
 21
7.5
 31
0.0
  0
LINE
  5
2FD
330
1F
100
AcDbEntity
  8
Default
100
AcDbLine
 10
4.0
 20
7.5
 30
0.0
 11
4.0
 21
7.0
 31
0.0
  0
LINE
  5
2FE
330
1F
100
AcDbEntity
  8
Default
100
AcDbLine
 10
0.0
 20
7.0
 30
0.0
 11
1.5
 21
7.0
 31
0.0
  0
LINE
  5
2FF
330
1F
100
AcDbEntity
  8
Default
100
AcDbLine
 10
2.5
 20
7.0
 30
0.0
 11
4.0
 21
7.0
 31
0.0
  0
LINE
  5
300
330
1F
100
AcDbEntity
  8
Default
100
AcDbLine
 10
-2.1
 20
3.0
 30
0.0
 11
-2.6
 21
3.0
 31
0.0
  0
LINE
  5
301
330
1F
100
AcDbEntity
  8
Default
100
AcDbLine
 10
-0.5999999999999996
 20
3.0
 30
0.0
 11
-1.1
 21
3.0
 31
0.0
  0
LINE
  5
302
330
1F
100
AcDbEntity
  8
Default
100
AcDbLine
 10
-0.5999999999999996
 20
4.0
 30
0.0
 11
-0.5999999999999996
 21
3.0
 31
0.0
  0
LINE
  5
303
330
1F
100
AcDbEntity
  8
Default
100
AcDbLine
 10
-0.5999999999999996
 20
6.0
 30
0.0
 11
-0.5999999999999996
 21
5.0
 31
0.0
  0
LINE
  5
304
330
1F
100
AcDbEntity
  8
Default
100
AcDbLine
 10
-1.1
 20
6.0
 30
0.0
 11
-0.5999999999999996
 21
6.0
 31
0.0
  0
LINE
  5
305
330
1F
100
AcDbEntity
  8
Default
100
AcDbLine
 10
-2.6
 20
6.0
 30
0.0
 11
-2.1
 21
6.0
 31
0.0
  0
LINE
  5
306
330
1F
100
AcDbEntity
  8
Default
100
AcDbLine
 10
-0.3999999999999995
 20
4.0
 30
0.0
 11
-0.3999999999999995
 21
5.0
 31
0.0
  0
LINE
  5
307
330
1F
100
AcDbEntity
  8
Default
100
AcDbLine
 10
-0.5999999999999996
 20
4.0
 30
0.0
 11
-0.3999999999999995
 21
4.0
 31
0.0
  0
LINE
  5
308
330
1F
100
AcDbEntity
  8
Default
100
AcDbLine
 10
-0.5999999999999996
 20
5.0
 30
0.0
 11
-0.3999999999999995
 21
5.0
 31
0.0
  0
LINE
  5
309
330
1F
100
AcDbEntity
  8
Default
100
AcDbLine
 10
-2.799999999999999
 20
5.0
 30
0.0
 11
-2.799999999999999
 21
4.0
 31
0.0
  0
LINE
  5
30A
330
1F
100
AcDbEntity
  8
Default
100
AcDbLine
 10
-1.1
 20
2.8
 30
0.0
 11
-1.1
 21
3.0
 31
0.0
  0
LINE
  5
30B
330
1F
100
AcDbEntity
  8
Default
100
AcDbLine
 10
-2.1
 20
2.8
 30
0.0
 11
-1.1
 21
2.8
 31
0.0
  0
LINE
  5
30C
330
1F
100
AcDbEntity
  8
Default
100
AcDbLine
 10
-2.1
 20
3.0
 30
0.0
 11
-2.1
 21
2.8
 31
0.0
  0
LINE
  5
30D
330
1F
100
AcDbEntity
  8
Default
100
AcDbLine
 10
-1.1
 20
6.2
 30
0.0
 11
-1.1
 21
6.0
 31
0.0
  0
LINE
  5
30E
330
1F
100
AcDbEntity
  8
Default
100
AcDbLine
 10
-2.1
 20
6.2
 30
0.0
 11
-1.1
 21
6.2
 31
0.0
  0
LINE
  5
30F
330
1F
100
AcDbEntity
  8
Default
100
AcDbLine
 10
-2.1
 20
6.0
 30
0.0
 11
-2.1
 21
6.2
 31
0.0
  0
ENDSEC
  0
SECTION
  2
OBJECTS
  0
DICTIONARY
  5
C
330
0
100
AcDbDictionary
281
     1
  3
ACAD_DETAILVIEWSTYLE
350
34D
  3
ACAD_GROUP
350
D
  3
ACAD_LAYOUT
350
1A
  3
ACAD_MATERIAL
350
43
  3
ACAD_MLEADERSTYLE
350
34C
  3
ACAD_MLINESTYLE
350
17
  3
ACAD_PLOTSETTINGS
350
19
  3
ACAD_PLOTSTYLENAME
350
E
  3
ACAD_SCALELIST
350
47
  3
ACAD_SECTIONVIEWSTYLE
350
34E
  3
ACAD_TABLESTYLE
350
34B
  3
ACAD_VISUALSTYLE
350
2A
  3
AcDbVariableDictionary
350
312
  0
DICTIONARY
  5
310
330
8
100
AcDbDictionary
280
     1
281
     1
  3
ACAD_XREC_ROUNDTRIP
360
311
  0
DICTIONARY
  5
34D
102
{ACAD_REACTORS
330
C
102
}
330
C
100
AcDbDictionary
281
     1
  0
DICTIONARY
  5
D
102
{ACAD_REACTORS
330
C
102
}
330
C
100
AcDbDictionary
281
     1
  0
DICTIONARY
  5
1A
102
{ACAD_REACTORS
330
C
102
}
330
C
100
AcDbDictionary
281
     1
  3
Layout1
350
1E
  3
Layout2
350
26
  3
Model
350
22
  0
DICTIONARY
  5
43
102
{ACAD_REACTORS
330
C
102
}
330
C
100
AcDbDictionary
281
     1
  3
ByBlock
350
45
  3
ByLayer
350
44
  3
Global
350
46
  0
DICTIONARY
  5
34C
102
{ACAD_REACTORS
330
C
102
}
330
C
100
AcDbDictionary
281
     1
  0
DICTIONARY
  5
17
102
{ACAD_REACTORS
330
C
102
}
330
C
100
AcDbDictionary
281
     1
  3
Standard
350
18
  0
DICTIONARY
  5
19
102
{ACAD_REACTORS
330
C
102
}
330
C
100
AcDbDictionary
281
     1
  0
ACDBDICTIONARYWDFLT
  5
E
102
{ACAD_REACTORS
330
C
102
}
330
C
100
AcDbDictionary
281
     1
  3
Normal
350
F
100
AcDbDictionaryWithDefault
340
F
  0
DICTIONARY
  5
47
102
{ACAD_REACTORS
330
C
102
}
330
C
100
AcDbDictionary
281
     1
  3
A0
350
48
  3
A1
350
49
  3
A2
350
4A
  3
A3
350
4B
  3
A4
350
4C
  3
A5
350
4D
  3
A6
350
4E
  3
A7
350
4F
  3
A8
350
50
  3
A9
350
51
  3
B0
350
52
  3
B1
350
53
  3
B2
350
54
  3
B3
350
55
  3
B4
350
56
  3
B5
350
57
  3
B6
350
58
  3
B7
350
59
  3
B8
350
5A
  3
B9
350
5B
  3
C0
350
5C
  3
C1
350
5D
  3
C2
350
5E
  3
C3
350
5F
  3
C4
350
60
  3
C5
350
61
  3
C6
350
62
  3
C7
350
63
  3
C8
350
64
  3
C9
350
65
  3
D0
350
66
  3
D1
350
67
  3
D2
350
68
  0
DICTIONARY
  5
34E
102
{ACAD_REACTORS
330
C
102
}
330
C
100
AcDbDictionary
281
     1
  0
DICTIONARY
  5
34B
102
{ACAD_REACTORS
330
C
102
}
330
C
100
AcDbDictionary
281
     1
  0
DICTIONARY
  5
2A
102
{ACAD_REACTORS
330
C
102
}
330
C
100
AcDbDictionary
281
     1
  3
2dWireframe
350
2F
  3
Basic
350
32
  3
Brighten
350
36
  3
ColorChange
350
3A
  3
Conceptual
350
34
  3
Dim
350
35
  3
EdgeColorOff
350
3D
  3
Facepattern
350
39
  3
Flat
350
2B
  3
FlatWithEdges
350
2C
  3
Gouraud
350
2D
  3
GouraudWithEdges
350
2E
  3
Hidden
350
31
  3
JitterOff
350
3B
  3
Linepattern
350
38
  3
OverhangOff
350
3C
  3
Realistic
350
33
  3
Shaded
350
42
  3
Shaded with edges
350
41
  3
Shades of Gray
350
3E
  3
Sketchy
350
3F
  3
Thicken
350
37
  3
Wireframe
350
30
  3
X-Ray
350
40
  0
DICTIONARY
  5
312
102
{ACAD_REACTORS
330
C
102
}
330
C
100
AcDbDictionary
281
     1
  3
CANNOSCALE
350
313
  3
MSLTSCALE
350
314
  0
XRECORD
  5
311
102
{ACAD_REACTORS
330
310
102
}
330
310
100
AcDbXrecord
280
     1
102
VTR_0.000_0.000_1.000_1.000_GRIDDISPLAY
 70
     3
102
VTR_0.000_0.000_1.000_1.000_GRIDMAJOR
 70
     5
102
VTR_0.000_0.000_1.000_1.000_DEFAULTLIGHTING
280
     1
102
VTR_0.000_0.000_1.000_1.000_DEFAULTLIGHTINGTYPE
 70
     1
102
VTR_0.000_0.000_1.000_1.000_BRIGHTNESS
141
0.0
102
VTR_0.000_0.000_1.000_1.000_CONTRAST
142
0.0
  0
LAYOUT
  5
1E
102
{ACAD_REACTORS
330
1A
102
}
330
1A
100
AcDbPlotSettings
  1

  2
none_device
  4

  6

 40
0.0
 41
0.0
 42
0.0
 43
0.0
 44
0.0
 45
0.0
 46
0.0
 47
0.0
 48
0.0
 49
0.0
140
0.0
141
0.0
142
1.0
143
1.0
 70
   688
 72
     0
 73
     0
 74
     5
  7

 75
    16
 76
     0
 77
     2
 78
   300
147
1.0
148
0.0
149
0.0
100
AcDbLayout
  1
Layout1
 70
     1
 71
     1
 10
0.0
 20
0.0
 11
12.0
 21
9.0
 12
0.0
 22
0.0
 32
0.0
 14
1.000000000000000E+20
 24
1.000000000000000E+20
 34
1.000000000000000E+20
 15
-1.000000000000000E+20
 25
-1.000000000000000E+20
 35
-1.000000000000000E+20
146
0.0
 13
0.0
 23
0.0
 33
0.0
 16
1.0
 26
0.0
 36
0.0
 17
0.0
 27
1.0
 37
0.0
 76
     0
330
1B
  0
LAYOUT
  5
26
102
{ACAD_REACTORS
330
1A
102
}
330
1A
100
AcDbPlotSettings
  1

  2
none_device
  4

  6

 40
0.0
 41
0.0
 42
0.0
 43
0.0
 44
0.0
 45
0.0
 46
0.0
 47
0.0
 48
0.0
 49
0.0
140
0.0
141
0.0
142
1.0
143
1.0
 70
   688
 72
     0
 73
     0
 74
     5
  7

 75
    16
 76
     0
 77
     2
 78
   300
147
1.0
148
0.0
149
0.0
100
AcDbLayout
  1
Layout2
 70
     1
 71
     2
 10
0.0
 20
0.0
 11
0.0
 21
0.0
 12
0.0
 22
0.0
 32
0.0
 14
0.0
 24
0.0
 34
0.0
 15
0.0
 25
0.0
 35
0.0
146
0.0
 13
0.0
 23
0.0
 33
0.0
 16
1.0
 26
0.0
 36
0.0
 17
0.0
 27
1.0
 37
0.0
 76
     0
330
23
  0
LAYOUT
  5
22
102
{ACAD_REACTORS
330
1A
102
}
330
1A
100
AcDbPlotSettings
  1

  2
none_device
  4
Letter_(8.50_x_11.00_Inches)
  6

 40
6.35
 41
6.35
 42
6.35000508
 43
6.35000508
 44
215.9
 45
279.4
 46
0.0
 47
0.0
 48
0.0
 49
0.0
140
0.0
141
0.0
142
1.0
143
1.0
 70
  1712
 72
     0
 73
     0
 74
     0
  7

 75
     0
 76
     0
 77
     2
 78
   300
147
1.0
148
0.0
149
0.0
100
AcDbLayout
  1
Model
 70
     1
 71
     0
 10
0.0
 20
0.0
 11
12.0
 21
9.0
 12
0.0
 22
0.0
 32
0.0
 14
-2.899970529541013
 24
0.1999999999999993
 34
0.0
 15
12.205
 25
8.8
 35
0.0
146
0.0
 13
0.0
 23
0.0
 33
0.0
 16
1.0
 26
0.0
 36
0.0
 17
0.0
 27
1.0
 37
0.0
 76
     0
330
1F
331
29
  0
MATERIAL
  5
45
102
{ACAD_REACTORS
330
43
102
}
102
{ACAD_XDICTIONARY
360
347
102
}
330
43
100
AcDbMaterial
  1
ByBlock
  0
MATERIAL
  5
44
102
{ACAD_REACTORS
330
43
102
}
102
{ACAD_XDICTIONARY
360
345
102
}
330
43
100
AcDbMaterial
  1
ByLayer
  0
MATERIAL
  5
46
102
{ACAD_REACTORS
330
43
102
}
102
{ACAD_XDICTIONARY
360
349
102
}
330
43
100
AcDbMaterial
  1
Global
  0
MLINESTYLE
  5
18
102
{ACAD_REACTORS
330
17
102
}
330
17
100
AcDbMlineStyle
  2
Standard
 70
     0
  3

 62
   256
 51
90.0
 52
90.0
 71
     2
 49
0.5
 62
   256
  6
BYLAYER
 49
-0.5
 62
   256
  6
BYLAYER
  0
ACDBPLACEHOLDER
  5
F
102
{ACAD_REACTORS
330
E
102
}
330
E
  0
SCALE
  5
48
102
{ACAD_REACTORS
330
47
102
}
330
47
100
AcDbScale
 70
     0
300
1:1
140
1.0
141
1.0
290
     1
  0
SCALE
  5
49
102
{ACAD_REACTORS
330
47
102
}
330
47
100
AcDbScale
 70
     0
300
1:2
140
1.0
141
2.0
290
     0
  0
SCALE
  5
4A
102
{ACAD_REACTORS
330
47
102
}
330
47
100
AcDbScale
 70
     0
300
1:4
140
1.0
141
4.0
290
     0
  0
SCALE
  5
4B
102
{ACAD_REACTORS
330
47
102
}
330
47
100
AcDbScale
 70
     0
300
1:5
140
1.0
141
5.0
290
     0
  0
SCALE
  5
4C
102
{ACAD_REACTORS
330
47
102
}
330
47
100
AcDbScale
 70
     0
300
1:8
140
1.0
141
8.0
290
     0
  0
SCALE
  5
4D
102
{ACAD_REACTORS
330
47
102
}
330
47
100
AcDbScale
 70
     0
300
1:10
140
1.0
141
10.0
290
     0
  0
SCALE
  5
4E
102
{ACAD_REACTORS
330
47
102
}
330
47
100
AcDbScale
 70
     0
300
1:16
140
1.0
141
16.0
290
     0
  0
SCALE
  5
4F
102
{ACAD_REACTORS
330
47
102
}
330
47
100
AcDbScale
 70
     0
300
1:20
140
1.0
141
20.0
290
     0
  0
SCALE
  5
50
102
{ACAD_REACTORS
330
47
102
}
330
47
100
AcDbScale
 70
     0
300
1:30
140
1.0
141
30.0
290
     0
  0
SCALE
  5
51
102
{ACAD_REACTORS
330
47
102
}
330
47
100
AcDbScale
 70
     0
300
1:40
140
1.0
141
40.0
290
     0
  0
SCALE
  5
52
102
{ACAD_REACTORS
330
47
102
}
330
47
100
AcDbScale
 70
     0
300
1:50
140
1.0
141
50.0
290
     0
  0
SCALE
  5
53
102
{ACAD_REACTORS
330
47
102
}
330
47
100
AcDbScale
 70
     0
300
1:100
140
1.0
141
100.0
290
     0
  0
SCALE
  5
54
102
{ACAD_REACTORS
330
47
102
}
330
47
100
AcDbScale
 70
     0
300
2:1
140
2.0
141
1.0
290
     0
  0
SCALE
  5
55
102
{ACAD_REACTORS
330
47
102
}
330
47
100
AcDbScale
 70
     0
300
4:1
140
4.0
141
1.0
290
     0
  0
SCALE
  5
56
102
{ACAD_REACTORS
330
47
102
}
330
47
100
AcDbScale
 70
     0
300
8:1
140
8.0
141
1.0
290
     0
  0
SCALE
  5
57
102
{ACAD_REACTORS
330
47
102
}
330
47
100
AcDbScale
 70
     0
300
10:1
140
10.0
141
1.0
290
     0
  0
SCALE
  5
58
102
{ACAD_REACTORS
330
47
102
}
330
47
100
AcDbScale
 70
     0
300
100:1
140
100.0
141
1.0
290
     0
  0
SCALE
  5
59
102
{ACAD_REACTORS
330
47
102
}
330
47
100
AcDbScale
 70
     0
300
1/128" = 1'-0"
140
0.0078125
141
12.0
290
     0
  0
SCALE
  5
5A
102
{ACAD_REACTORS
330
47
102
}
330
47
100
AcDbScale
 70
     0
300
1/64" = 1'-0"
140
0.015625
141
12.0
290
     0
  0
SCALE
  5
5B
102
{ACAD_REACTORS
330
47
102
}
330
47
100
AcDbScale
 70
     0
300
1/32" = 1'-0"
140
0.03125
141
12.0
290
     0
  0
SCALE
  5
5C
102
{ACAD_REACTORS
330
47
102
}
330
47
100
AcDbScale
 70
     0
300
1/16" = 1'-0"
140
0.0625
141
12.0
290
     0
  0
SCALE
  5
5D
102
{ACAD_REACTORS
330
47
102
}
330
47
100
AcDbScale
 70
     0
300
3/32" = 1'-0"
140
0.09375
141
12.0
290
     0
  0
SCALE
  5
5E
102
{ACAD_REACTORS
330
47
102
}
330
47
100
AcDbScale
 70
     0
300
1/8" = 1'-0"
140
0.125
141
12.0
290
     0
  0
SCALE
  5
5F
102
{ACAD_REACTORS
330
47
102
}
330
47
100
AcDbScale
 70
     0
300
3/16" = 1'-0"
140
0.1875
141
12.0
290
     0
  0
SCALE
  5
60
102
{ACAD_REACTORS
330
47
102
}
330
47
100
AcDbScale
 70
     0
300
1/4" = 1'-0"
140
0.25
141
12.0
290
     0
  0
SCALE
  5
61
102
{ACAD_REACTORS
330
47
102
}
330
47
100
AcDbScale
 70
     0
300
3/8" = 1'-0"
140
0.375
141
12.0
290
     0
  0
SCALE
  5
62
102
{ACAD_REACTORS
330
47
102
}
330
47
100
AcDbScale
 70
     0
300
1/2" = 1'-0"
140
0.5
141
12.0
290
     0
  0
SCALE
  5
63
102
{ACAD_REACTORS
330
47
102
}
330
47
100
AcDbScale
 70
     0
300
3/4" = 1'-0"
140
0.75
141
12.0
290
     0
  0
SCALE
  5
64
102
{ACAD_REACTORS
330
47
102
}
330
47
100
AcDbScale
 70
     0
300
1" = 1'-0"
140
1.0
141
12.0
290
     0
  0
SCALE
  5
65
102
{ACAD_REACTORS
330
47
102
}
330
47
100
AcDbScale
 70
     0
300
1-1/2" = 1'-0"
140
1.5
141
12.0
290
     0
  0
SCALE
  5
66
102
{ACAD_REACTORS
330
47
102
}
330
47
100
AcDbScale
 70
     0
300
3" = 1'-0"
140
3.0
141
12.0
290
     0
  0
SCALE
  5
67
102
{ACAD_REACTORS
330
47
102
}
330
47
100
AcDbScale
 70
     0
300
6" = 1'-0"
140
6.0
141
12.0
290
     0
  0
SCALE
  5
68
102
{ACAD_REACTORS
330
47
102
}
330
47
100
AcDbScale
 70
     0
300
1'-0" = 1'-0"
140
12.0
141
12.0
290
     0
  0
VISUALSTYLE
  5
2F
102
{ACAD_REACTORS
330
2A
102
}
102
{ACAD_XDICTIONARY
360
31D
102
}
330
2A
100
AcDbVisualStyle
  2
2dWireframe
 70
     4
 71
     0
 72
     2
 73
     0
 90
        0
 40
0.6
 41
30.0
 62
     5
 63
     7
421
 16777215
 74
     1
 91
        4
 64
     7
 65
   257
 75
     1
175
     1
 42
1.0
 92
        0
 66
   257
 43
1.0
 76
     1
 77
     6
 78
     2
 67
     7
 79
     5
170
     0
171
     0
290
     0
174
     0
 93
        1
 44
0.0
173
     0
291
     0
 45
0.0
1001
ACAD
1000
AcDbSavedByObjectVersion
1070
     0
  0
VISUALSTYLE
  5
32
102
{ACAD_REACTORS
330
2A
102
}
102
{ACAD_XDICTIONARY
360
323
102
}
330
2A
100
AcDbVisualStyle
  2
Basic
 70
     7
 71
     1
 72
     0
 73
     1
 90
        0
 40
0.6
 41
30.0
 62
     5
 63
     7
421
 16777215
 74
     0
 91
        4
 64
     7
 65
   257
 75
     1
175
     1
 42
1.0
 92
        8
 66
     7
 43
1.0
 76
     1
 77
     6
 78
     2
 67
     7
 79
     5
170
     0
171
     0
290
     0
174
     0
 93
        1
 44
0.0
173
     0
291
     1
 45
0.0
1001
ACAD
1000
AcDbSavedByObjectVersion
1070
     0
  0
VISUALSTYLE
  5
36
102
{ACAD_REACTORS
330
2A
102
}
102
{ACAD_XDICTIONARY
360
32B
102
}
330
2A
100
AcDbVisualStyle
  2
Brighten
 70
    12
 71
     2
 72
     2
 73
     0
 90
        0
 40
0.6
 41
30.0
 62
     5
 63
     7
421
 16777215
 74
     1
 91
        4
 64
     7
 65
   257
 75
     1
175
     1
 42
1.0
 92
        8
 66
     7
 43
1.0
 76
     1
 77
     6
 78
     2
 67
     7
 79
     5
170
     0
171
     0
290
     0
174
     0
 93
        1
 44
50.0
173
     0
291
     1
 45
0.0
1001
ACAD
1000
AcDbSavedByObjectVersion
1070
     0
  0
VISUALSTYLE
  5
3A
102
{ACAD_REACTORS
330
2A
102
}
102
{ACAD_XDICTIONARY
360
333
102
}
330
2A
100
AcDbVisualStyle
  2
ColorChange
 70
    16
 71
     2
 72
     2
 73
     3
 90
        0
 40
0.6
 41
30.0
 62
     5
 63
     8
421
  8421504
 74
     1
 91
        4
 64
     7
 65
   257
 75
     1
175
     1
 42
1.0
 92
        8
 66
     8
424
  8421504
 43
1.0
 76
     1
 77
     6
 78
     2
 67
     7
 79
     5
170
     0
171
     0
290
     0
174
     0
 93
        1
 44
0.0
173
     0
291
     1
 45
0.0
1001
ACAD
1000
AcDbSavedByObjectVersion
1070
     0
  0
VISUALSTYLE
  5
34
102
{ACAD_REACTORS
330
2A
102
}
102
{ACAD_XDICTIONARY
360
327
102
}
330
2A
100
AcDbVisualStyle
  2
Conceptual
 70
     9
 71
     3
 72
     2
 73
     0
 90
        0
 40
0.6
 41
30.0
 62
     5
 63
     7
421
 16777215
 74
     2
 91
        2
 64
     7
 65
   257
 75
     1
175
     1
 42
179.0
 92
        8
 66
     7
 43
1.0
 76
     1
 77
     6
 78
     2
 67
     7
 79
     3
170
     0
171
     0
290
     0
174
     0
 93
        1
 44
0.0
173
     0
291
     0
 45
0.0
1001
ACAD
1000
AcDbSavedByObjectVersion
1070
     0
  0
VISUALSTYLE
  5
35
102
{ACAD_REACTORS
330
2A
102
}
102
{ACAD_XDICTIONARY
360
329
102
}
330
2A
100
AcDbVisualStyle
  2
Dim
 70
    11
 71
     2
 72
     2
 73
     0
 90
        0
 40
0.6
 41
30.0
 62
     5
 63
     7
421
 16777215
 74
     1
 91
        4
 64
     7
 65
   257
 75
     1
175
     1
 42
1.0
 92
        8
 66
     7
 43
1.0
 76
     1
 77
     6
 78
     2
 67
     7
 79
     5
170
     0
171
     0
290
     0
174
     0
 93
        1
 44
-50.0
173
     0
291
     1
 45
0.0
1001
ACAD
1000
AcDbSavedByObjectVersion
1070
     0
  0
VISUALSTYLE
  5
3D
102
{ACAD_REACTORS
330
2A
102
}
102
{ACAD_XDICTIONARY
360
339
102
}
330
2A
100
AcDbVisualStyle
  2
EdgeColorOff
 70
    22
 71
     2
 72
     2
 73
     0
 90
        0
 40
0.6
 41
30.0
 62
     5
 63
     7
421
 16777215
 74
     1
 91
        4
 64
     7
 65
   257
 75
     1
175
     1
 42
1.0
 92
        8
 66
     7
 43
1.0
 76
     1
 77
     6
 78
     2
 67
     7
 79
     5
170
     0
171
     0
290
     0
174
     0
 93
        1
 44
0.0
173
     0
291
     1
 45
0.0
1001
ACAD
1000
AcDbSavedByObjectVersion
1070
     0
  0
VISUALSTYLE
  5
39
102
{ACAD_REACTORS
330
2A
102
}
102
{ACAD_XDICTIONARY
360
331
102
}
330
2A
100
AcDbVisualStyle
  2
Facepattern
 70
    15
 71
     2
 72
     2
 73
     0
 90
        0
 40
0.6
 41
30.0
 62
     5
 63
     7
421
 16777215
 74
     1
 91
        4
 64
     7
 65
   257
 75
     1
175
     1
 42
1.0
 92
        8
 66
     7
 43
1.0
 76
     1
 77
     6
 78
     2
 67
     7
 79
     5
170
     0
171
     0
290
     0
174
     0
 93
        1
 44
0.0
173
     0
291
     1
 45
0.0
1001
ACAD
1000
AcDbSavedByObjectVersion
1070
     0
  0
VISUALSTYLE
  5
2B
102
{ACAD_REACTORS
330
2A
102
}
102
{ACAD_XDICTIONARY
360
315
102
}
330
2A
100
AcDbVisualStyle
  2
Flat
 70
     0
 71
     2
 72
     1
 73
     1
 90
        2
 40
0.6
 41
30.0
 62
     5
 63
     7
421
 16777215
 74
     0
 91
        0
 64
     7
 65
   257
 75
     1
175
     1
 42
1.0
 92
        8
 66
     7
 43
1.0
 76
     1
 77
     6
 78
     2
 67
     7
 79
     5
170
     0
171
     0
290
     0
174
     0
 93
       13
 44
0.0
173
     0
291
     1
 45
0.0
1001
ACAD
1000
AcDbSavedByObjectVersion
1070
     0
  0
VISUALSTYLE
  5
2C
102
{ACAD_REACTORS
330
2A
102
}
102
{ACAD_XDICTIONARY
360
317
102
}
330
2A
100
AcDbVisualStyle
  2
FlatWithEdges
 70
     1
 71
     2
 72
     1
 73
     1
 90
        2
 40
0.6
 41
30.0
 62
     5
 63
     7
421
 16777215
 74
     1
 91
        0
 64
     7
 65
   257
 75
     1
175
     1
 42
1.0
 92
        0
 66
   257
 43
1.0
 76
     1
 77
     6
 78
     2
 67
     7
 79
     5
170
     0
171
     0
290
     0
174
     0
 93
       13
 44
0.0
173
     0
291
     1
 45
0.0
1001
ACAD
1000
AcDbSavedByObjectVersion
1070
     0
  0
VISUALSTYLE
  5
2D
102
{ACAD_REACTORS
330
2A
102
}
102
{ACAD_XDICTIONARY
360
319
102
}
330
2A
100
AcDbVisualStyle
  2
Gouraud
 70
     2
 71
     2
 72
     2
 73
     1
 90
        2
 40
0.6
 41
30.0
 62
     5
 63
     7
421
 16777215
 74
     0
 91
        0
 64
     7
 65
   257
 75
     1
175
     1
 42
1.0
 92
        0
 66
     7
 43
1.0
 76
     1
 77
     6
 78
     2
 67
     7
 79
     5
170
     0
171
     0
290
     0
174
     0
 93
       13
 44
0.0
173
     0
291
     1
 45
0.0
1001
ACAD
1000
AcDbSavedByObjectVersion
1070
     0
  0
VISUALSTYLE
  5
2E
102
{ACAD_REACTORS
330
2A
102
}
102
{ACAD_XDICTIONARY
360
31B
102
}
330
2A
100
AcDbVisualStyle
  2
GouraudWithEdges
 70
     3
 71
     2
 72
     2
 73
     1
 90
        2
 40
0.6
 41
30.0
 62
     5
 63
     7
421
 16777215
 74
     1
 91
        0
 64
     7
 65
   257
 75
     1
175
     1
 42
1.0
 92
        0
 66
   257
 43
1.0
 76
     1
 77
     6
 78
     2
 67
     7
 79
     5
170
     0
171
     0
290
     0
174
     0
 93
       13
 44
0.0
173
     0
291
     1
 45
0.0
1001
ACAD
1000
AcDbSavedByObjectVersion
1070
     0
  0
VISUALSTYLE
  5
31
102
{ACAD_REACTORS
330
2A
102
}
102
{ACAD_XDICTIONARY
360
321
102
}
330
2A
100
AcDbVisualStyle
  2
Hidden
 70
     6
 71
     1
 72
     2
 73
     2
 90
        0
 40
0.6
 41
30.0
 62
     5
 63
     7
421
 16777215
 74
     2
 91
        2
 64
     7
 65
   257
 75
     2
175
     1
 42
40.0
 92
        0
 66
   257
 43
1.0
 76
     1
 77
     6
 78
     2
 67
     7
 79
     3
170
     0
171
     0
290
     0
174
     0
 93
        1
 44
0.0
173
     0
291
     0
 45
0.0
1001
ACAD
1000
AcDbSavedByObjectVersion
1070
     0
  0
VISUALSTYLE
  5
3B
102
{ACAD_REACTORS
330
2A
102
}
102
{ACAD_XDICTIONARY
360
335
102
}
330
2A
100
AcDbVisualStyle
  2
JitterOff
 70
    20
 71
     2
 72
     2
 73
     0
 90
        0
 40
0.6
 41
30.0
 62
     5
 63
     7
421
 16777215
 74
     1
 91
        4
 64
     7
 65
   257
 75
     1
175
     1
 42
1.0
 92
       10
 66
     7
 43
1.0
 76
     1
 77
     6
 78
     2
 67
     7
 79
     5
170
     0
171
     0
290
     0
174
     0
 93
        1
 44
0.0
173
     0
291
     1
 45
0.0
1001
ACAD
1000
AcDbSavedByObjectVersion
1070
     0
  0
VISUALSTYLE
  5
38
102
{ACAD_REACTORS
330
2A
102
}
102
{ACAD_XDICTIONARY
360
32F
102
}
330
2A
100
AcDbVisualStyle
  2
Linepattern
 70
    14
 71
     2
 72
     2
 73
     0
 90
        0
 40
0.6
 41
30.0
 62
     5
 63
     7
421
 16777215
 74
     1
 91
        4
 64
     7
 65
   257
 75
     7
175
     7
 42
1.0
 92
        8
 66
     7
 43
1.0
 76
     1
 77
     6
 78
     2
 67
     7
 79
     5
170
     0
171
     0
290
     0
174
     0
 93
        1
 44
0.0
173
     0
291
     1
 45
0.0
1001
ACAD
1000
AcDbSavedByObjectVersion
1070
     0
  0
VISUALSTYLE
  5
3C
102
{ACAD_REACTORS
330
2A
102
}
102
{ACAD_XDICTIONARY
360
337
102
}
330
2A
100
AcDbVisualStyle
  2
OverhangOff
 70
    21
 71
     2
 72
     2
 73
     0
 90
        0
 40
0.6
 41
30.0
 62
     5
 63
     7
421
 16777215
 74
     1
 91
        4
 64
     7
 65
   257
 75
     1
175
     1
 42
1.0
 92
        9
 66
     7
 43
1.0
 76
     1
 77
     6
 78
     2
 67
     7
 79
     5
170
     0
171
     0
290
     0
174
     0
 93
        1
 44
0.0
173
     0
291
     1
 45
0.0
1001
ACAD
1000
AcDbSavedByObjectVersion
1070
     0
  0
VISUALSTYLE
  5
33
102
{ACAD_REACTORS
330
2A
102
}
102
{ACAD_XDICTIONARY
360
325
102
}
330
2A
100
AcDbVisualStyle
  2
Realistic
 70
     8
 71
     2
 72
     3
 73
     0
 90
        2
 40
0.6
 41
30.0
 62
     5
 63
     7
421
 16777215
 74
     0
 91
        0
 64
     7
 65
   257
 75
     1
175
     1
 42
1.0
 92
        8
 66
   257
 43
1.0
 76
     1
 77
     6
 78
     2
 67
     7
 79
     3
170
     0
171
     0
290
     0
174
     0
 93
       13
 44
0.0
173
     0
291
     0
 45
0.0
1001
ACAD
1000
AcDbSavedByObjectVersion
1070
     0
  0
VISUALSTYLE
  5
42
102
{ACAD_REACTORS
330
2A
102
}
102
{ACAD_XDICTIONARY
360
343
102
}
330
2A
100
AcDbVisualStyle
  2
Shaded
 70
    27
 71
     2
 72
     2
 73
     1
 90
        2
 40
0.6
 41
30.0
 62
     5
 63
     7
421
 16777215
 74
     0
 91
        4
 64
     7
 65
   257
 75
     1
175
     1
 42
1.0
 92
        8
 66
   257
 43
1.0
 76
     1
 77
     6
 78
     2
 67
     8
425
  7895160
 79
     3
170
     0
171
     0
290
     0
174
     0
 93
        5
 44
0.0
173
     0
291
     0
 45
0.0
1001
ACAD
1000
AcDbSavedByObjectVersion
1070
     0
  0
VISUALSTYLE
  5
41
102
{ACAD_REACTORS
330
2A
102
}
102
{ACAD_XDICTIONARY
360
341
102
}
330
2A
100
AcDbVisualStyle
  2
Shaded with edges
 70
    26
 71
     2
 72
     2
 73
     1
 90
        2
 40
0.6
 41
30.0
 62
     5
 63
     7
421
 16777215
 74
     1
 91
       10
 64
     7
 65
   257
 75
     2
175
     1
 42
1.0
 92
        8
 66
   257
 43
1.0
 76
     1
 77
     6
 78
     2
 67
     7
 79
     3
170
     0
171
     0
290
     0
174
     0
 93
        5
 44
0.0
173
     0
291
     0
 45
0.0
1001
ACAD
1000
AcDbSavedByObjectVersion
1070
     0
  0
VISUALSTYLE
  5
3E
102
{ACAD_REACTORS
330
2A
102
}
102
{ACAD_XDICTIONARY
360
33B
102
}
330
2A
100
AcDbVisualStyle
  2
Shades of Gray
 70
    23
 71
     2
 72
     2
 73
     3
 90
        0
 40
0.6
 41
30.0
 62
     5
 63
     7
421
 16777215
 74
     2
 91
        2
 64
     7
 65
     7
 75
     1
175
     1
 42
40.0
 92
        8
 66
     7
 43
1.0
 76
     1
 77
     6
 78
     2
 67
     7
 79
     3
170
     0
171
     0
290
     0
174
     0
 93
        1
 44
0.0
173
     0
291
     0
 45
0.0
1001
ACAD
1000
AcDbSavedByObjectVersion
1070
     0
  0
VISUALSTYLE
  5
3F
102
{ACAD_REACTORS
330
2A
102
}
102
{ACAD_XDICTIONARY
360
33D
102
}
330
2A
100
AcDbVisualStyle
  2
Sketchy
 70
    24
 71
     1
 72
     2
 73
     2
 90
        0
 40
0.6
 41
30.0
 62
     5
 63
     7
421
 16777215
 74
     2
 91
        2
 64
     7
 65
     7
 75
     1
175
     1
 42
40.0
 92
       11
 66
     7
 43
1.0
 76
     1
 77
     6
 78
     2
 67
     7
 79
     6
170
     0
171
     0
290
     0
174
     0
 93
        1
 44
0.0
173
     0
291
     0
 45
0.0
1001
ACAD
1000
AcDbSavedByObjectVersion
1070
     0
  0
VISUALSTYLE
  5
37
102
{ACAD_REACTORS
330
2A
102
}
102
{ACAD_XDICTIONARY
360
32D
102
}
330
2A
100
AcDbVisualStyle
  2
Thicken
 70
    13
 71
     2
 72
     2
 73
     0
 90
        0
 40
0.6
 41
30.0
 62
     5
 63
     7
421
 16777215
 74
     1
 91
        4
 64
     7
 65
   257
 75
     1
175
     1
 42
1.0
 92
       12
 66
     7
 43
1.0
 76
     1
 77
     6
 78
     2
 67
     7
 79
     5
170
     0
171
     0
290
     0
174
     0
 93
        1
 44
0.0
173
     0
291
     1
 45
0.0
1001
ACAD
1000
AcDbSavedByObjectVersion
1070
     0
  0
VISUALSTYLE
  5
30
102
{ACAD_REACTORS
330
2A
102
}
102
{ACAD_XDICTIONARY
360
31F
102
}
330
2A
100
AcDbVisualStyle
  2
Wireframe
 70
     5
 71
     0
 72
     2
 73
     0
 90
        0
 40
0.6
 41
30.0
 62
     5
 63
     7
421
 16777215
 74
     1
 91
        4
 64
     7
 65
   257
 75
     1
175
     1
 42
1.0
 92
        0
 66
   257
 43
1.0
 76
     1
 77
     6
 78
     2
 67
     7
 79
     3
170
     0
171
     0
290
     0
174
     0
 93
        1
 44
0.0
173
     0
291
     0
 45
0.0
1001
ACAD
1000
AcDbSavedByObjectVersion
1070
     0
  0
VISUALSTYLE
  5
40
102
{ACAD_REACTORS
330
2A
102
}
102
{ACAD_XDICTIONARY
360
33F
102
}
330
2A
100
AcDbVisualStyle
  2
X-Ray
 70
    25
 71
     2
 72
     2
 73
     1
 90
        1
 40
0.5
 41
30.0
 62
     5
 63
     7
421
 16777215
 74
     1
 91
        0
 64
     7
 65
   257
 75
     1
175
     1
 42
1.0
 92
        8
 66
     7
 43
1.0
 76
     1
 77
     6
 78
     2
 67
     7
 79
     3
170
     0
171
     0
290
     0
174
     0
 93
       13
 44
0.0
173
     0
291
     0
 45
0.0
1001
ACAD
1000
AcDbSavedByObjectVersion
1070
     0
  0
DICTIONARYVAR
  5
313
102
{ACAD_REACTORS
330
312
102
}
330
312
100
DictionaryVariables
280
     0
  1
1:1
  0
DICTIONARYVAR
  5
314
102
{ACAD_REACTORS
330
312
102
}
330
312
100
DictionaryVariables
280
     0
  1
1
  0
DICTIONARY
  5
347
330
45
100
AcDbDictionary
280
     1
281
     1
  3
ACAD_XREC_ROUNDTRIP
360
348
  0
DICTIONARY
  5
345
330
44
100
AcDbDictionary
280
     1
281
     1
  3
ACAD_XREC_ROUNDTRIP
360
346
  0
DICTIONARY
  5
349
330
46
100
AcDbDictionary
280
     1
281
     1
  3
ACAD_XREC_ROUNDTRIP
360
34A
  0
DICTIONARY
  5
31D
330
2F
100
AcDbDictionary
280
     1
281
     1
  3
ACAD_XREC_ROUNDTRIP
360
31E
  0
DICTIONARY
  5
323
330
32
100
AcDbDictionary
280
     1
281
     1
  3
ACAD_XREC_ROUNDTRIP
360
324
  0
DICTIONARY
  5
32B
330
36
100
AcDbDictionary
280
     1
281
     1
  3
ACAD_XREC_ROUNDTRIP
360
32C
  0
DICTIONARY
  5
333
330
3A
100
AcDbDictionary
280
     1
281
     1
  3
ACAD_XREC_ROUNDTRIP
360
334
  0
DICTIONARY
  5
327
330
34
100
AcDbDictionary
280
     1
281
     1
  3
ACAD_XREC_ROUNDTRIP
360
328
  0
DICTIONARY
  5
329
330
35
100
AcDbDictionary
280
     1
281
     1
  3
ACAD_XREC_ROUNDTRIP
360
32A
  0
DICTIONARY
  5
339
330
3D
100
AcDbDictionary
280
     1
281
     1
  3
ACAD_XREC_ROUNDTRIP
360
33A
  0
DICTIONARY
  5
331
330
39
100
AcDbDictionary
280
     1
281
     1
  3
ACAD_XREC_ROUNDTRIP
360
332
  0
DICTIONARY
  5
315
330
2B
100
AcDbDictionary
280
     1
281
     1
  3
ACAD_XREC_ROUNDTRIP
360
316
  0
DICTIONARY
  5
317
330
2C
100
AcDbDictionary
280
     1
281
     1
  3
ACAD_XREC_ROUNDTRIP
360
318
  0
DICTIONARY
  5
319
330
2D
100
AcDbDictionary
280
     1
281
     1
  3
ACAD_XREC_ROUNDTRIP
360
31A
  0
DICTIONARY
  5
31B
330
2E
100
AcDbDictionary
280
     1
281
     1
  3
ACAD_XREC_ROUNDTRIP
360
31C
  0
DICTIONARY
  5
321
330
31
100
AcDbDictionary
280
     1
281
     1
  3
ACAD_XREC_ROUNDTRIP
360
322
  0
DICTIONARY
  5
335
330
3B
100
AcDbDictionary
280
     1
281
     1
  3
ACAD_XREC_ROUNDTRIP
360
336
  0
DICTIONARY
  5
32F
330
38
100
AcDbDictionary
280
     1
281
     1
  3
ACAD_XREC_ROUNDTRIP
360
330
  0
DICTIONARY
  5
337
330
3C
100
AcDbDictionary
280
     1
281
     1
  3
ACAD_XREC_ROUNDTRIP
360
338
  0
DICTIONARY
  5
325
330
33
100
AcDbDictionary
280
     1
281
     1
  3
ACAD_XREC_ROUNDTRIP
360
326
  0
DICTIONARY
  5
343
330
42
100
AcDbDictionary
280
     1
281
     1
  3
ACAD_XREC_ROUNDTRIP
360
344
  0
DICTIONARY
  5
341
330
41
100
AcDbDictionary
280
     1
281
     1
  3
ACAD_XREC_ROUNDTRIP
360
342
  0
DICTIONARY
  5
33B
330
3E
100
AcDbDictionary
280
     1
281
     1
  3
ACAD_XREC_ROUNDTRIP
360
33C
  0
DICTIONARY
  5
33D
330
3F
100
AcDbDictionary
280
     1
281
     1
  3
ACAD_XREC_ROUNDTRIP
360
33E
  0
DICTIONARY
  5
32D
330
37
100
AcDbDictionary
280
     1
281
     1
  3
ACAD_XREC_ROUNDTRIP
360
32E
  0
DICTIONARY
  5
31F
330
30
100
AcDbDictionary
280
     1
281
     1
  3
ACAD_XREC_ROUNDTRIP
360
320
  0
DICTIONARY
  5
33F
330
40
100
AcDbDictionary
280
     1
281
     1
  3
ACAD_XREC_ROUNDTRIP
360
340
  0
XRECORD
  5
348
102
{ACAD_REACTORS
330
347
102
}
330
347
100
AcDbXrecord
280
     1
102
MATERIAL
148
0.0
149
0.0
149
0.0
 93
        0
 94
      127
282
     0
 72
     1
 77
     1
171
     1
175
     1
179
     1
273
     0
  0
XRECORD
  5
346
102
{ACAD_REACTORS
330
345
102
}
330
345
100
AcDbXrecord
280
     1
102
MATERIAL
148
0.0
149
0.0
149
0.0
 93
        0
 94
      127
282
     0
 72
     1
 77
     1
171
     1
175
     1
179
     1
273
     0
  0
XRECORD
  5
34A
102
{ACAD_REACTORS
330
349
102
}
330
349
100
AcDbXrecord
280
     1
102
MATERIAL
148
0.0
149
0.0
149
0.0
 93
        0
 94
      127
282
     0
 72
     1
 77
     1
171
     1
175
     1
179
     1
273
     0
  0
XRECORD
  5
31E
102
{ACAD_REACTORS
330
31D
102
}
330
31D
100
AcDbXrecord
280
     1
102
RTVSPropertyOp0
 70
     1
102
RTVSPropertyOp1
 70
     1
102
RTVSPropertyOp2
 70
     1
102
RTVSPropertyOp3
 70
     1
102
RTVSPropertyOp4
 70
     1
102
RTVSPropertyOp5
 70
     1
102
RTVSPropertyOp6
 70
     1
102
RTVSPropertyOp7
 70
     1
102
RTVSPropertyOp8
 70
     1
102
RTVSPropertyOp9
 70
     1
102
RTVSPropertyOp10
 70
     1
102
RTVSPropertyOp11
 70
     1
102
RTVSPropertyOp12
 70
     1
102
RTVSPropertyOp13
 70
     1
102
RTVSPropertyOp14
 70
     1
102
RTVSPropertyOp15
 70
     1
102
RTVSPropertyOp16
 70
     1
102
RTVSPropertyOp17
 70
     1
102
RTVSPropertyOp18
 70
     1
102
RTVSPropertyOp19
 70
     1
102
RTVSPropertyOp20
 70
     1
102
RTVSPropertyOp21
 70
     1
102
RTVSPropertyOp22
 70
     1
102
RTVSPropertyOp23
 70
     1
102
RTVSPropertyOp24
 70
     1
102
RTVSPropertyOp25
 70
     1
102
RTVSPropertyOp26
 70
     1
102
RTVSPropertyOp27
 70
     1
102
RTVSPropertyOp28
 70
     1
102
RTVSPropertyOp29
 70
     1
102
RTVSPropertyOp30
 70
     1
102
RTVSPropertyOp31
 70
     1
102
RTVSPropertyOp32
 70
     1
102
RTVSPropertyOp33
 70
     1
102
RTVSPropertyOp34
 70
     1
102
RTVSPropertyOp35
 70
     1
102
RTVSPropertyOp36
 70
     1
102
RTVSPropertyOp37
 70
     1
102
RTVSPropertyOp38
 70
     1
102
RTVSPropertyOp39
 70
     1
102
RTVSPropertyOp40
 70
     1
102
RTVSPropertyOp41
 70
     1
102
RTVSPropertyOp42
 70
     1
102
RTVSPropertyOp43
 70
     1
102
RTVSPropertyOp44
 70
     1
102
RTVSPropertyOp45
 70
     1
102
RTVSPropertyOp46
 70
     1
102
RTVSPropertyOp47
 70
     1
102
RTVSPropertyOp48
 70
     1
102
RTVSPropertyOp49
 70
     1
102
RTVSPropertyOp50
 70
     1
102
RTVSPropertyOp51
 70
     0
102
RTVSPropertyOp52
 70
     0
102
RTVSPropertyOp53
 70
     1
102
RTVSPropertyOp54
 70
     1
102
RTVSPropertyOp55
 70
     1
102
RTVSPropertyOp56
 70
     1
102
RTVSPropertyOp57
 70
     1
102
RTVSPost2010Prop28
280
     1
102
RTVSPost2010PropOp28
 70
     1
102
RTVSPost2010Prop29
280
     1
102
RTVSPost2010PropOp29
 70
     1
102
RTVSPost2010Prop30
280
     0
102
RTVSPost2010PropOp30
 70
     1
102
RTVSPost2010Prop31
280
     0
102
RTVSPost2010PropOp31
 70
     1
102
RTVSPost2010Prop32
280
     0
102
RTVSPost2010PropOp32
 70
     1
102
RTVSPost2010Prop33
280
     0
102
RTVSPost2010PropOp33
 70
     1
102
RTVSPost2010Prop34
280
     0
102
RTVSPost2010PropOp34
 70
     1
102
RTVSPost2010Prop35
280
     0
102
RTVSPost2010PropOp35
 70
     1
102
RTVSPost2010Prop36
280
     0
102
RTVSPost2010PropOp36
 70
     1
102
RTVSPost2010Prop37
 90
       50
102
RTVSPost2010PropOp37
 70
     1
102
RTVSPost2010Prop38
140
0.0
102
RTVSPost2010PropOp38
 70
     1
102
RTVSPost2010Prop39
140
1.0
102
RTVSPost2010PropOp39
 70
     1
102
RTVSPost2010Prop40
 90
        0
102
RTVSPost2010PropOp40
 70
     1
102
RTVSPost2010Prop41ColorIndex
 90
      178
102
RTVSPost2010Prop41ColorRGB
 90
        0
102
RTVSPost2010PropOp41
 70
     1
102
RTVSPost2010Prop42
 90
       50
102
RTVSPost2010PropOp42
 70
     1
102
RTVSPost2010Prop43
 90
        3
102
RTVSPost2010PropOp43
 70
     1
102
RTVSPost2010Prop44ColorIndex
 90
        5
102
RTVSPost2010Prop44ColorRGB
 90
      255
102
RTVSPost2010PropOp44
 70
     1
102
RTVSPost2010Prop45
280
     0
102
RTVSPost2010PropOp45
 70
     1
102
RTVSPost2010Prop46
 90
       50
102
RTVSPost2010PropOp46
 70
     1
102
RTVSPost2010Prop47
 90
       50
102
RTVSPost2010PropOp47
 70
     1
102
RTVSPost2010Prop48
 90
       50
102
RTVSPost2010PropOp48
 70
     1
102
RTVSPost2010Prop49
280
     0
102
RTVSPost2010PropOp49
 70
     1
102
RTVSPost2010Prop50
 90
       50
102
RTVSPost2010PropOp50
 70
     1
102
RTVSPost2010Prop51ColorIndex
 90
      256
102
RTVSPost2010Prop51ColorRGB
 90
-16777216
102
RTVSPost2010PropOp51
 70
     0
102
RTVSPost2010Prop52
140
1.0
102
RTVSPost2010PropOp52
 70
     0
102
RTVSPost2010Prop53
 90
        2
102
RTVSPost2010PropOp53
 70
     1
102
RTVSPost2010Prop54
  1
strokes_ogs.tif
102
RTVSPost2010PropOp54
 70
     1
102
RTVSPost2010Prop55
280
     0
102
RTVSPost2010PropOp55
 70
     1
102
RTVSPost2010Prop56
140
1.0
102
RTVSPost2010PropOp56
 70
     1
102
RTVSPost2010Prop57
140
1.0
102
RTVSPost2010PropOp57
 70
     1
  0
XRECORD
  5
324
102
{ACAD_REACTORS
330
323
102
}
330
323
100
AcDbXrecord
280
     1
102
RTVSPropertyOp0
 70
     1
102
RTVSPropertyOp1
 70
     1
102
RTVSPropertyOp2
 70
     1
102
RTVSPropertyOp3
 70
     1
102
RTVSPropertyOp4
 70
     1
102
RTVSPropertyOp5
 70
     1
102
RTVSPropertyOp6
 70
     1
102
RTVSPropertyOp7
 70
     1
102
RTVSPropertyOp8
 70
     1
102
RTVSPropertyOp9
 70
     1
102
RTVSPropertyOp10
 70
     1
102
RTVSPropertyOp11
 70
     1
102
RTVSPropertyOp12
 70
     1
102
RTVSPropertyOp13
 70
     1
102
RTVSPropertyOp14
 70
     1
102
RTVSPropertyOp15
 70
     1
102
RTVSPropertyOp16
 70
     1
102
RTVSPropertyOp17
 70
     1
102
RTVSPropertyOp18
 70
     1
102
RTVSPropertyOp19
 70
     1
102
RTVSPropertyOp20
 70
     1
102
RTVSPropertyOp21
 70
     1
102
RTVSPropertyOp22
 70
     1
102
RTVSPropertyOp23
 70
     1
102
RTVSPropertyOp24
 70
     1
102
RTVSPropertyOp25
 70
     1
102
RTVSPropertyOp26
 70
     1
102
RTVSPropertyOp27
 70
     1
102
RTVSPropertyOp28
 70
     1
102
RTVSPropertyOp29
 70
     1
102
RTVSPropertyOp30
 70
     1
102
RTVSPropertyOp31
 70
     1
102
RTVSPropertyOp32
 70
     1
102
RTVSPropertyOp33
 70
     1
102
RTVSPropertyOp34
 70
     1
102
RTVSPropertyOp35
 70
     1
102
RTVSPropertyOp36
 70
     1
102
RTVSPropertyOp37
 70
     1
102
RTVSPropertyOp38
 70
     1
102
RTVSPropertyOp39
 70
     1
102
RTVSPropertyOp40
 70
     1
102
RTVSPropertyOp41
 70
     1
102
RTVSPropertyOp42
 70
     1
102
RTVSPropertyOp43
 70
     1
102
RTVSPropertyOp44
 70
     1
102
RTVSPropertyOp45
 70
     1
102
RTVSPropertyOp46
 70
     1
102
RTVSPropertyOp47
 70
     1
102
RTVSPropertyOp48
 70
     1
102
RTVSPropertyOp49
 70
     1
102
RTVSPropertyOp50
 70
     1
102
RTVSPropertyOp51
 70
     0
102
RTVSPropertyOp52
 70
     0
102
RTVSPropertyOp53
 70
     1
102
RTVSPropertyOp54
 70
     1
102
RTVSPropertyOp55
 70
     1
102
RTVSPropertyOp56
 70
     1
102
RTVSPropertyOp57
 70
     1
102
RTVSPost2010Prop28
280
     0
102
RTVSPost2010PropOp28
 70
     1
102
RTVSPost2010Prop29
280
     1
102
RTVSPost2010PropOp29
 70
     1
102
RTVSPost2010Prop30
280
     1
102
RTVSPost2010PropOp30
 70
     1
102
RTVSPost2010Prop31
280
     0
102
RTVSPost2010PropOp31
 70
     1
102
RTVSPost2010Prop32
280
     0
102
RTVSPost2010PropOp32
 70
     1
102
RTVSPost2010Prop33
280
     0
102
RTVSPost2010PropOp33
 70
     1
102
RTVSPost2010Prop34
280
     0
102
RTVSPost2010PropOp34
 70
     1
102
RTVSPost2010Prop35
280
     0
102
RTVSPost2010PropOp35
 70
     1
102
RTVSPost2010Prop36
280
     0
102
RTVSPost2010PropOp36
 70
     1
102
RTVSPost2010Prop37
 90
       50
102
RTVSPost2010PropOp37
 70
     1
102
RTVSPost2010Prop38
140
0.0
102
RTVSPost2010PropOp38
 70
     1
102
RTVSPost2010Prop39
140
1.0
102
RTVSPost2010PropOp39
 70
     1
102
RTVSPost2010Prop40
 90
        0
102
RTVSPost2010PropOp40
 70
     1
102
RTVSPost2010Prop41ColorIndex
 90
      178
102
RTVSPost2010Prop41ColorRGB
 90
        0
102
RTVSPost2010PropOp41
 70
     1
102
RTVSPost2010Prop42
 90
       50
102
RTVSPost2010PropOp42
 70
     1
102
RTVSPost2010Prop43
 90
        3
102
RTVSPost2010PropOp43
 70
     1
102
RTVSPost2010Prop44ColorIndex
 90
        5
102
RTVSPost2010Prop44ColorRGB
 90
      255
102
RTVSPost2010PropOp44
 70
     1
102
RTVSPost2010Prop45
280
     0
102
RTVSPost2010PropOp45
 70
     1
102
RTVSPost2010Prop46
 90
       50
102
RTVSPost2010PropOp46
 70
     1
102
RTVSPost2010Prop47
 90
       50
102
RTVSPost2010PropOp47
 70
     1
102
RTVSPost2010Prop48
 90
       50
102
RTVSPost2010PropOp48
 70
     1
102
RTVSPost2010Prop49
280
     0
102
RTVSPost2010PropOp49
 70
     1
102
RTVSPost2010Prop50
 90
       50
102
RTVSPost2010PropOp50
 70
     1
102
RTVSPost2010Prop51ColorIndex
 90
      256
102
RTVSPost2010Prop51ColorRGB
 90
-16777216
102
RTVSPost2010PropOp51
 70
     0
102
RTVSPost2010Prop52
140
1.0
102
RTVSPost2010PropOp52
 70
     0
102
RTVSPost2010Prop53
 90
        2
102
RTVSPost2010PropOp53
 70
     1
102
RTVSPost2010Prop54
  1
strokes_ogs.tif
102
RTVSPost2010PropOp54
 70
     1
102
RTVSPost2010Prop55
280
     0
102
RTVSPost2010PropOp55
 70
     1
102
RTVSPost2010Prop56
140
1.0
102
RTVSPost2010PropOp56
 70
     1
102
RTVSPost2010Prop57
140
1.0
102
RTVSPost2010PropOp57
 70
     1
  0
XRECORD
  5
32C
102
{ACAD_REACTORS
330
32B
102
}
330
32B
100
AcDbXrecord
280
     1
102
RTVSPropertyOp0
 70
     1
102
RTVSPropertyOp1
 70
     1
102
RTVSPropertyOp2
 70
     1
102
RTVSPropertyOp3
 70
     1
102
RTVSPropertyOp4
 70
     1
102
RTVSPropertyOp5
 70
     1
102
RTVSPropertyOp6
 70
     1
102
RTVSPropertyOp7
 70
     1
102
RTVSPropertyOp8
 70
     1
102
RTVSPropertyOp9
 70
     1
102
RTVSPropertyOp10
 70
     1
102
RTVSPropertyOp11
 70
     1
102
RTVSPropertyOp12
 70
     1
102
RTVSPropertyOp13
 70
     1
102
RTVSPropertyOp14
 70
     1
102
RTVSPropertyOp15
 70
     1
102
RTVSPropertyOp16
 70
     1
102
RTVSPropertyOp17
 70
     1
102
RTVSPropertyOp18
 70
     1
102
RTVSPropertyOp19
 70
     1
102
RTVSPropertyOp20
 70
     1
102
RTVSPropertyOp21
 70
     1
102
RTVSPropertyOp22
 70
     1
102
RTVSPropertyOp23
 70
     1
102
RTVSPropertyOp24
 70
     1
102
RTVSPropertyOp25
 70
     1
102
RTVSPropertyOp26
 70
     1
102
RTVSPropertyOp27
 70
     1
102
RTVSPropertyOp28
 70
     1
102
RTVSPropertyOp29
 70
     1
102
RTVSPropertyOp30
 70
     1
102
RTVSPropertyOp31
 70
     1
102
RTVSPropertyOp32
 70
     1
102
RTVSPropertyOp33
 70
     1
102
RTVSPropertyOp34
 70
     1
102
RTVSPropertyOp35
 70
     1
102
RTVSPropertyOp36
 70
     1
102
RTVSPropertyOp37
 70
     1
102
RTVSPropertyOp38
 70
     1
102
RTVSPropertyOp39
 70
     1
102
RTVSPropertyOp40
 70
     1
102
RTVSPropertyOp41
 70
     1
102
RTVSPropertyOp42
 70
     1
102
RTVSPropertyOp43
 70
     1
102
RTVSPropertyOp44
 70
     1
102
RTVSPropertyOp45
 70
     1
102
RTVSPropertyOp46
 70
     1
102
RTVSPropertyOp47
 70
     1
102
RTVSPropertyOp48
 70
     1
102
RTVSPropertyOp49
 70
     1
102
RTVSPropertyOp50
 70
     1
102
RTVSPropertyOp51
 70
     0
102
RTVSPropertyOp52
 70
     0
102
RTVSPropertyOp53
 70
     1
102
RTVSPropertyOp54
 70
     1
102
RTVSPropertyOp55
 70
     1
102
RTVSPropertyOp56
 70
     1
102
RTVSPropertyOp57
 70
     1
102
RTVSPost2010Prop28
280
     0
102
RTVSPost2010PropOp28
 70
     1
102
RTVSPost2010Prop29
280
     1
102
RTVSPost2010PropOp29
 70
     1
102
RTVSPost2010Prop30
280
     1
102
RTVSPost2010PropOp30
 70
     1
102
RTVSPost2010Prop31
280
     0
102
RTVSPost2010PropOp31
 70
     1
102
RTVSPost2010Prop32
280
     0
102
RTVSPost2010PropOp32
 70
     1
102
RTVSPost2010Prop33
280
     0
102
RTVSPost2010PropOp33
 70
     1
102
RTVSPost2010Prop34
280
     0
102
RTVSPost2010PropOp34
 70
     1
102
RTVSPost2010Prop35
280
     0
102
RTVSPost2010PropOp35
 70
     1
102
RTVSPost2010Prop36
280
     0
102
RTVSPost2010PropOp36
 70
     1
102
RTVSPost2010Prop37
 90
       50
102
RTVSPost2010PropOp37
 70
     1
102
RTVSPost2010Prop38
140
0.0
102
RTVSPost2010PropOp38
 70
     1
102
RTVSPost2010Prop39
140
1.0
102
RTVSPost2010PropOp39
 70
     1
102
RTVSPost2010Prop40
 90
        0
102
RTVSPost2010PropOp40
 70
     1
102
RTVSPost2010Prop41ColorIndex
 90
      178
102
RTVSPost2010Prop41ColorRGB
 90
        0
102
RTVSPost2010PropOp41
 70
     1
102
RTVSPost2010Prop42
 90
       50
102
RTVSPost2010PropOp42
 70
     1
102
RTVSPost2010Prop43
 90
        3
102
RTVSPost2010PropOp43
 70
     1
102
RTVSPost2010Prop44ColorIndex
 90
        5
102
RTVSPost2010Prop44ColorRGB
 90
      255
102
RTVSPost2010PropOp44
 70
     1
102
RTVSPost2010Prop45
280
     0
102
RTVSPost2010PropOp45
 70
     1
102
RTVSPost2010Prop46
 90
       50
102
RTVSPost2010PropOp46
 70
     1
102
RTVSPost2010Prop47
 90
       50
102
RTVSPost2010PropOp47
 70
     1
102
RTVSPost2010Prop48
 90
       50
102
RTVSPost2010PropOp48
 70
     1
102
RTVSPost2010Prop49
280
     0
102
RTVSPost2010PropOp49
 70
     1
102
RTVSPost2010Prop50
 90
       50
102
RTVSPost2010PropOp50
 70
     1
102
RTVSPost2010Prop51ColorIndex
 90
      256
102
RTVSPost2010Prop51ColorRGB
 90
-16777216
102
RTVSPost2010PropOp51
 70
     0
102
RTVSPost2010Prop52
140
1.0
102
RTVSPost2010PropOp52
 70
     0
102
RTVSPost2010Prop53
 90
        2
102
RTVSPost2010PropOp53
 70
     1
102
RTVSPost2010Prop54
  1
strokes_ogs.tif
102
RTVSPost2010PropOp54
 70
     1
102
RTVSPost2010Prop55
280
     0
102
RTVSPost2010PropOp55
 70
     1
102
RTVSPost2010Prop56
140
1.0
102
RTVSPost2010PropOp56
 70
     1
102
RTVSPost2010Prop57
140
1.0
102
RTVSPost2010PropOp57
 70
     1
  0
XRECORD
  5
334
102
{ACAD_REACTORS
330
333
102
}
330
333
100
AcDbXrecord
280
     1
102
RTVSPropertyOp0
 70
     1
102
RTVSPropertyOp1
 70
     1
102
RTVSPropertyOp2
 70
     1
102
RTVSPropertyOp3
 70
     1
102
RTVSPropertyOp4
 70
     1
102
RTVSPropertyOp5
 70
     1
102
RTVSPropertyOp6
 70
     1
102
RTVSPropertyOp7
 70
     1
102
RTVSPropertyOp8
 70
     1
102
RTVSPropertyOp9
 70
     1
102
RTVSPropertyOp10
 70
     1
102
RTVSPropertyOp11
 70
     1
102
RTVSPropertyOp12
 70
     1
102
RTVSPropertyOp13
 70
     1
102
RTVSPropertyOp14
 70
     1
102
RTVSPropertyOp15
 70
     1
102
RTVSPropertyOp16
 70
     1
102
RTVSPropertyOp17
 70
     1
102
RTVSPropertyOp18
 70
     1
102
RTVSPropertyOp19
 70
     1
102
RTVSPropertyOp20
 70
     1
102
RTVSPropertyOp21
 70
     1
102
RTVSPropertyOp22
 70
     1
102
RTVSPropertyOp23
 70
     1
102
RTVSPropertyOp24
 70
     1
102
RTVSPropertyOp25
 70
     1
102
RTVSPropertyOp26
 70
     1
102
RTVSPropertyOp27
 70
     1
102
RTVSPropertyOp28
 70
     1
102
RTVSPropertyOp29
 70
     1
102
RTVSPropertyOp30
 70
     1
102
RTVSPropertyOp31
 70
     1
102
RTVSPropertyOp32
 70
     1
102
RTVSPropertyOp33
 70
     1
102
RTVSPropertyOp34
 70
     1
102
RTVSPropertyOp35
 70
     1
102
RTVSPropertyOp36
 70
     1
102
RTVSPropertyOp37
 70
     1
102
RTVSPropertyOp38
 70
     1
102
RTVSPropertyOp39
 70
     1
102
RTVSPropertyOp40
 70
     1
102
RTVSPropertyOp41
 70
     1
102
RTVSPropertyOp42
 70
     1
102
RTVSPropertyOp43
 70
     1
102
RTVSPropertyOp44
 70
     1
102
RTVSPropertyOp45
 70
     1
102
RTVSPropertyOp46
 70
     1
102
RTVSPropertyOp47
 70
     1
102
RTVSPropertyOp48
 70
     1
102
RTVSPropertyOp49
 70
     1
102
RTVSPropertyOp50
 70
     1
102
RTVSPropertyOp51
 70
     0
102
RTVSPropertyOp52
 70
     0
102
RTVSPropertyOp53
 70
     1
102
RTVSPropertyOp54
 70
     1
102
RTVSPropertyOp55
 70
     1
102
RTVSPropertyOp56
 70
     1
102
RTVSPropertyOp57
 70
     1
102
RTVSPost2010Prop28
280
     0
102
RTVSPost2010PropOp28
 70
     1
102
RTVSPost2010Prop29
280
     1
102
RTVSPost2010PropOp29
 70
     1
102
RTVSPost2010Prop30
280
     1
102
RTVSPost2010PropOp30
 70
     1
102
RTVSPost2010Prop31
280
     0
102
RTVSPost2010PropOp31
 70
     1
102
RTVSPost2010Prop32
280
     0
102
RTVSPost2010PropOp32
 70
     1
102
RTVSPost2010Prop33
280
     0
102
RTVSPost2010PropOp33
 70
     1
102
RTVSPost2010Prop34
280
     0
102
RTVSPost2010PropOp34
 70
     1
102
RTVSPost2010Prop35
280
     0
102
RTVSPost2010PropOp35
 70
     1
102
RTVSPost2010Prop36
280
     0
102
RTVSPost2010PropOp36
 70
     1
102
RTVSPost2010Prop37
 90
       50
102
RTVSPost2010PropOp37
 70
     1
102
RTVSPost2010Prop38
140
0.0
102
RTVSPost2010PropOp38
 70
     1
102
RTVSPost2010Prop39
140
1.0
102
RTVSPost2010PropOp39
 70
     1
102
RTVSPost2010Prop40
 90
        0
102
RTVSPost2010PropOp40
 70
     1
102
RTVSPost2010Prop41ColorIndex
 90
      178
102
RTVSPost2010Prop41ColorRGB
 90
        0
102
RTVSPost2010PropOp41
 70
     1
102
RTVSPost2010Prop42
 90
       50
102
RTVSPost2010PropOp42
 70
     1
102
RTVSPost2010Prop43
 90
        3
102
RTVSPost2010PropOp43
 70
     1
102
RTVSPost2010Prop44ColorIndex
 90
        5
102
RTVSPost2010Prop44ColorRGB
 90
      255
102
RTVSPost2010PropOp44
 70
     1
102
RTVSPost2010Prop45
280
     0
102
RTVSPost2010PropOp45
 70
     1
102
RTVSPost2010Prop46
 90
       50
102
RTVSPost2010PropOp46
 70
     1
102
RTVSPost2010Prop47
 90
       50
102
RTVSPost2010PropOp47
 70
     1
102
RTVSPost2010Prop48
 90
       50
102
RTVSPost2010PropOp48
 70
     1
102
RTVSPost2010Prop49
280
     0
102
RTVSPost2010PropOp49
 70
     1
102
RTVSPost2010Prop50
 90
       50
102
RTVSPost2010PropOp50
 70
     1
102
RTVSPost2010Prop51ColorIndex
 90
      256
102
RTVSPost2010Prop51ColorRGB
 90
-16777216
102
RTVSPost2010PropOp51
 70
     0
102
RTVSPost2010Prop52
140
1.0
102
RTVSPost2010PropOp52
 70
     0
102
RTVSPost2010Prop53
 90
        2
102
RTVSPost2010PropOp53
 70
     1
102
RTVSPost2010Prop54
  1
strokes_ogs.tif
102
RTVSPost2010PropOp54
 70
     1
102
RTVSPost2010Prop55
280
     0
102
RTVSPost2010PropOp55
 70
     1
102
RTVSPost2010Prop56
140
1.0
102
RTVSPost2010PropOp56
 70
     1
102
RTVSPost2010Prop57
140
1.0
102
RTVSPost2010PropOp57
 70
     1
  0
XRECORD
  5
328
102
{ACAD_REACTORS
330
327
102
}
330
327
100
AcDbXrecord
280
     1
102
RTVSPropertyOp0
 70
     1
102
RTVSPropertyOp1
 70
     1
102
RTVSPropertyOp2
 70
     1
102
RTVSPropertyOp3
 70
     1
102
RTVSPropertyOp4
 70
     1
102
RTVSPropertyOp5
 70
     1
102
RTVSPropertyOp6
 70
     1
102
RTVSPropertyOp7
 70
     1
102
RTVSPropertyOp8
 70
     1
102
RTVSPropertyOp9
 70
     1
102
RTVSPropertyOp10
 70
     1
102
RTVSPropertyOp11
 70
     1
102
RTVSPropertyOp12
 70
     1
102
RTVSPropertyOp13
 70
     1
102
RTVSPropertyOp14
 70
     1
102
RTVSPropertyOp15
 70
     1
102
RTVSPropertyOp16
 70
     1
102
RTVSPropertyOp17
 70
     1
102
RTVSPropertyOp18
 70
     1
102
RTVSPropertyOp19
 70
     1
102
RTVSPropertyOp20
 70
     1
102
RTVSPropertyOp21
 70
     1
102
RTVSPropertyOp22
 70
     1
102
RTVSPropertyOp23
 70
     1
102
RTVSPropertyOp24
 70
     1
102
RTVSPropertyOp25
 70
     1
102
RTVSPropertyOp26
 70
     1
102
RTVSPropertyOp27
 70
     1
102
RTVSPropertyOp28
 70
     1
102
RTVSPropertyOp29
 70
     1
102
RTVSPropertyOp30
 70
     1
102
RTVSPropertyOp31
 70
     1
102
RTVSPropertyOp32
 70
     1
102
RTVSPropertyOp33
 70
     1
102
RTVSPropertyOp34
 70
     1
102
RTVSPropertyOp35
 70
     1
102
RTVSPropertyOp36
 70
     1
102
RTVSPropertyOp37
 70
     1
102
RTVSPropertyOp38
 70
     1
102
RTVSPropertyOp39
 70
     1
102
RTVSPropertyOp40
 70
     1
102
RTVSPropertyOp41
 70
     1
102
RTVSPropertyOp42
 70
     1
102
RTVSPropertyOp43
 70
     1
102
RTVSPropertyOp44
 70
     1
102
RTVSPropertyOp45
 70
     1
102
RTVSPropertyOp46
 70
     1
102
RTVSPropertyOp47
 70
     1
102
RTVSPropertyOp48
 70
     1
102
RTVSPropertyOp49
 70
     1
102
RTVSPropertyOp50
 70
     1
102
RTVSPropertyOp51
 70
     0
102
RTVSPropertyOp52
 70
     0
102
RTVSPropertyOp53
 70
     1
102
RTVSPropertyOp54
 70
     1
102
RTVSPropertyOp55
 70
     1
102
RTVSPropertyOp56
 70
     1
102
RTVSPropertyOp57
 70
     1
102
RTVSPost2010Prop28
280
     0
102
RTVSPost2010PropOp28
 70
     1
102
RTVSPost2010Prop29
280
     1
102
RTVSPost2010PropOp29
 70
     1
102
RTVSPost2010Prop30
280
     1
102
RTVSPost2010PropOp30
 70
     1
102
RTVSPost2010Prop31
280
     0
102
RTVSPost2010PropOp31
 70
     1
102
RTVSPost2010Prop32
280
     0
102
RTVSPost2010PropOp32
 70
     1
102
RTVSPost2010Prop33
280
     0
102
RTVSPost2010PropOp33
 70
     1
102
RTVSPost2010Prop34
280
     0
102
RTVSPost2010PropOp34
 70
     1
102
RTVSPost2010Prop35
280
     0
102
RTVSPost2010PropOp35
 70
     1
102
RTVSPost2010Prop36
280
     0
102
RTVSPost2010PropOp36
 70
     1
102
RTVSPost2010Prop37
 90
       50
102
RTVSPost2010PropOp37
 70
     1
102
RTVSPost2010Prop38
140
0.0
102
RTVSPost2010PropOp38
 70
     1
102
RTVSPost2010Prop39
140
1.0
102
RTVSPost2010PropOp39
 70
     1
102
RTVSPost2010Prop40
 90
        0
102
RTVSPost2010PropOp40
 70
     1
102
RTVSPost2010Prop41ColorIndex
 90
      178
102
RTVSPost2010Prop41ColorRGB
 90
        0
102
RTVSPost2010PropOp41
 70
     1
102
RTVSPost2010Prop42
 90
       50
102
RTVSPost2010PropOp42
 70
     1
102
RTVSPost2010Prop43
 90
        3
102
RTVSPost2010PropOp43
 70
     1
102
RTVSPost2010Prop44ColorIndex
 90
        5
102
RTVSPost2010Prop44ColorRGB
 90
      255
102
RTVSPost2010PropOp44
 70
     1
102
RTVSPost2010Prop45
280
     0
102
RTVSPost2010PropOp45
 70
     1
102
RTVSPost2010Prop46
 90
       50
102
RTVSPost2010PropOp46
 70
     1
102
RTVSPost2010Prop47
 90
       50
102
RTVSPost2010PropOp47
 70
     1
102
RTVSPost2010Prop48
 90
       50
102
RTVSPost2010PropOp48
 70
     1
102
RTVSPost2010Prop49
280
     0
102
RTVSPost2010PropOp49
 70
     1
102
RTVSPost2010Prop50
 90
       50
102
RTVSPost2010PropOp50
 70
     1
102
RTVSPost2010Prop51ColorIndex
 90
      256
102
RTVSPost2010Prop51ColorRGB
 90
-16777216
102
RTVSPost2010PropOp51
 70
     0
102
RTVSPost2010Prop52
140
1.0
102
RTVSPost2010PropOp52
 70
     0
102
RTVSPost2010Prop53
 90
        2
102
RTVSPost2010PropOp53
 70
     1
102
RTVSPost2010Prop54
  1
strokes_ogs.tif
102
RTVSPost2010PropOp54
 70
     1
102
RTVSPost2010Prop55
280
     0
102
RTVSPost2010PropOp55
 70
     1
102
RTVSPost2010Prop56
140
1.0
102
RTVSPost2010PropOp56
 70
     1
102
RTVSPost2010Prop57
140
1.0
102
RTVSPost2010PropOp57
 70
     1
  0
XRECORD
  5
32A
102
{ACAD_REACTORS
330
329
102
}
330
329
100
AcDbXrecord
280
     1
102
RTVSPropertyOp0
 70
     1
102
RTVSPropertyOp1
 70
     1
102
RTVSPropertyOp2
 70
     1
102
RTVSPropertyOp3
 70
     1
102
RTVSPropertyOp4
 70
     1
102
RTVSPropertyOp5
 70
     1
102
RTVSPropertyOp6
 70
     1
102
RTVSPropertyOp7
 70
     1
102
RTVSPropertyOp8
 70
     1
102
RTVSPropertyOp9
 70
     1
102
RTVSPropertyOp10
 70
     1
102
RTVSPropertyOp11
 70
     1
102
RTVSPropertyOp12
 70
     1
102
RTVSPropertyOp13
 70
     1
102
RTVSPropertyOp14
 70
     1
102
RTVSPropertyOp15
 70
     1
102
RTVSPropertyOp16
 70
     1
102
RTVSPropertyOp17
 70
     1
102
RTVSPropertyOp18
 70
     1
102
RTVSPropertyOp19
 70
     1
102
RTVSPropertyOp20
 70
     1
102
RTVSPropertyOp21
 70
     1
102
RTVSPropertyOp22
 70
     1
102
RTVSPropertyOp23
 70
     1
102
RTVSPropertyOp24
 70
     1
102
RTVSPropertyOp25
 70
     1
102
RTVSPropertyOp26
 70
     1
102
RTVSPropertyOp27
 70
     1
102
RTVSPropertyOp28
 70
     1
102
RTVSPropertyOp29
 70
     1
102
RTVSPropertyOp30
 70
     1
102
RTVSPropertyOp31
 70
     1
102
RTVSPropertyOp32
 70
     1
102
RTVSPropertyOp33
 70
     1
102
RTVSPropertyOp34
 70
     1
102
RTVSPropertyOp35
 70
     1
102
RTVSPropertyOp36
 70
     1
102
RTVSPropertyOp37
 70
     1
102
RTVSPropertyOp38
 70
     1
102
RTVSPropertyOp39
 70
     1
102
RTVSPropertyOp40
 70
     1
102
RTVSPropertyOp41
 70
     1
102
RTVSPropertyOp42
 70
     1
102
RTVSPropertyOp43
 70
     1
102
RTVSPropertyOp44
 70
     1
102
RTVSPropertyOp45
 70
     1
102
RTVSPropertyOp46
 70
     1
102
RTVSPropertyOp47
 70
     1
102
RTVSPropertyOp48
 70
     1
102
RTVSPropertyOp49
 70
     1
102
RTVSPropertyOp50
 70
     1
102
RTVSPropertyOp51
 70
     0
102
RTVSPropertyOp52
 70
     0
102
RTVSPropertyOp53
 70
     1
102
RTVSPropertyOp54
 70
     1
102
RTVSPropertyOp55
 70
     1
102
RTVSPropertyOp56
 70
     1
102
RTVSPropertyOp57
 70
     1
102
RTVSPost2010Prop28
280
     0
102
RTVSPost2010PropOp28
 70
     1
102
RTVSPost2010Prop29
280
     1
102
RTVSPost2010PropOp29
 70
     1
102
RTVSPost2010Prop30
280
     1
102
RTVSPost2010PropOp30
 70
     1
102
RTVSPost2010Prop31
280
     0
102
RTVSPost2010PropOp31
 70
     1
102
RTVSPost2010Prop32
280
     0
102
RTVSPost2010PropOp32
 70
     1
102
RTVSPost2010Prop33
280
     0
102
RTVSPost2010PropOp33
 70
     1
102
RTVSPost2010Prop34
280
     0
102
RTVSPost2010PropOp34
 70
     1
102
RTVSPost2010Prop35
280
     0
102
RTVSPost2010PropOp35
 70
     1
102
RTVSPost2010Prop36
280
     0
102
RTVSPost2010PropOp36
 70
     1
102
RTVSPost2010Prop37
 90
       50
102
RTVSPost2010PropOp37
 70
     1
102
RTVSPost2010Prop38
140
0.0
102
RTVSPost2010PropOp38
 70
     1
102
RTVSPost2010Prop39
140
1.0
102
RTVSPost2010PropOp39
 70
     1
102
RTVSPost2010Prop40
 90
        0
102
RTVSPost2010PropOp40
 70
     1
102
RTVSPost2010Prop41ColorIndex
 90
      178
102
RTVSPost2010Prop41ColorRGB
 90
        0
102
RTVSPost2010PropOp41
 70
     1
102
RTVSPost2010Prop42
 90
       50
102
RTVSPost2010PropOp42
 70
     1
102
RTVSPost2010Prop43
 90
        3
102
RTVSPost2010PropOp43
 70
     1
102
RTVSPost2010Prop44ColorIndex
 90
        5
102
RTVSPost2010Prop44ColorRGB
 90
      255
102
RTVSPost2010PropOp44
 70
     1
102
RTVSPost2010Prop45
280
     0
102
RTVSPost2010PropOp45
 70
     1
102
RTVSPost2010Prop46
 90
       50
102
RTVSPost2010PropOp46
 70
     1
102
RTVSPost2010Prop47
 90
       50
102
RTVSPost2010PropOp47
 70
     1
102
RTVSPost2010Prop48
 90
       50
102
RTVSPost2010PropOp48
 70
     1
102
RTVSPost2010Prop49
280
     0
102
RTVSPost2010PropOp49
 70
     1
102
RTVSPost2010Prop50
 90
       50
102
RTVSPost2010PropOp50
 70
     1
102
RTVSPost2010Prop51ColorIndex
 90
      256
102
RTVSPost2010Prop51ColorRGB
 90
-16777216
102
RTVSPost2010PropOp51
 70
     0
102
RTVSPost2010Prop52
140
1.0
102
RTVSPost2010PropOp52
 70
     0
102
RTVSPost2010Prop53
 90
        2
102
RTVSPost2010PropOp53
 70
     1
102
RTVSPost2010Prop54
  1
strokes_ogs.tif
102
RTVSPost2010PropOp54
 70
     1
102
RTVSPost2010Prop55
280
     0
102
RTVSPost2010PropOp55
 70
     1
102
RTVSPost2010Prop56
140
1.0
102
RTVSPost2010PropOp56
 70
     1
102
RTVSPost2010Prop57
140
1.0
102
RTVSPost2010PropOp57
 70
     1
  0
XRECORD
  5
33A
102
{ACAD_REACTORS
330
339
102
}
330
339
100
AcDbXrecord
280
     1
102
RTVSPropertyOp0
 70
     0
102
RTVSPropertyOp1
 70
     0
102
RTVSPropertyOp2
 70
     0
102
RTVSPropertyOp3
 70
     0
102
RTVSPropertyOp4
 70
     0
102
RTVSPropertyOp5
 70
     0
102
RTVSPropertyOp6
 70
     0
102
RTVSPropertyOp7
 70
     0
102
RTVSPropertyOp8
 70
     0
102
RTVSPropertyOp9
 70
     0
102
RTVSPropertyOp10
 70
     0
102
RTVSPropertyOp11
 70
     0
102
RTVSPropertyOp12
 70
     0
102
RTVSPropertyOp13
 70
     0
102
RTVSPropertyOp14
 70
     2
102
RTVSPropertyOp15
 70
     0
102
RTVSPropertyOp16
 70
     0
102
RTVSPropertyOp17
 70
     0
102
RTVSPropertyOp18
 70
     0
102
RTVSPropertyOp19
 70
     0
102
RTVSPropertyOp20
 70
     0
102
RTVSPropertyOp21
 70
     0
102
RTVSPropertyOp22
 70
     0
102
RTVSPropertyOp23
 70
     0
102
RTVSPropertyOp24
 70
     0
102
RTVSPropertyOp25
 70
     0
102
RTVSPropertyOp26
 70
     0
102
RTVSPropertyOp27
 70
     0
102
RTVSPropertyOp28
 70
     0
102
RTVSPropertyOp29
 70
     0
102
RTVSPropertyOp30
 70
     0
102
RTVSPropertyOp31
 70
     0
102
RTVSPropertyOp32
 70
     0
102
RTVSPropertyOp33
 70
     0
102
RTVSPropertyOp34
 70
     0
102
RTVSPropertyOp35
 70
     0
102
RTVSPropertyOp36
 70
     0
102
RTVSPropertyOp37
 70
     0
102
RTVSPropertyOp38
 70
     0
102
RTVSPropertyOp39
 70
     0
102
RTVSPropertyOp40
 70
     0
102
RTVSPropertyOp41
 70
     0
102
RTVSPropertyOp42
 70
     0
102
RTVSPropertyOp43
 70
     0
102
RTVSPropertyOp44
 70
     0
102
RTVSPropertyOp45
 70
     0
102
RTVSPropertyOp46
 70
     0
102
RTVSPropertyOp47
 70
     0
102
RTVSPropertyOp48
 70
     0
102
RTVSPropertyOp49
 70
     0
102
RTVSPropertyOp50
 70
     0
102
RTVSPropertyOp51
 70
     0
102
RTVSPropertyOp52
 70
     0
102
RTVSPropertyOp53
 70
     0
102
RTVSPropertyOp54
 70
     0
102
RTVSPropertyOp55
 70
     0
102
RTVSPropertyOp56
 70
     0
102
RTVSPropertyOp57
 70
     0
102
RTVSPost2010Prop28
280
     0
102
RTVSPost2010PropOp28
 70
     0
102
RTVSPost2010Prop29
280
     1
102
RTVSPost2010PropOp29
 70
     0
102
RTVSPost2010Prop30
280
     1
102
RTVSPost2010PropOp30
 70
     0
102
RTVSPost2010Prop31
280
     0
102
RTVSPost2010PropOp31
 70
     0
102
RTVSPost2010Prop32
280
     0
102
RTVSPost2010PropOp32
 70
     0
102
RTVSPost2010Prop33
280
     0
102
RTVSPost2010PropOp33
 70
     0
102
RTVSPost2010Prop34
280
     0
102
RTVSPost2010PropOp34
 70
     0
102
RTVSPost2010Prop35
280
     0
102
RTVSPost2010PropOp35
 70
     0
102
RTVSPost2010Prop36
280
     0
102
RTVSPost2010PropOp36
 70
     0
102
RTVSPost2010Prop37
 90
       50
102
RTVSPost2010PropOp37
 70
     0
102
RTVSPost2010Prop38
140
0.0
102
RTVSPost2010PropOp38
 70
     0
102
RTVSPost2010Prop39
140
1.0
102
RTVSPost2010PropOp39
 70
     0
102
RTVSPost2010Prop40
 90
        0
102
RTVSPost2010PropOp40
 70
     0
102
RTVSPost2010Prop41ColorIndex
 90
      178
102
RTVSPost2010Prop41ColorRGB
 90
        0
102
RTVSPost2010PropOp41
 70
     0
102
RTVSPost2010Prop42
 90
       50
102
RTVSPost2010PropOp42
 70
     0
102
RTVSPost2010Prop43
 90
        3
102
RTVSPost2010PropOp43
 70
     0
102
RTVSPost2010Prop44ColorIndex
 90
        5
102
RTVSPost2010Prop44ColorRGB
 90
      255
102
RTVSPost2010PropOp44
 70
     0
102
RTVSPost2010Prop45
280
     0
102
RTVSPost2010PropOp45
 70
     0
102
RTVSPost2010Prop46
 90
       50
102
RTVSPost2010PropOp46
 70
     0
102
RTVSPost2010Prop47
 90
       50
102
RTVSPost2010PropOp47
 70
     0
102
RTVSPost2010Prop48
 90
       50
102
RTVSPost2010PropOp48
 70
     0
102
RTVSPost2010Prop49
280
     0
102
RTVSPost2010PropOp49
 70
     0
102
RTVSPost2010Prop50
 90
       50
102
RTVSPost2010PropOp50
 70
     0
102
RTVSPost2010Prop51ColorIndex
 90
      256
102
RTVSPost2010Prop51ColorRGB
 90
-16777216
102
RTVSPost2010PropOp51
 70
     0
102
RTVSPost2010Prop52
140
1.0
102
RTVSPost2010PropOp52
 70
     0
102
RTVSPost2010Prop53
 90
        2
102
RTVSPost2010PropOp53
 70
     0
102
RTVSPost2010Prop54
  1
strokes_ogs.tif
102
RTVSPost2010PropOp54
 70
     0
102
RTVSPost2010Prop55
280
     0
102
RTVSPost2010PropOp55
 70
     0
102
RTVSPost2010Prop56
140
1.0
102
RTVSPost2010PropOp56
 70
     0
102
RTVSPost2010Prop57
140
1.0
102
RTVSPost2010PropOp57
 70
     0
  0
XRECORD
  5
332
102
{ACAD_REACTORS
330
331
102
}
330
331
100
AcDbXrecord
280
     1
102
RTVSPropertyOp0
 70
     1
102
RTVSPropertyOp1
 70
     1
102
RTVSPropertyOp2
 70
     1
102
RTVSPropertyOp3
 70
     1
102
RTVSPropertyOp4
 70
     1
102
RTVSPropertyOp5
 70
     1
102
RTVSPropertyOp6
 70
     1
102
RTVSPropertyOp7
 70
     1
102
RTVSPropertyOp8
 70
     1
102
RTVSPropertyOp9
 70
     1
102
RTVSPropertyOp10
 70
     1
102
RTVSPropertyOp11
 70
     1
102
RTVSPropertyOp12
 70
     1
102
RTVSPropertyOp13
 70
     1
102
RTVSPropertyOp14
 70
     1
102
RTVSPropertyOp15
 70
     1
102
RTVSPropertyOp16
 70
     1
102
RTVSPropertyOp17
 70
     1
102
RTVSPropertyOp18
 70
     1
102
RTVSPropertyOp19
 70
     1
102
RTVSPropertyOp20
 70
     1
102
RTVSPropertyOp21
 70
     1
102
RTVSPropertyOp22
 70
     1
102
RTVSPropertyOp23
 70
     1
102
RTVSPropertyOp24
 70
     1
102
RTVSPropertyOp25
 70
     1
102
RTVSPropertyOp26
 70
     1
102
RTVSPropertyOp27
 70
     1
102
RTVSPropertyOp28
 70
     1
102
RTVSPropertyOp29
 70
     1
102
RTVSPropertyOp30
 70
     1
102
RTVSPropertyOp31
 70
     1
102
RTVSPropertyOp32
 70
     1
102
RTVSPropertyOp33
 70
     1
102
RTVSPropertyOp34
 70
     1
102
RTVSPropertyOp35
 70
     1
102
RTVSPropertyOp36
 70
     1
102
RTVSPropertyOp37
 70
     1
102
RTVSPropertyOp38
 70
     1
102
RTVSPropertyOp39
 70
     1
102
RTVSPropertyOp40
 70
     1
102
RTVSPropertyOp41
 70
     1
102
RTVSPropertyOp42
 70
     1
102
RTVSPropertyOp43
 70
     1
102
RTVSPropertyOp44
 70
     1
102
RTVSPropertyOp45
 70
     1
102
RTVSPropertyOp46
 70
     1
102
RTVSPropertyOp47
 70
     1
102
RTVSPropertyOp48
 70
     1
102
RTVSPropertyOp49
 70
     1
102
RTVSPropertyOp50
 70
     1
102
RTVSPropertyOp51
 70
     0
102
RTVSPropertyOp52
 70
     0
102
RTVSPropertyOp53
 70
     1
102
RTVSPropertyOp54
 70
     1
102
RTVSPropertyOp55
 70
     1
102
RTVSPropertyOp56
 70
     1
102
RTVSPropertyOp57
 70
     1
102
RTVSPost2010Prop28
280
     0
102
RTVSPost2010PropOp28
 70
     1
102
RTVSPost2010Prop29
280
     1
102
RTVSPost2010PropOp29
 70
     1
102
RTVSPost2010Prop30
280
     1
102
RTVSPost2010PropOp30
 70
     1
102
RTVSPost2010Prop31
280
     0
102
RTVSPost2010PropOp31
 70
     1
102
RTVSPost2010Prop32
280
     0
102
RTVSPost2010PropOp32
 70
     1
102
RTVSPost2010Prop33
280
     0
102
RTVSPost2010PropOp33
 70
     1
102
RTVSPost2010Prop34
280
     0
102
RTVSPost2010PropOp34
 70
     1
102
RTVSPost2010Prop35
280
     0
102
RTVSPost2010PropOp35
 70
     1
102
RTVSPost2010Prop36
280
     0
102
RTVSPost2010PropOp36
 70
     1
102
RTVSPost2010Prop37
 90
       50
102
RTVSPost2010PropOp37
 70
     1
102
RTVSPost2010Prop38
140
0.0
102
RTVSPost2010PropOp38
 70
     1
102
RTVSPost2010Prop39
140
1.0
102
RTVSPost2010PropOp39
 70
     1
102
RTVSPost2010Prop40
 90
        0
102
RTVSPost2010PropOp40
 70
     1
102
RTVSPost2010Prop41ColorIndex
 90
      178
102
RTVSPost2010Prop41ColorRGB
 90
        0
102
RTVSPost2010PropOp41
 70
     1
102
RTVSPost2010Prop42
 90
       50
102
RTVSPost2010PropOp42
 70
     1
102
RTVSPost2010Prop43
 90
        3
102
RTVSPost2010PropOp43
 70
     1
102
RTVSPost2010Prop44ColorIndex
 90
        5
102
RTVSPost2010Prop44ColorRGB
 90
      255
102
RTVSPost2010PropOp44
 70
     1
102
RTVSPost2010Prop45
280
     0
102
RTVSPost2010PropOp45
 70
     1
102
RTVSPost2010Prop46
 90
       50
102
RTVSPost2010PropOp46
 70
     1
102
RTVSPost2010Prop47
 90
       50
102
RTVSPost2010PropOp47
 70
     1
102
RTVSPost2010Prop48
 90
       50
102
RTVSPost2010PropOp48
 70
     1
102
RTVSPost2010Prop49
280
     0
102
RTVSPost2010PropOp49
 70
     1
102
RTVSPost2010Prop50
 90
       50
102
RTVSPost2010PropOp50
 70
     1
102
RTVSPost2010Prop51ColorIndex
 90
      256
102
RTVSPost2010Prop51ColorRGB
 90
-16777216
102
RTVSPost2010PropOp51
 70
     0
102
RTVSPost2010Prop52
140
1.0
102
RTVSPost2010PropOp52
 70
     0
102
RTVSPost2010Prop53
 90
        2
102
RTVSPost2010PropOp53
 70
     1
102
RTVSPost2010Prop54
  1
strokes_ogs.tif
102
RTVSPost2010PropOp54
 70
     1
102
RTVSPost2010Prop55
280
     0
102
RTVSPost2010PropOp55
 70
     1
102
RTVSPost2010Prop56
140
1.0
102
RTVSPost2010PropOp56
 70
     1
102
RTVSPost2010Prop57
140
1.0
102
RTVSPost2010PropOp57
 70
     1
  0
XRECORD
  5
316
102
{ACAD_REACTORS
330
315
102
}
330
315
100
AcDbXrecord
280
     1
102
RTVSPropertyOp0
 70
     1
102
RTVSPropertyOp1
 70
     1
102
RTVSPropertyOp2
 70
     1
102
RTVSPropertyOp3
 70
     1
102
RTVSPropertyOp4
 70
     1
102
RTVSPropertyOp5
 70
     1
102
RTVSPropertyOp6
 70
     1
102
RTVSPropertyOp7
 70
     1
102
RTVSPropertyOp8
 70
     1
102
RTVSPropertyOp9
 70
     1
102
RTVSPropertyOp10
 70
     1
102
RTVSPropertyOp11
 70
     1
102
RTVSPropertyOp12
 70
     1
102
RTVSPropertyOp13
 70
     1
102
RTVSPropertyOp14
 70
     1
102
RTVSPropertyOp15
 70
     1
102
RTVSPropertyOp16
 70
     1
102
RTVSPropertyOp17
 70
     1
102
RTVSPropertyOp18
 70
     1
102
RTVSPropertyOp19
 70
     1
102
RTVSPropertyOp20
 70
     1
102
RTVSPropertyOp21
 70
     1
102
RTVSPropertyOp22
 70
     1
102
RTVSPropertyOp23
 70
     1
102
RTVSPropertyOp24
 70
     1
102
RTVSPropertyOp25
 70
     1
102
RTVSPropertyOp26
 70
     1
102
RTVSPropertyOp27
 70
     1
102
RTVSPropertyOp28
 70
     1
102
RTVSPropertyOp29
 70
     1
102
RTVSPropertyOp30
 70
     1
102
RTVSPropertyOp31
 70
     1
102
RTVSPropertyOp32
 70
     1
102
RTVSPropertyOp33
 70
     1
102
RTVSPropertyOp34
 70
     1
102
RTVSPropertyOp35
 70
     1
102
RTVSPropertyOp36
 70
     1
102
RTVSPropertyOp37
 70
     1
102
RTVSPropertyOp38
 70
     1
102
RTVSPropertyOp39
 70
     1
102
RTVSPropertyOp40
 70
     1
102
RTVSPropertyOp41
 70
     1
102
RTVSPropertyOp42
 70
     1
102
RTVSPropertyOp43
 70
     1
102
RTVSPropertyOp44
 70
     1
102
RTVSPropertyOp45
 70
     1
102
RTVSPropertyOp46
 70
     1
102
RTVSPropertyOp47
 70
     1
102
RTVSPropertyOp48
 70
     1
102
RTVSPropertyOp49
 70
     1
102
RTVSPropertyOp50
 70
     1
102
RTVSPropertyOp51
 70
     0
102
RTVSPropertyOp52
 70
     0
102
RTVSPropertyOp53
 70
     1
102
RTVSPropertyOp54
 70
     1
102
RTVSPropertyOp55
 70
     1
102
RTVSPropertyOp56
 70
     1
102
RTVSPropertyOp57
 70
     1
102
RTVSPost2010Prop28
280
     0
102
RTVSPost2010PropOp28
 70
     1
102
RTVSPost2010Prop29
280
     1
102
RTVSPost2010PropOp29
 70
     1
102
RTVSPost2010Prop30
280
     1
102
RTVSPost2010PropOp30
 70
     1
102
RTVSPost2010Prop31
280
     0
102
RTVSPost2010PropOp31
 70
     1
102
RTVSPost2010Prop32
280
     0
102
RTVSPost2010PropOp32
 70
     1
102
RTVSPost2010Prop33
280
     0
102
RTVSPost2010PropOp33
 70
     1
102
RTVSPost2010Prop34
280
     0
102
RTVSPost2010PropOp34
 70
     1
102
RTVSPost2010Prop35
280
     0
102
RTVSPost2010PropOp35
 70
     1
102
RTVSPost2010Prop36
280
     0
102
RTVSPost2010PropOp36
 70
     1
102
RTVSPost2010Prop37
 90
       50
102
RTVSPost2010PropOp37
 70
     1
102
RTVSPost2010Prop38
140
0.0
102
RTVSPost2010PropOp38
 70
     1
102
RTVSPost2010Prop39
140
1.0
102
RTVSPost2010PropOp39
 70
     1
102
RTVSPost2010Prop40
 90
        0
102
RTVSPost2010PropOp40
 70
     1
102
RTVSPost2010Prop41ColorIndex
 90
      178
102
RTVSPost2010Prop41ColorRGB
 90
        0
102
RTVSPost2010PropOp41
 70
     1
102
RTVSPost2010Prop42
 90
       50
102
RTVSPost2010PropOp42
 70
     1
102
RTVSPost2010Prop43
 90
        3
102
RTVSPost2010PropOp43
 70
     1
102
RTVSPost2010Prop44ColorIndex
 90
        5
102
RTVSPost2010Prop44ColorRGB
 90
      255
102
RTVSPost2010PropOp44
 70
     1
102
RTVSPost2010Prop45
280
     0
102
RTVSPost2010PropOp45
 70
     1
102
RTVSPost2010Prop46
 90
       50
102
RTVSPost2010PropOp46
 70
     1
102
RTVSPost2010Prop47
 90
       50
102
RTVSPost2010PropOp47
 70
     1
102
RTVSPost2010Prop48
 90
       50
102
RTVSPost2010PropOp48
 70
     1
102
RTVSPost2010Prop49
280
     0
102
RTVSPost2010PropOp49
 70
     1
102
RTVSPost2010Prop50
 90
       50
102
RTVSPost2010PropOp50
 70
     1
102
RTVSPost2010Prop51ColorIndex
 90
      256
102
RTVSPost2010Prop51ColorRGB
 90
-16777216
102
RTVSPost2010PropOp51
 70
     0
102
RTVSPost2010Prop52
140
1.0
102
RTVSPost2010PropOp52
 70
     0
102
RTVSPost2010Prop53
 90
        2
102
RTVSPost2010PropOp53
 70
     1
102
RTVSPost2010Prop54
  1
strokes_ogs.tif
102
RTVSPost2010PropOp54
 70
     1
102
RTVSPost2010Prop55
280
     0
102
RTVSPost2010PropOp55
 70
     1
102
RTVSPost2010Prop56
140
1.0
102
RTVSPost2010PropOp56
 70
     1
102
RTVSPost2010Prop57
140
1.0
102
RTVSPost2010PropOp57
 70
     1
  0
XRECORD
  5
318
102
{ACAD_REACTORS
330
317
102
}
330
317
100
AcDbXrecord
280
     1
102
RTVSPropertyOp0
 70
     1
102
RTVSPropertyOp1
 70
     1
102
RTVSPropertyOp2
 70
     1
102
RTVSPropertyOp3
 70
     1
102
RTVSPropertyOp4
 70
     1
102
RTVSPropertyOp5
 70
     1
102
RTVSPropertyOp6
 70
     1
102
RTVSPropertyOp7
 70
     1
102
RTVSPropertyOp8
 70
     1
102
RTVSPropertyOp9
 70
     1
102
RTVSPropertyOp10
 70
     1
102
RTVSPropertyOp11
 70
     1
102
RTVSPropertyOp12
 70
     1
102
RTVSPropertyOp13
 70
     1
102
RTVSPropertyOp14
 70
     1
102
RTVSPropertyOp15
 70
     1
102
RTVSPropertyOp16
 70
     1
102
RTVSPropertyOp17
 70
     1
102
RTVSPropertyOp18
 70
     1
102
RTVSPropertyOp19
 70
     1
102
RTVSPropertyOp20
 70
     1
102
RTVSPropertyOp21
 70
     1
102
RTVSPropertyOp22
 70
     1
102
RTVSPropertyOp23
 70
     1
102
RTVSPropertyOp24
 70
     1
102
RTVSPropertyOp25
 70
     1
102
RTVSPropertyOp26
 70
     1
102
RTVSPropertyOp27
 70
     1
102
RTVSPropertyOp28
 70
     1
102
RTVSPropertyOp29
 70
     1
102
RTVSPropertyOp30
 70
     1
102
RTVSPropertyOp31
 70
     1
102
RTVSPropertyOp32
 70
     1
102
RTVSPropertyOp33
 70
     1
102
RTVSPropertyOp34
 70
     1
102
RTVSPropertyOp35
 70
     1
102
RTVSPropertyOp36
 70
     1
102
RTVSPropertyOp37
 70
     1
102
RTVSPropertyOp38
 70
     1
102
RTVSPropertyOp39
 70
     1
102
RTVSPropertyOp40
 70
     1
102
RTVSPropertyOp41
 70
     1
102
RTVSPropertyOp42
 70
     1
102
RTVSPropertyOp43
 70
     1
102
RTVSPropertyOp44
 70
     1
102
RTVSPropertyOp45
 70
     1
102
RTVSPropertyOp46
 70
     1
102
RTVSPropertyOp47
 70
     1
102
RTVSPropertyOp48
 70
     1
102
RTVSPropertyOp49
 70
     1
102
RTVSPropertyOp50
 70
     1
102
RTVSPropertyOp51
 70
     0
102
RTVSPropertyOp52
 70
     0
102
RTVSPropertyOp53
 70
     1
102
RTVSPropertyOp54
 70
     1
102
RTVSPropertyOp55
 70
     1
102
RTVSPropertyOp56
 70
     1
102
RTVSPropertyOp57
 70
     1
102
RTVSPost2010Prop28
280
     0
102
RTVSPost2010PropOp28
 70
     1
102
RTVSPost2010Prop29
280
     1
102
RTVSPost2010PropOp29
 70
     1
102
RTVSPost2010Prop30
280
     1
102
RTVSPost2010PropOp30
 70
     1
102
RTVSPost2010Prop31
280
     0
102
RTVSPost2010PropOp31
 70
     1
102
RTVSPost2010Prop32
280
     0
102
RTVSPost2010PropOp32
 70
     1
102
RTVSPost2010Prop33
280
     0
102
RTVSPost2010PropOp33
 70
     1
102
RTVSPost2010Prop34
280
     0
102
RTVSPost2010PropOp34
 70
     1
102
RTVSPost2010Prop35
280
     0
102
RTVSPost2010PropOp35
 70
     1
102
RTVSPost2010Prop36
280
     0
102
RTVSPost2010PropOp36
 70
     1
102
RTVSPost2010Prop37
 90
       50
102
RTVSPost2010PropOp37
 70
     1
102
RTVSPost2010Prop38
140
0.0
102
RTVSPost2010PropOp38
 70
     1
102
RTVSPost2010Prop39
140
1.0
102
RTVSPost2010PropOp39
 70
     1
102
RTVSPost2010Prop40
 90
        0
102
RTVSPost2010PropOp40
 70
     1
102
RTVSPost2010Prop41ColorIndex
 90
      178
102
RTVSPost2010Prop41ColorRGB
 90
        0
102
RTVSPost2010PropOp41
 70
     1
102
RTVSPost2010Prop42
 90
       50
102
RTVSPost2010PropOp42
 70
     1
102
RTVSPost2010Prop43
 90
        3
102
RTVSPost2010PropOp43
 70
     1
102
RTVSPost2010Prop44ColorIndex
 90
        5
102
RTVSPost2010Prop44ColorRGB
 90
      255
102
RTVSPost2010PropOp44
 70
     1
102
RTVSPost2010Prop45
280
     0
102
RTVSPost2010PropOp45
 70
     1
102
RTVSPost2010Prop46
 90
       50
102
RTVSPost2010PropOp46
 70
     1
102
RTVSPost2010Prop47
 90
       50
102
RTVSPost2010PropOp47
 70
     1
102
RTVSPost2010Prop48
 90
       50
102
RTVSPost2010PropOp48
 70
     1
102
RTVSPost2010Prop49
280
     0
102
RTVSPost2010PropOp49
 70
     1
102
RTVSPost2010Prop50
 90
       50
102
RTVSPost2010PropOp50
 70
     1
102
RTVSPost2010Prop51ColorIndex
 90
      256
102
RTVSPost2010Prop51ColorRGB
 90
-16777216
102
RTVSPost2010PropOp51
 70
     0
102
RTVSPost2010Prop52
140
1.0
102
RTVSPost2010PropOp52
 70
     0
102
RTVSPost2010Prop53
 90
        2
102
RTVSPost2010PropOp53
 70
     1
102
RTVSPost2010Prop54
  1
strokes_ogs.tif
102
RTVSPost2010PropOp54
 70
     1
102
RTVSPost2010Prop55
280
     0
102
RTVSPost2010PropOp55
 70
     1
102
RTVSPost2010Prop56
140
1.0
102
RTVSPost2010PropOp56
 70
     1
102
RTVSPost2010Prop57
140
1.0
102
RTVSPost2010PropOp57
 70
     1
  0
XRECORD
  5
31A
102
{ACAD_REACTORS
330
319
102
}
330
319
100
AcDbXrecord
280
     1
102
RTVSPropertyOp0
 70
     1
102
RTVSPropertyOp1
 70
     1
102
RTVSPropertyOp2
 70
     1
102
RTVSPropertyOp3
 70
     1
102
RTVSPropertyOp4
 70
     1
102
RTVSPropertyOp5
 70
     1
102
RTVSPropertyOp6
 70
     1
102
RTVSPropertyOp7
 70
     1
102
RTVSPropertyOp8
 70
     1
102
RTVSPropertyOp9
 70
     1
102
RTVSPropertyOp10
 70
     1
102
RTVSPropertyOp11
 70
     1
102
RTVSPropertyOp12
 70
     1
102
RTVSPropertyOp13
 70
     1
102
RTVSPropertyOp14
 70
     1
102
RTVSPropertyOp15
 70
     1
102
RTVSPropertyOp16
 70
     1
102
RTVSPropertyOp17
 70
     1
102
RTVSPropertyOp18
 70
     1
102
RTVSPropertyOp19
 70
     1
102
RTVSPropertyOp20
 70
     1
102
RTVSPropertyOp21
 70
     1
102
RTVSPropertyOp22
 70
     1
102
RTVSPropertyOp23
 70
     1
102
RTVSPropertyOp24
 70
     1
102
RTVSPropertyOp25
 70
     1
102
RTVSPropertyOp26
 70
     1
102
RTVSPropertyOp27
 70
     1
102
RTVSPropertyOp28
 70
     1
102
RTVSPropertyOp29
 70
     1
102
RTVSPropertyOp30
 70
     1
102
RTVSPropertyOp31
 70
     1
102
RTVSPropertyOp32
 70
     1
102
RTVSPropertyOp33
 70
     1
102
RTVSPropertyOp34
 70
     1
102
RTVSPropertyOp35
 70
     1
102
RTVSPropertyOp36
 70
     1
102
RTVSPropertyOp37
 70
     1
102
RTVSPropertyOp38
 70
     1
102
RTVSPropertyOp39
 70
     1
102
RTVSPropertyOp40
 70
     1
102
RTVSPropertyOp41
 70
     1
102
RTVSPropertyOp42
 70
     1
102
RTVSPropertyOp43
 70
     1
102
RTVSPropertyOp44
 70
     1
102
RTVSPropertyOp45
 70
     1
102
RTVSPropertyOp46
 70
     1
102
RTVSPropertyOp47
 70
     1
102
RTVSPropertyOp48
 70
     1
102
RTVSPropertyOp49
 70
     1
102
RTVSPropertyOp50
 70
     1
102
RTVSPropertyOp51
 70
     0
102
RTVSPropertyOp52
 70
     0
102
RTVSPropertyOp53
 70
     1
102
RTVSPropertyOp54
 70
     1
102
RTVSPropertyOp55
 70
     1
102
RTVSPropertyOp56
 70
     1
102
RTVSPropertyOp57
 70
     1
102
RTVSPost2010Prop28
280
     0
102
RTVSPost2010PropOp28
 70
     1
102
RTVSPost2010Prop29
280
     1
102
RTVSPost2010PropOp29
 70
     1
102
RTVSPost2010Prop30
280
     1
102
RTVSPost2010PropOp30
 70
     1
102
RTVSPost2010Prop31
280
     0
102
RTVSPost2010PropOp31
 70
     1
102
RTVSPost2010Prop32
280
     0
102
RTVSPost2010PropOp32
 70
     1
102
RTVSPost2010Prop33
280
     0
102
RTVSPost2010PropOp33
 70
     1
102
RTVSPost2010Prop34
280
     0
102
RTVSPost2010PropOp34
 70
     1
102
RTVSPost2010Prop35
280
     0
102
RTVSPost2010PropOp35
 70
     1
102
RTVSPost2010Prop36
280
     0
102
RTVSPost2010PropOp36
 70
     1
102
RTVSPost2010Prop37
 90
       50
102
RTVSPost2010PropOp37
 70
     1
102
RTVSPost2010Prop38
140
0.0
102
RTVSPost2010PropOp38
 70
     1
102
RTVSPost2010Prop39
140
1.0
102
RTVSPost2010PropOp39
 70
     1
102
RTVSPost2010Prop40
 90
        0
102
RTVSPost2010PropOp40
 70
     1
102
RTVSPost2010Prop41ColorIndex
 90
      178
102
RTVSPost2010Prop41ColorRGB
 90
        0
102
RTVSPost2010PropOp41
 70
     1
102
RTVSPost2010Prop42
 90
       50
102
RTVSPost2010PropOp42
 70
     1
102
RTVSPost2010Prop43
 90
        3
102
RTVSPost2010PropOp43
 70
     1
102
RTVSPost2010Prop44ColorIndex
 90
        5
102
RTVSPost2010Prop44ColorRGB
 90
      255
102
RTVSPost2010PropOp44
 70
     1
102
RTVSPost2010Prop45
280
     0
102
RTVSPost2010PropOp45
 70
     1
102
RTVSPost2010Prop46
 90
       50
102
RTVSPost2010PropOp46
 70
     1
102
RTVSPost2010Prop47
 90
       50
102
RTVSPost2010PropOp47
 70
     1
102
RTVSPost2010Prop48
 90
       50
102
RTVSPost2010PropOp48
 70
     1
102
RTVSPost2010Prop49
280
     0
102
RTVSPost2010PropOp49
 70
     1
102
RTVSPost2010Prop50
 90
       50
102
RTVSPost2010PropOp50
 70
     1
102
RTVSPost2010Prop51ColorIndex
 90
      256
102
RTVSPost2010Prop51ColorRGB
 90
-16777216
102
RTVSPost2010PropOp51
 70
     0
102
RTVSPost2010Prop52
140
1.0
102
RTVSPost2010PropOp52
 70
     0
102
RTVSPost2010Prop53
 90
        2
102
RTVSPost2010PropOp53
 70
     1
102
RTVSPost2010Prop54
  1
strokes_ogs.tif
102
RTVSPost2010PropOp54
 70
     1
102
RTVSPost2010Prop55
280
     0
102
RTVSPost2010PropOp55
 70
     1
102
RTVSPost2010Prop56
140
1.0
102
RTVSPost2010PropOp56
 70
     1
102
RTVSPost2010Prop57
140
1.0
102
RTVSPost2010PropOp57
 70
     1
  0
XRECORD
  5
31C
102
{ACAD_REACTORS
330
31B
102
}
330
31B
100
AcDbXrecord
280
     1
102
RTVSPropertyOp0
 70
     1
102
RTVSPropertyOp1
 70
     1
102
RTVSPropertyOp2
 70
     1
102
RTVSPropertyOp3
 70
     1
102
RTVSPropertyOp4
 70
     1
102
RTVSPropertyOp5
 70
     1
102
RTVSPropertyOp6
 70
     1
102
RTVSPropertyOp7
 70
     1
102
RTVSPropertyOp8
 70
     1
102
RTVSPropertyOp9
 70
     1
102
RTVSPropertyOp10
 70
     1
102
RTVSPropertyOp11
 70
     1
102
RTVSPropertyOp12
 70
     1
102
RTVSPropertyOp13
 70
     1
102
RTVSPropertyOp14
 70
     1
102
RTVSPropertyOp15
 70
     1
102
RTVSPropertyOp16
 70
     1
102
RTVSPropertyOp17
 70
     1
102
RTVSPropertyOp18
 70
     1
102
RTVSPropertyOp19
 70
     1
102
RTVSPropertyOp20
 70
     1
102
RTVSPropertyOp21
 70
     1
102
RTVSPropertyOp22
 70
     1
102
RTVSPropertyOp23
 70
     1
102
RTVSPropertyOp24
 70
     1
102
RTVSPropertyOp25
 70
     1
102
RTVSPropertyOp26
 70
     1
102
RTVSPropertyOp27
 70
     1
102
RTVSPropertyOp28
 70
     1
102
RTVSPropertyOp29
 70
     1
102
RTVSPropertyOp30
 70
     1
102
RTVSPropertyOp31
 70
     1
102
RTVSPropertyOp32
 70
     1
102
RTVSPropertyOp33
 70
     1
102
RTVSPropertyOp34
 70
     1
102
RTVSPropertyOp35
 70
     1
102
RTVSPropertyOp36
 70
     1
102
RTVSPropertyOp37
 70
     1
102
RTVSPropertyOp38
 70
     1
102
RTVSPropertyOp39
 70
     1
102
RTVSPropertyOp40
 70
     1
102
RTVSPropertyOp41
 70
     1
102
RTVSPropertyOp42
 70
     1
102
RTVSPropertyOp43
 70
     1
102
RTVSPropertyOp44
 70
     1
102
RTVSPropertyOp45
 70
     1
102
RTVSPropertyOp46
 70
     1
102
RTVSPropertyOp47
 70
     1
102
RTVSPropertyOp48
 70
     1
102
RTVSPropertyOp49
 70
     1
102
RTVSPropertyOp50
 70
     1
102
RTVSPropertyOp51
 70
     0
102
RTVSPropertyOp52
 70
     0
102
RTVSPropertyOp53
 70
     1
102
RTVSPropertyOp54
 70
     1
102
RTVSPropertyOp55
 70
     1
102
RTVSPropertyOp56
 70
     1
102
RTVSPropertyOp57
 70
     1
102
RTVSPost2010Prop28
280
     0
102
RTVSPost2010PropOp28
 70
     1
102
RTVSPost2010Prop29
280
     1
102
RTVSPost2010PropOp29
 70
     1
102
RTVSPost2010Prop30
280
     1
102
RTVSPost2010PropOp30
 70
     1
102
RTVSPost2010Prop31
280
     0
102
RTVSPost2010PropOp31
 70
     1
102
RTVSPost2010Prop32
280
     0
102
RTVSPost2010PropOp32
 70
     1
102
RTVSPost2010Prop33
280
     0
102
RTVSPost2010PropOp33
 70
     1
102
RTVSPost2010Prop34
280
     0
102
RTVSPost2010PropOp34
 70
     1
102
RTVSPost2010Prop35
280
     0
102
RTVSPost2010PropOp35
 70
     1
102
RTVSPost2010Prop36
280
     0
102
RTVSPost2010PropOp36
 70
     1
102
RTVSPost2010Prop37
 90
       50
102
RTVSPost2010PropOp37
 70
     1
102
RTVSPost2010Prop38
140
0.0
102
RTVSPost2010PropOp38
 70
     1
102
RTVSPost2010Prop39
140
1.0
102
RTVSPost2010PropOp39
 70
     1
102
RTVSPost2010Prop40
 90
        0
102
RTVSPost2010PropOp40
 70
     1
102
RTVSPost2010Prop41ColorIndex
 90
      178
102
RTVSPost2010Prop41ColorRGB
 90
        0
102
RTVSPost2010PropOp41
 70
     1
102
RTVSPost2010Prop42
 90
       50
102
RTVSPost2010PropOp42
 70
     1
102
RTVSPost2010Prop43
 90
        3
102
RTVSPost2010PropOp43
 70
     1
102
RTVSPost2010Prop44ColorIndex
 90
        5
102
RTVSPost2010Prop44ColorRGB
 90
      255
102
RTVSPost2010PropOp44
 70
     1
102
RTVSPost2010Prop45
280
     0
102
RTVSPost2010PropOp45
 70
     1
102
RTVSPost2010Prop46
 90
       50
102
RTVSPost2010PropOp46
 70
     1
102
RTVSPost2010Prop47
 90
       50
102
RTVSPost2010PropOp47
 70
     1
102
RTVSPost2010Prop48
 90
       50
102
RTVSPost2010PropOp48
 70
     1
102
RTVSPost2010Prop49
280
     0
102
RTVSPost2010PropOp49
 70
     1
102
RTVSPost2010Prop50
 90
       50
102
RTVSPost2010PropOp50
 70
     1
102
RTVSPost2010Prop51ColorIndex
 90
      256
102
RTVSPost2010Prop51ColorRGB
 90
-16777216
102
RTVSPost2010PropOp51
 70
     0
102
RTVSPost2010Prop52
140
1.0
102
RTVSPost2010PropOp52
 70
     0
102
RTVSPost2010Prop53
 90
        2
102
RTVSPost2010PropOp53
 70
     1
102
RTVSPost2010Prop54
  1
strokes_ogs.tif
102
RTVSPost2010PropOp54
 70
     1
102
RTVSPost2010Prop55
280
     0
102
RTVSPost2010PropOp55
 70
     1
102
RTVSPost2010Prop56
140
1.0
102
RTVSPost2010PropOp56
 70
     1
102
RTVSPost2010Prop57
140
1.0
102
RTVSPost2010PropOp57
 70
     1
  0
XRECORD
  5
322
102
{ACAD_REACTORS
330
321
102
}
330
321
100
AcDbXrecord
280
     1
102
RTVSPropertyOp0
 70
     1
102
RTVSPropertyOp1
 70
     1
102
RTVSPropertyOp2
 70
     1
102
RTVSPropertyOp3
 70
     1
102
RTVSPropertyOp4
 70
     1
102
RTVSPropertyOp5
 70
     1
102
RTVSPropertyOp6
 70
     1
102
RTVSPropertyOp7
 70
     1
102
RTVSPropertyOp8
 70
     1
102
RTVSPropertyOp9
 70
     1
102
RTVSPropertyOp10
 70
     1
102
RTVSPropertyOp11
 70
     1
102
RTVSPropertyOp12
 70
     1
102
RTVSPropertyOp13
 70
     1
102
RTVSPropertyOp14
 70
     1
102
RTVSPropertyOp15
 70
     1
102
RTVSPropertyOp16
 70
     1
102
RTVSPropertyOp17
 70
     1
102
RTVSPropertyOp18
 70
     1
102
RTVSPropertyOp19
 70
     1
102
RTVSPropertyOp20
 70
     1
102
RTVSPropertyOp21
 70
     1
102
RTVSPropertyOp22
 70
     1
102
RTVSPropertyOp23
 70
     1
102
RTVSPropertyOp24
 70
     1
102
RTVSPropertyOp25
 70
     1
102
RTVSPropertyOp26
 70
     1
102
RTVSPropertyOp27
 70
     1
102
RTVSPropertyOp28
 70
     1
102
RTVSPropertyOp29
 70
     1
102
RTVSPropertyOp30
 70
     1
102
RTVSPropertyOp31
 70
     1
102
RTVSPropertyOp32
 70
     1
102
RTVSPropertyOp33
 70
     1
102
RTVSPropertyOp34
 70
     1
102
RTVSPropertyOp35
 70
     1
102
RTVSPropertyOp36
 70
     1
102
RTVSPropertyOp37
 70
     1
102
RTVSPropertyOp38
 70
     1
102
RTVSPropertyOp39
 70
     1
102
RTVSPropertyOp40
 70
     1
102
RTVSPropertyOp41
 70
     1
102
RTVSPropertyOp42
 70
     1
102
RTVSPropertyOp43
 70
     1
102
RTVSPropertyOp44
 70
     1
102
RTVSPropertyOp45
 70
     1
102
RTVSPropertyOp46
 70
     1
102
RTVSPropertyOp47
 70
     1
102
RTVSPropertyOp48
 70
     1
102
RTVSPropertyOp49
 70
     1
102
RTVSPropertyOp50
 70
     1
102
RTVSPropertyOp51
 70
     0
102
RTVSPropertyOp52
 70
     0
102
RTVSPropertyOp53
 70
     1
102
RTVSPropertyOp54
 70
     1
102
RTVSPropertyOp55
 70
     1
102
RTVSPropertyOp56
 70
     1
102
RTVSPropertyOp57
 70
     1
102
RTVSPost2010Prop28
280
     0
102
RTVSPost2010PropOp28
 70
     1
102
RTVSPost2010Prop29
280
     1
102
RTVSPost2010PropOp29
 70
     1
102
RTVSPost2010Prop30
280
     1
102
RTVSPost2010PropOp30
 70
     1
102
RTVSPost2010Prop31
280
     0
102
RTVSPost2010PropOp31
 70
     1
102
RTVSPost2010Prop32
280
     0
102
RTVSPost2010PropOp32
 70
     1
102
RTVSPost2010Prop33
280
     0
102
RTVSPost2010PropOp33
 70
     1
102
RTVSPost2010Prop34
280
     0
102
RTVSPost2010PropOp34
 70
     1
102
RTVSPost2010Prop35
280
     0
102
RTVSPost2010PropOp35
 70
     1
102
RTVSPost2010Prop36
280
     0
102
RTVSPost2010PropOp36
 70
     1
102
RTVSPost2010Prop37
 90
       50
102
RTVSPost2010PropOp37
 70
     1
102
RTVSPost2010Prop38
140
0.0
102
RTVSPost2010PropOp38
 70
     1
102
RTVSPost2010Prop39
140
1.0
102
RTVSPost2010PropOp39
 70
     1
102
RTVSPost2010Prop40
 90
        0
102
RTVSPost2010PropOp40
 70
     1
102
RTVSPost2010Prop41ColorIndex
 90
      178
102
RTVSPost2010Prop41ColorRGB
 90
        0
102
RTVSPost2010PropOp41
 70
     1
102
RTVSPost2010Prop42
 90
       50
102
RTVSPost2010PropOp42
 70
     1
102
RTVSPost2010Prop43
 90
        3
102
RTVSPost2010PropOp43
 70
     1
102
RTVSPost2010Prop44ColorIndex
 90
        5
102
RTVSPost2010Prop44ColorRGB
 90
      255
102
RTVSPost2010PropOp44
 70
     1
102
RTVSPost2010Prop45
280
     0
102
RTVSPost2010PropOp45
 70
     1
102
RTVSPost2010Prop46
 90
       50
102
RTVSPost2010PropOp46
 70
     1
102
RTVSPost2010Prop47
 90
       50
102
RTVSPost2010PropOp47
 70
     1
102
RTVSPost2010Prop48
 90
       50
102
RTVSPost2010PropOp48
 70
     1
102
RTVSPost2010Prop49
280
     0
102
RTVSPost2010PropOp49
 70
     1
102
RTVSPost2010Prop50
 90
       50
102
RTVSPost2010PropOp50
 70
     1
102
RTVSPost2010Prop51ColorIndex
 90
      256
102
RTVSPost2010Prop51ColorRGB
 90
-16777216
102
RTVSPost2010PropOp51
 70
     0
102
RTVSPost2010Prop52
140
1.0
102
RTVSPost2010PropOp52
 70
     0
102
RTVSPost2010Prop53
 90
        2
102
RTVSPost2010PropOp53
 70
     1
102
RTVSPost2010Prop54
  1
strokes_ogs.tif
102
RTVSPost2010PropOp54
 70
     1
102
RTVSPost2010Prop55
280
     0
102
RTVSPost2010PropOp55
 70
     1
102
RTVSPost2010Prop56
140
1.0
102
RTVSPost2010PropOp56
 70
     1
102
RTVSPost2010Prop57
140
1.0
102
RTVSPost2010PropOp57
 70
     1
  0
XRECORD
  5
336
102
{ACAD_REACTORS
330
335
102
}
330
335
100
AcDbXrecord
280
     1
102
RTVSPropertyOp0
 70
     0
102
RTVSPropertyOp1
 70
     0
102
RTVSPropertyOp2
 70
     0
102
RTVSPropertyOp3
 70
     0
102
RTVSPropertyOp4
 70
     0
102
RTVSPropertyOp5
 70
     0
102
RTVSPropertyOp6
 70
     0
102
RTVSPropertyOp7
 70
     0
102
RTVSPropertyOp8
 70
     0
102
RTVSPropertyOp9
 70
     0
102
RTVSPropertyOp10
 70
     0
102
RTVSPropertyOp11
 70
     0
102
RTVSPropertyOp12
 70
     0
102
RTVSPropertyOp13
 70
     0
102
RTVSPropertyOp14
 70
     2
102
RTVSPropertyOp15
 70
     0
102
RTVSPropertyOp16
 70
     0
102
RTVSPropertyOp17
 70
     0
102
RTVSPropertyOp18
 70
     0
102
RTVSPropertyOp19
 70
     0
102
RTVSPropertyOp20
 70
     0
102
RTVSPropertyOp21
 70
     0
102
RTVSPropertyOp22
 70
     0
102
RTVSPropertyOp23
 70
     0
102
RTVSPropertyOp24
 70
     0
102
RTVSPropertyOp25
 70
     0
102
RTVSPropertyOp26
 70
     0
102
RTVSPropertyOp27
 70
     0
102
RTVSPropertyOp28
 70
     0
102
RTVSPropertyOp29
 70
     0
102
RTVSPropertyOp30
 70
     0
102
RTVSPropertyOp31
 70
     0
102
RTVSPropertyOp32
 70
     0
102
RTVSPropertyOp33
 70
     0
102
RTVSPropertyOp34
 70
     0
102
RTVSPropertyOp35
 70
     0
102
RTVSPropertyOp36
 70
     0
102
RTVSPropertyOp37
 70
     0
102
RTVSPropertyOp38
 70
     0
102
RTVSPropertyOp39
 70
     0
102
RTVSPropertyOp40
 70
     0
102
RTVSPropertyOp41
 70
     0
102
RTVSPropertyOp42
 70
     0
102
RTVSPropertyOp43
 70
     0
102
RTVSPropertyOp44
 70
     0
102
RTVSPropertyOp45
 70
     0
102
RTVSPropertyOp46
 70
     0
102
RTVSPropertyOp47
 70
     0
102
RTVSPropertyOp48
 70
     0
102
RTVSPropertyOp49
 70
     0
102
RTVSPropertyOp50
 70
     0
102
RTVSPropertyOp51
 70
     0
102
RTVSPropertyOp52
 70
     0
102
RTVSPropertyOp53
 70
     0
102
RTVSPropertyOp54
 70
     0
102
RTVSPropertyOp55
 70
     0
102
RTVSPropertyOp56
 70
     0
102
RTVSPropertyOp57
 70
     0
102
RTVSPost2010Prop28
280
     0
102
RTVSPost2010PropOp28
 70
     0
102
RTVSPost2010Prop29
280
     1
102
RTVSPost2010PropOp29
 70
     0
102
RTVSPost2010Prop30
280
     1
102
RTVSPost2010PropOp30
 70
     0
102
RTVSPost2010Prop31
280
     0
102
RTVSPost2010PropOp31
 70
     0
102
RTVSPost2010Prop32
280
     0
102
RTVSPost2010PropOp32
 70
     0
102
RTVSPost2010Prop33
280
     0
102
RTVSPost2010PropOp33
 70
     0
102
RTVSPost2010Prop34
280
     0
102
RTVSPost2010PropOp34
 70
     0
102
RTVSPost2010Prop35
280
     0
102
RTVSPost2010PropOp35
 70
     0
102
RTVSPost2010Prop36
280
     0
102
RTVSPost2010PropOp36
 70
     0
102
RTVSPost2010Prop37
 90
       50
102
RTVSPost2010PropOp37
 70
     0
102
RTVSPost2010Prop38
140
0.0
102
RTVSPost2010PropOp38
 70
     0
102
RTVSPost2010Prop39
140
1.0
102
RTVSPost2010PropOp39
 70
     0
102
RTVSPost2010Prop40
 90
        0
102
RTVSPost2010PropOp40
 70
     0
102
RTVSPost2010Prop41ColorIndex
 90
      178
102
RTVSPost2010Prop41ColorRGB
 90
        0
102
RTVSPost2010PropOp41
 70
     0
102
RTVSPost2010Prop42
 90
       50
102
RTVSPost2010PropOp42
 70
     0
102
RTVSPost2010Prop43
 90
        3
102
RTVSPost2010PropOp43
 70
     0
102
RTVSPost2010Prop44ColorIndex
 90
        5
102
RTVSPost2010Prop44ColorRGB
 90
      255
102
RTVSPost2010PropOp44
 70
     0
102
RTVSPost2010Prop45
280
     0
102
RTVSPost2010PropOp45
 70
     0
102
RTVSPost2010Prop46
 90
       50
102
RTVSPost2010PropOp46
 70
     0
102
RTVSPost2010Prop47
 90
       50
102
RTVSPost2010PropOp47
 70
     0
102
RTVSPost2010Prop48
 90
       50
102
RTVSPost2010PropOp48
 70
     0
102
RTVSPost2010Prop49
280
     0
102
RTVSPost2010PropOp49
 70
     0
102
RTVSPost2010Prop50
 90
       50
102
RTVSPost2010PropOp50
 70
     0
102
RTVSPost2010Prop51ColorIndex
 90
      256
102
RTVSPost2010Prop51ColorRGB
 90
-16777216
102
RTVSPost2010PropOp51
 70
     0
102
RTVSPost2010Prop52
140
1.0
102
RTVSPost2010PropOp52
 70
     0
102
RTVSPost2010Prop53
 90
        2
102
RTVSPost2010PropOp53
 70
     0
102
RTVSPost2010Prop54
  1
strokes_ogs.tif
102
RTVSPost2010PropOp54
 70
     0
102
RTVSPost2010Prop55
280
     0
102
RTVSPost2010PropOp55
 70
     0
102
RTVSPost2010Prop56
140
1.0
102
RTVSPost2010PropOp56
 70
     0
102
RTVSPost2010Prop57
140
1.0
102
RTVSPost2010PropOp57
 70
     0
  0
XRECORD
  5
330
102
{ACAD_REACTORS
330
32F
102
}
330
32F
100
AcDbXrecord
280
     1
102
RTVSPropertyOp0
 70
     1
102
RTVSPropertyOp1
 70
     1
102
RTVSPropertyOp2
 70
     1
102
RTVSPropertyOp3
 70
     1
102
RTVSPropertyOp4
 70
     1
102
RTVSPropertyOp5
 70
     1
102
RTVSPropertyOp6
 70
     1
102
RTVSPropertyOp7
 70
     1
102
RTVSPropertyOp8
 70
     1
102
RTVSPropertyOp9
 70
     1
102
RTVSPropertyOp10
 70
     1
102
RTVSPropertyOp11
 70
     1
102
RTVSPropertyOp12
 70
     1
102
RTVSPropertyOp13
 70
     1
102
RTVSPropertyOp14
 70
     1
102
RTVSPropertyOp15
 70
     1
102
RTVSPropertyOp16
 70
     1
102
RTVSPropertyOp17
 70
     1
102
RTVSPropertyOp18
 70
     1
102
RTVSPropertyOp19
 70
     1
102
RTVSPropertyOp20
 70
     1
102
RTVSPropertyOp21
 70
     1
102
RTVSPropertyOp22
 70
     1
102
RTVSPropertyOp23
 70
     1
102
RTVSPropertyOp24
 70
     1
102
RTVSPropertyOp25
 70
     1
102
RTVSPropertyOp26
 70
     1
102
RTVSPropertyOp27
 70
     1
102
RTVSPropertyOp28
 70
     1
102
RTVSPropertyOp29
 70
     1
102
RTVSPropertyOp30
 70
     1
102
RTVSPropertyOp31
 70
     1
102
RTVSPropertyOp32
 70
     1
102
RTVSPropertyOp33
 70
     1
102
RTVSPropertyOp34
 70
     1
102
RTVSPropertyOp35
 70
     1
102
RTVSPropertyOp36
 70
     1
102
RTVSPropertyOp37
 70
     1
102
RTVSPropertyOp38
 70
     1
102
RTVSPropertyOp39
 70
     1
102
RTVSPropertyOp40
 70
     1
102
RTVSPropertyOp41
 70
     1
102
RTVSPropertyOp42
 70
     1
102
RTVSPropertyOp43
 70
     1
102
RTVSPropertyOp44
 70
     1
102
RTVSPropertyOp45
 70
     1
102
RTVSPropertyOp46
 70
     1
102
RTVSPropertyOp47
 70
     1
102
RTVSPropertyOp48
 70
     1
102
RTVSPropertyOp49
 70
     1
102
RTVSPropertyOp50
 70
     1
102
RTVSPropertyOp51
 70
     0
102
RTVSPropertyOp52
 70
     0
102
RTVSPropertyOp53
 70
     1
102
RTVSPropertyOp54
 70
     1
102
RTVSPropertyOp55
 70
     1
102
RTVSPropertyOp56
 70
     1
102
RTVSPropertyOp57
 70
     1
102
RTVSPost2010Prop28
280
     0
102
RTVSPost2010PropOp28
 70
     1
102
RTVSPost2010Prop29
280
     1
102
RTVSPost2010PropOp29
 70
     1
102
RTVSPost2010Prop30
280
     1
102
RTVSPost2010PropOp30
 70
     1
102
RTVSPost2010Prop31
280
     0
102
RTVSPost2010PropOp31
 70
     1
102
RTVSPost2010Prop32
280
     0
102
RTVSPost2010PropOp32
 70
     1
102
RTVSPost2010Prop33
280
     0
102
RTVSPost2010PropOp33
 70
     1
102
RTVSPost2010Prop34
280
     0
102
RTVSPost2010PropOp34
 70
     1
102
RTVSPost2010Prop35
280
     0
102
RTVSPost2010PropOp35
 70
     1
102
RTVSPost2010Prop36
280
     0
102
RTVSPost2010PropOp36
 70
     1
102
RTVSPost2010Prop37
 90
       50
102
RTVSPost2010PropOp37
 70
     1
102
RTVSPost2010Prop38
140
0.0
102
RTVSPost2010PropOp38
 70
     1
102
RTVSPost2010Prop39
140
1.0
102
RTVSPost2010PropOp39
 70
     1
102
RTVSPost2010Prop40
 90
        0
102
RTVSPost2010PropOp40
 70
     1
102
RTVSPost2010Prop41ColorIndex
 90
      178
102
RTVSPost2010Prop41ColorRGB
 90
        0
102
RTVSPost2010PropOp41
 70
     1
102
RTVSPost2010Prop42
 90
       50
102
RTVSPost2010PropOp42
 70
     1
102
RTVSPost2010Prop43
 90
        3
102
RTVSPost2010PropOp43
 70
     1
102
RTVSPost2010Prop44ColorIndex
 90
        5
102
RTVSPost2010Prop44ColorRGB
 90
      255
102
RTVSPost2010PropOp44
 70
     1
102
RTVSPost2010Prop45
280
     0
102
RTVSPost2010PropOp45
 70
     1
102
RTVSPost2010Prop46
 90
       50
102
RTVSPost2010PropOp46
 70
     1
102
RTVSPost2010Prop47
 90
       50
102
RTVSPost2010PropOp47
 70
     1
102
RTVSPost2010Prop48
 90
       50
102
RTVSPost2010PropOp48
 70
     1
102
RTVSPost2010Prop49
280
     0
102
RTVSPost2010PropOp49
 70
     1
102
RTVSPost2010Prop50
 90
       50
102
RTVSPost2010PropOp50
 70
     1
102
RTVSPost2010Prop51ColorIndex
 90
      256
102
RTVSPost2010Prop51ColorRGB
 90
-16777216
102
RTVSPost2010PropOp51
 70
     0
102
RTVSPost2010Prop52
140
1.0
102
RTVSPost2010PropOp52
 70
     0
102
RTVSPost2010Prop53
 90
        2
102
RTVSPost2010PropOp53
 70
     1
102
RTVSPost2010Prop54
  1
strokes_ogs.tif
102
RTVSPost2010PropOp54
 70
     1
102
RTVSPost2010Prop55
280
     0
102
RTVSPost2010PropOp55
 70
     1
102
RTVSPost2010Prop56
140
1.0
102
RTVSPost2010PropOp56
 70
     1
102
RTVSPost2010Prop57
140
1.0
102
RTVSPost2010PropOp57
 70
     1
  0
XRECORD
  5
338
102
{ACAD_REACTORS
330
337
102
}
330
337
100
AcDbXrecord
280
     1
102
RTVSPropertyOp0
 70
     0
102
RTVSPropertyOp1
 70
     0
102
RTVSPropertyOp2
 70
     0
102
RTVSPropertyOp3
 70
     0
102
RTVSPropertyOp4
 70
     0
102
RTVSPropertyOp5
 70
     0
102
RTVSPropertyOp6
 70
     0
102
RTVSPropertyOp7
 70
     0
102
RTVSPropertyOp8
 70
     0
102
RTVSPropertyOp9
 70
     0
102
RTVSPropertyOp10
 70
     0
102
RTVSPropertyOp11
 70
     0
102
RTVSPropertyOp12
 70
     0
102
RTVSPropertyOp13
 70
     0
102
RTVSPropertyOp14
 70
     2
102
RTVSPropertyOp15
 70
     0
102
RTVSPropertyOp16
 70
     0
102
RTVSPropertyOp17
 70
     0
102
RTVSPropertyOp18
 70
     0
102
RTVSPropertyOp19
 70
     0
102
RTVSPropertyOp20
 70
     0
102
RTVSPropertyOp21
 70
     0
102
RTVSPropertyOp22
 70
     0
102
RTVSPropertyOp23
 70
     0
102
RTVSPropertyOp24
 70
     0
102
RTVSPropertyOp25
 70
     0
102
RTVSPropertyOp26
 70
     0
102
RTVSPropertyOp27
 70
     0
102
RTVSPropertyOp28
 70
     0
102
RTVSPropertyOp29
 70
     0
102
RTVSPropertyOp30
 70
     0
102
RTVSPropertyOp31
 70
     0
102
RTVSPropertyOp32
 70
     0
102
RTVSPropertyOp33
 70
     0
102
RTVSPropertyOp34
 70
     0
102
RTVSPropertyOp35
 70
     0
102
RTVSPropertyOp36
 70
     0
102
RTVSPropertyOp37
 70
     0
102
RTVSPropertyOp38
 70
     0
102
RTVSPropertyOp39
 70
     0
102
RTVSPropertyOp40
 70
     0
102
RTVSPropertyOp41
 70
     0
102
RTVSPropertyOp42
 70
     0
102
RTVSPropertyOp43
 70
     0
102
RTVSPropertyOp44
 70
     0
102
RTVSPropertyOp45
 70
     0
102
RTVSPropertyOp46
 70
     0
102
RTVSPropertyOp47
 70
     0
102
RTVSPropertyOp48
 70
     0
102
RTVSPropertyOp49
 70
     0
102
RTVSPropertyOp50
 70
     0
102
RTVSPropertyOp51
 70
     0
102
RTVSPropertyOp52
 70
     0
102
RTVSPropertyOp53
 70
     0
102
RTVSPropertyOp54
 70
     0
102
RTVSPropertyOp55
 70
     0
102
RTVSPropertyOp56
 70
     0
102
RTVSPropertyOp57
 70
     0
102
RTVSPost2010Prop28
280
     0
102
RTVSPost2010PropOp28
 70
     0
102
RTVSPost2010Prop29
280
     1
102
RTVSPost2010PropOp29
 70
     0
102
RTVSPost2010Prop30
280
     1
102
RTVSPost2010PropOp30
 70
     0
102
RTVSPost2010Prop31
280
     0
102
RTVSPost2010PropOp31
 70
     0
102
RTVSPost2010Prop32
280
     0
102
RTVSPost2010PropOp32
 70
     0
102
RTVSPost2010Prop33
280
     0
102
RTVSPost2010PropOp33
 70
     0
102
RTVSPost2010Prop34
280
     0
102
RTVSPost2010PropOp34
 70
     0
102
RTVSPost2010Prop35
280
     0
102
RTVSPost2010PropOp35
 70
     0
102
RTVSPost2010Prop36
280
     0
102
RTVSPost2010PropOp36
 70
     0
102
RTVSPost2010Prop37
 90
       50
102
RTVSPost2010PropOp37
 70
     0
102
RTVSPost2010Prop38
140
0.0
102
RTVSPost2010PropOp38
 70
     0
102
RTVSPost2010Prop39
140
1.0
102
RTVSPost2010PropOp39
 70
     0
102
RTVSPost2010Prop40
 90
        0
102
RTVSPost2010PropOp40
 70
     0
102
RTVSPost2010Prop41ColorIndex
 90
      178
102
RTVSPost2010Prop41ColorRGB
 90
        0
102
RTVSPost2010PropOp41
 70
     0
102
RTVSPost2010Prop42
 90
       50
102
RTVSPost2010PropOp42
 70
     0
102
RTVSPost2010Prop43
 90
        3
102
RTVSPost2010PropOp43
 70
     0
102
RTVSPost2010Prop44ColorIndex
 90
        5
102
RTVSPost2010Prop44ColorRGB
 90
      255
102
RTVSPost2010PropOp44
 70
     0
102
RTVSPost2010Prop45
280
     0
102
RTVSPost2010PropOp45
 70
     0
102
RTVSPost2010Prop46
 90
       50
102
RTVSPost2010PropOp46
 70
     0
102
RTVSPost2010Prop47
 90
       50
102
RTVSPost2010PropOp47
 70
     0
102
RTVSPost2010Prop48
 90
       50
102
RTVSPost2010PropOp48
 70
     0
102
RTVSPost2010Prop49
280
     0
102
RTVSPost2010PropOp49
 70
     0
102
RTVSPost2010Prop50
 90
       50
102
RTVSPost2010PropOp50
 70
     0
102
RTVSPost2010Prop51ColorIndex
 90
      256
102
RTVSPost2010Prop51ColorRGB
 90
-16777216
102
RTVSPost2010PropOp51
 70
     0
102
RTVSPost2010Prop52
140
1.0
102
RTVSPost2010PropOp52
 70
     0
102
RTVSPost2010Prop53
 90
        2
102
RTVSPost2010PropOp53
 70
     0
102
RTVSPost2010Prop54
  1
strokes_ogs.tif
102
RTVSPost2010PropOp54
 70
     0
102
RTVSPost2010Prop55
280
     0
102
RTVSPost2010PropOp55
 70
     0
102
RTVSPost2010Prop56
140
1.0
102
RTVSPost2010PropOp56
 70
     0
102
RTVSPost2010Prop57
140
1.0
102
RTVSPost2010PropOp57
 70
     0
  0
XRECORD
  5
326
102
{ACAD_REACTORS
330
325
102
}
330
325
100
AcDbXrecord
280
     1
102
RTVSPropertyOp0
 70
     1
102
RTVSPropertyOp1
 70
     1
102
RTVSPropertyOp2
 70
     1
102
RTVSPropertyOp3
 70
     1
102
RTVSPropertyOp4
 70
     1
102
RTVSPropertyOp5
 70
     1
102
RTVSPropertyOp6
 70
     1
102
RTVSPropertyOp7
 70
     1
102
RTVSPropertyOp8
 70
     1
102
RTVSPropertyOp9
 70
     1
102
RTVSPropertyOp10
 70
     1
102
RTVSPropertyOp11
 70
     1
102
RTVSPropertyOp12
 70
     1
102
RTVSPropertyOp13
 70
     1
102
RTVSPropertyOp14
 70
     1
102
RTVSPropertyOp15
 70
     1
102
RTVSPropertyOp16
 70
     1
102
RTVSPropertyOp17
 70
     1
102
RTVSPropertyOp18
 70
     1
102
RTVSPropertyOp19
 70
     1
102
RTVSPropertyOp20
 70
     1
102
RTVSPropertyOp21
 70
     1
102
RTVSPropertyOp22
 70
     1
102
RTVSPropertyOp23
 70
     1
102
RTVSPropertyOp24
 70
     1
102
RTVSPropertyOp25
 70
     1
102
RTVSPropertyOp26
 70
     1
102
RTVSPropertyOp27
 70
     1
102
RTVSPropertyOp28
 70
     1
102
RTVSPropertyOp29
 70
     1
102
RTVSPropertyOp30
 70
     1
102
RTVSPropertyOp31
 70
     1
102
RTVSPropertyOp32
 70
     1
102
RTVSPropertyOp33
 70
     1
102
RTVSPropertyOp34
 70
     1
102
RTVSPropertyOp35
 70
     1
102
RTVSPropertyOp36
 70
     1
102
RTVSPropertyOp37
 70
     1
102
RTVSPropertyOp38
 70
     1
102
RTVSPropertyOp39
 70
     1
102
RTVSPropertyOp40
 70
     1
102
RTVSPropertyOp41
 70
     1
102
RTVSPropertyOp42
 70
     1
102
RTVSPropertyOp43
 70
     1
102
RTVSPropertyOp44
 70
     1
102
RTVSPropertyOp45
 70
     1
102
RTVSPropertyOp46
 70
     1
102
RTVSPropertyOp47
 70
     1
102
RTVSPropertyOp48
 70
     1
102
RTVSPropertyOp49
 70
     1
102
RTVSPropertyOp50
 70
     1
102
RTVSPropertyOp51
 70
     0
102
RTVSPropertyOp52
 70
     0
102
RTVSPropertyOp53
 70
     1
102
RTVSPropertyOp54
 70
     1
102
RTVSPropertyOp55
 70
     1
102
RTVSPropertyOp56
 70
     1
102
RTVSPropertyOp57
 70
     1
102
RTVSPost2010Prop28
280
     0
102
RTVSPost2010PropOp28
 70
     1
102
RTVSPost2010Prop29
280
     1
102
RTVSPost2010PropOp29
 70
     1
102
RTVSPost2010Prop30
280
     1
102
RTVSPost2010PropOp30
 70
     1
102
RTVSPost2010Prop31
280
     0
102
RTVSPost2010PropOp31
 70
     1
102
RTVSPost2010Prop32
280
     0
102
RTVSPost2010PropOp32
 70
     1
102
RTVSPost2010Prop33
280
     0
102
RTVSPost2010PropOp33
 70
     1
102
RTVSPost2010Prop34
280
     0
102
RTVSPost2010PropOp34
 70
     1
102
RTVSPost2010Prop35
280
     0
102
RTVSPost2010PropOp35
 70
     1
102
RTVSPost2010Prop36
280
     0
102
RTVSPost2010PropOp36
 70
     1
102
RTVSPost2010Prop37
 90
       50
102
RTVSPost2010PropOp37
 70
     1
102
RTVSPost2010Prop38
140
0.0
102
RTVSPost2010PropOp38
 70
     1
102
RTVSPost2010Prop39
140
1.0
102
RTVSPost2010PropOp39
 70
     1
102
RTVSPost2010Prop40
 90
        0
102
RTVSPost2010PropOp40
 70
     1
102
RTVSPost2010Prop41ColorIndex
 90
      178
102
RTVSPost2010Prop41ColorRGB
 90
        0
102
RTVSPost2010PropOp41
 70
     1
102
RTVSPost2010Prop42
 90
       50
102
RTVSPost2010PropOp42
 70
     1
102
RTVSPost2010Prop43
 90
        3
102
RTVSPost2010PropOp43
 70
     1
102
RTVSPost2010Prop44ColorIndex
 90
        5
102
RTVSPost2010Prop44ColorRGB
 90
      255
102
RTVSPost2010PropOp44
 70
     1
102
RTVSPost2010Prop45
280
     0
102
RTVSPost2010PropOp45
 70
     1
102
RTVSPost2010Prop46
 90
       50
102
RTVSPost2010PropOp46
 70
     1
102
RTVSPost2010Prop47
 90
       50
102
RTVSPost2010PropOp47
 70
     1
102
RTVSPost2010Prop48
 90
       50
102
RTVSPost2010PropOp48
 70
     1
102
RTVSPost2010Prop49
280
     0
102
RTVSPost2010PropOp49
 70
     1
102
RTVSPost2010Prop50
 90
       50
102
RTVSPost2010PropOp50
 70
     1
102
RTVSPost2010Prop51ColorIndex
 90
      256
102
RTVSPost2010Prop51ColorRGB
 90
-16777216
102
RTVSPost2010PropOp51
 70
     0
102
RTVSPost2010Prop52
140
1.0
102
RTVSPost2010PropOp52
 70
     0
102
RTVSPost2010Prop53
 90
        2
102
RTVSPost2010PropOp53
 70
     1
102
RTVSPost2010Prop54
  1
strokes_ogs.tif
102
RTVSPost2010PropOp54
 70
     1
102
RTVSPost2010Prop55
280
     0
102
RTVSPost2010PropOp55
 70
     1
102
RTVSPost2010Prop56
140
1.0
102
RTVSPost2010PropOp56
 70
     1
102
RTVSPost2010Prop57
140
1.0
102
RTVSPost2010PropOp57
 70
     1
  0
XRECORD
  5
344
102
{ACAD_REACTORS
330
343
102
}
330
343
100
AcDbXrecord
280
     1
102
RTVSPropertyOp0
 70
     1
102
RTVSPropertyOp1
 70
     1
102
RTVSPropertyOp2
 70
     1
102
RTVSPropertyOp3
 70
     1
102
RTVSPropertyOp4
 70
     1
102
RTVSPropertyOp5
 70
     1
102
RTVSPropertyOp6
 70
     1
102
RTVSPropertyOp7
 70
     1
102
RTVSPropertyOp8
 70
     1
102
RTVSPropertyOp9
 70
     1
102
RTVSPropertyOp10
 70
     1
102
RTVSPropertyOp11
 70
     1
102
RTVSPropertyOp12
 70
     1
102
RTVSPropertyOp13
 70
     1
102
RTVSPropertyOp14
 70
     1
102
RTVSPropertyOp15
 70
     1
102
RTVSPropertyOp16
 70
     1
102
RTVSPropertyOp17
 70
     1
102
RTVSPropertyOp18
 70
     1
102
RTVSPropertyOp19
 70
     1
102
RTVSPropertyOp20
 70
     1
102
RTVSPropertyOp21
 70
     1
102
RTVSPropertyOp22
 70
     1
102
RTVSPropertyOp23
 70
     1
102
RTVSPropertyOp24
 70
     1
102
RTVSPropertyOp25
 70
     1
102
RTVSPropertyOp26
 70
     1
102
RTVSPropertyOp27
 70
     1
102
RTVSPropertyOp28
 70
     1
102
RTVSPropertyOp29
 70
     1
102
RTVSPropertyOp30
 70
     1
102
RTVSPropertyOp31
 70
     1
102
RTVSPropertyOp32
 70
     1
102
RTVSPropertyOp33
 70
     1
102
RTVSPropertyOp34
 70
     1
102
RTVSPropertyOp35
 70
     1
102
RTVSPropertyOp36
 70
     1
102
RTVSPropertyOp37
 70
     1
102
RTVSPropertyOp38
 70
     1
102
RTVSPropertyOp39
 70
     1
102
RTVSPropertyOp40
 70
     1
102
RTVSPropertyOp41
 70
     1
102
RTVSPropertyOp42
 70
     1
102
RTVSPropertyOp43
 70
     1
102
RTVSPropertyOp44
 70
     1
102
RTVSPropertyOp45
 70
     1
102
RTVSPropertyOp46
 70
     1
102
RTVSPropertyOp47
 70
     1
102
RTVSPropertyOp48
 70
     1
102
RTVSPropertyOp49
 70
     1
102
RTVSPropertyOp50
 70
     1
102
RTVSPropertyOp51
 70
     0
102
RTVSPropertyOp52
 70
     0
102
RTVSPropertyOp53
 70
     1
102
RTVSPropertyOp54
 70
     1
102
RTVSPropertyOp55
 70
     1
102
RTVSPropertyOp56
 70
     1
102
RTVSPropertyOp57
 70
     1
102
RTVSPost2010Prop28
280
     0
102
RTVSPost2010PropOp28
 70
     1
102
RTVSPost2010Prop29
280
     1
102
RTVSPost2010PropOp29
 70
     1
102
RTVSPost2010Prop30
280
     1
102
RTVSPost2010PropOp30
 70
     1
102
RTVSPost2010Prop31
280
     0
102
RTVSPost2010PropOp31
 70
     1
102
RTVSPost2010Prop32
280
     0
102
RTVSPost2010PropOp32
 70
     1
102
RTVSPost2010Prop33
280
     0
102
RTVSPost2010PropOp33
 70
     1
102
RTVSPost2010Prop34
280
     0
102
RTVSPost2010PropOp34
 70
     1
102
RTVSPost2010Prop35
280
     0
102
RTVSPost2010PropOp35
 70
     1
102
RTVSPost2010Prop36
280
     0
102
RTVSPost2010PropOp36
 70
     1
102
RTVSPost2010Prop37
 90
       50
102
RTVSPost2010PropOp37
 70
     1
102
RTVSPost2010Prop38
140
0.0
102
RTVSPost2010PropOp38
 70
     1
102
RTVSPost2010Prop39
140
1.0
102
RTVSPost2010PropOp39
 70
     1
102
RTVSPost2010Prop40
 90
        0
102
RTVSPost2010PropOp40
 70
     1
102
RTVSPost2010Prop41ColorIndex
 90
      178
102
RTVSPost2010Prop41ColorRGB
 90
        0
102
RTVSPost2010PropOp41
 70
     1
102
RTVSPost2010Prop42
 90
       50
102
RTVSPost2010PropOp42
 70
     1
102
RTVSPost2010Prop43
 90
        3
102
RTVSPost2010PropOp43
 70
     1
102
RTVSPost2010Prop44ColorIndex
 90
        5
102
RTVSPost2010Prop44ColorRGB
 90
      255
102
RTVSPost2010PropOp44
 70
     1
102
RTVSPost2010Prop45
280
     0
102
RTVSPost2010PropOp45
 70
     1
102
RTVSPost2010Prop46
 90
       50
102
RTVSPost2010PropOp46
 70
     1
102
RTVSPost2010Prop47
 90
       50
102
RTVSPost2010PropOp47
 70
     1
102
RTVSPost2010Prop48
 90
       50
102
RTVSPost2010PropOp48
 70
     1
102
RTVSPost2010Prop49
280
     0
102
RTVSPost2010PropOp49
 70
     1
102
RTVSPost2010Prop50
 90
       50
102
RTVSPost2010PropOp50
 70
     1
102
RTVSPost2010Prop51ColorIndex
 90
      256
102
RTVSPost2010Prop51ColorRGB
 90
-16777216
102
RTVSPost2010PropOp51
 70
     0
102
RTVSPost2010Prop52
140
1.0
102
RTVSPost2010PropOp52
 70
     0
102
RTVSPost2010Prop53
 90
        2
102
RTVSPost2010PropOp53
 70
     1
102
RTVSPost2010Prop54
  1
strokes_ogs.tif
102
RTVSPost2010PropOp54
 70
     1
102
RTVSPost2010Prop55
280
     0
102
RTVSPost2010PropOp55
 70
     1
102
RTVSPost2010Prop56
140
1.0
102
RTVSPost2010PropOp56
 70
     1
102
RTVSPost2010Prop57
140
1.0
102
RTVSPost2010PropOp57
 70
     1
  0
XRECORD
  5
342
102
{ACAD_REACTORS
330
341
102
}
330
341
100
AcDbXrecord
280
     1
102
RTVSPropertyOp0
 70
     1
102
RTVSPropertyOp1
 70
     1
102
RTVSPropertyOp2
 70
     1
102
RTVSPropertyOp3
 70
     1
102
RTVSPropertyOp4
 70
     1
102
RTVSPropertyOp5
 70
     1
102
RTVSPropertyOp6
 70
     1
102
RTVSPropertyOp7
 70
     1
102
RTVSPropertyOp8
 70
     1
102
RTVSPropertyOp9
 70
     1
102
RTVSPropertyOp10
 70
     1
102
RTVSPropertyOp11
 70
     1
102
RTVSPropertyOp12
 70
     1
102
RTVSPropertyOp13
 70
     1
102
RTVSPropertyOp14
 70
     1
102
RTVSPropertyOp15
 70
     1
102
RTVSPropertyOp16
 70
     1
102
RTVSPropertyOp17
 70
     1
102
RTVSPropertyOp18
 70
     1
102
RTVSPropertyOp19
 70
     1
102
RTVSPropertyOp20
 70
     1
102
RTVSPropertyOp21
 70
     1
102
RTVSPropertyOp22
 70
     1
102
RTVSPropertyOp23
 70
     1
102
RTVSPropertyOp24
 70
     1
102
RTVSPropertyOp25
 70
     1
102
RTVSPropertyOp26
 70
     1
102
RTVSPropertyOp27
 70
     1
102
RTVSPropertyOp28
 70
     1
102
RTVSPropertyOp29
 70
     1
102
RTVSPropertyOp30
 70
     1
102
RTVSPropertyOp31
 70
     1
102
RTVSPropertyOp32
 70
     1
102
RTVSPropertyOp33
 70
     1
102
RTVSPropertyOp34
 70
     1
102
RTVSPropertyOp35
 70
     1
102
RTVSPropertyOp36
 70
     1
102
RTVSPropertyOp37
 70
     1
102
RTVSPropertyOp38
 70
     1
102
RTVSPropertyOp39
 70
     1
102
RTVSPropertyOp40
 70
     1
102
RTVSPropertyOp41
 70
     1
102
RTVSPropertyOp42
 70
     1
102
RTVSPropertyOp43
 70
     1
102
RTVSPropertyOp44
 70
     1
102
RTVSPropertyOp45
 70
     1
102
RTVSPropertyOp46
 70
     1
102
RTVSPropertyOp47
 70
     1
102
RTVSPropertyOp48
 70
     1
102
RTVSPropertyOp49
 70
     1
102
RTVSPropertyOp50
 70
     1
102
RTVSPropertyOp51
 70
     0
102
RTVSPropertyOp52
 70
     0
102
RTVSPropertyOp53
 70
     1
102
RTVSPropertyOp54
 70
     1
102
RTVSPropertyOp55
 70
     1
102
RTVSPropertyOp56
 70
     1
102
RTVSPropertyOp57
 70
     1
102
RTVSPost2010Prop28
280
     0
102
RTVSPost2010PropOp28
 70
     1
102
RTVSPost2010Prop29
280
     1
102
RTVSPost2010PropOp29
 70
     1
102
RTVSPost2010Prop30
280
     1
102
RTVSPost2010PropOp30
 70
     1
102
RTVSPost2010Prop31
280
     0
102
RTVSPost2010PropOp31
 70
     1
102
RTVSPost2010Prop32
280
     0
102
RTVSPost2010PropOp32
 70
     1
102
RTVSPost2010Prop33
280
     0
102
RTVSPost2010PropOp33
 70
     1
102
RTVSPost2010Prop34
280
     0
102
RTVSPost2010PropOp34
 70
     1
102
RTVSPost2010Prop35
280
     0
102
RTVSPost2010PropOp35
 70
     1
102
RTVSPost2010Prop36
280
     0
102
RTVSPost2010PropOp36
 70
     1
102
RTVSPost2010Prop37
 90
       50
102
RTVSPost2010PropOp37
 70
     1
102
RTVSPost2010Prop38
140
0.0
102
RTVSPost2010PropOp38
 70
     1
102
RTVSPost2010Prop39
140
1.0
102
RTVSPost2010PropOp39
 70
     1
102
RTVSPost2010Prop40
 90
        0
102
RTVSPost2010PropOp40
 70
     1
102
RTVSPost2010Prop41ColorIndex
 90
      178
102
RTVSPost2010Prop41ColorRGB
 90
        0
102
RTVSPost2010PropOp41
 70
     1
102
RTVSPost2010Prop42
 90
       50
102
RTVSPost2010PropOp42
 70
     1
102
RTVSPost2010Prop43
 90
        3
102
RTVSPost2010PropOp43
 70
     1
102
RTVSPost2010Prop44ColorIndex
 90
        5
102
RTVSPost2010Prop44ColorRGB
 90
      255
102
RTVSPost2010PropOp44
 70
     1
102
RTVSPost2010Prop45
280
     0
102
RTVSPost2010PropOp45
 70
     1
102
RTVSPost2010Prop46
 90
       50
102
RTVSPost2010PropOp46
 70
     1
102
RTVSPost2010Prop47
 90
       50
102
RTVSPost2010PropOp47
 70
     1
102
RTVSPost2010Prop48
 90
       50
102
RTVSPost2010PropOp48
 70
     1
102
RTVSPost2010Prop49
280
     0
102
RTVSPost2010PropOp49
 70
     1
102
RTVSPost2010Prop50
 90
       50
102
RTVSPost2010PropOp50
 70
     1
102
RTVSPost2010Prop51ColorIndex
 90
      256
102
RTVSPost2010Prop51ColorRGB
 90
-16777216
102
RTVSPost2010PropOp51
 70
     0
102
RTVSPost2010Prop52
140
1.0
102
RTVSPost2010PropOp52
 70
     0
102
RTVSPost2010Prop53
 90
        2
102
RTVSPost2010PropOp53
 70
     1
102
RTVSPost2010Prop54
  1
strokes_ogs.tif
102
RTVSPost2010PropOp54
 70
     1
102
RTVSPost2010Prop55
280
     0
102
RTVSPost2010PropOp55
 70
     1
102
RTVSPost2010Prop56
140
1.0
102
RTVSPost2010PropOp56
 70
     1
102
RTVSPost2010Prop57
140
1.0
102
RTVSPost2010PropOp57
 70
     1
  0
XRECORD
  5
33C
102
{ACAD_REACTORS
330
33B
102
}
330
33B
100
AcDbXrecord
280
     1
102
RTVSPropertyOp0
 70
     1
102
RTVSPropertyOp1
 70
     1
102
RTVSPropertyOp2
 70
     1
102
RTVSPropertyOp3
 70
     1
102
RTVSPropertyOp4
 70
     1
102
RTVSPropertyOp5
 70
     1
102
RTVSPropertyOp6
 70
     1
102
RTVSPropertyOp7
 70
     1
102
RTVSPropertyOp8
 70
     1
102
RTVSPropertyOp9
 70
     1
102
RTVSPropertyOp10
 70
     1
102
RTVSPropertyOp11
 70
     1
102
RTVSPropertyOp12
 70
     1
102
RTVSPropertyOp13
 70
     1
102
RTVSPropertyOp14
 70
     1
102
RTVSPropertyOp15
 70
     1
102
RTVSPropertyOp16
 70
     1
102
RTVSPropertyOp17
 70
     1
102
RTVSPropertyOp18
 70
     1
102
RTVSPropertyOp19
 70
     1
102
RTVSPropertyOp20
 70
     1
102
RTVSPropertyOp21
 70
     1
102
RTVSPropertyOp22
 70
     1
102
RTVSPropertyOp23
 70
     1
102
RTVSPropertyOp24
 70
     1
102
RTVSPropertyOp25
 70
     1
102
RTVSPropertyOp26
 70
     1
102
RTVSPropertyOp27
 70
     1
102
RTVSPropertyOp28
 70
     1
102
RTVSPropertyOp29
 70
     1
102
RTVSPropertyOp30
 70
     1
102
RTVSPropertyOp31
 70
     1
102
RTVSPropertyOp32
 70
     1
102
RTVSPropertyOp33
 70
     1
102
RTVSPropertyOp34
 70
     1
102
RTVSPropertyOp35
 70
     1
102
RTVSPropertyOp36
 70
     1
102
RTVSPropertyOp37
 70
     1
102
RTVSPropertyOp38
 70
     1
102
RTVSPropertyOp39
 70
     1
102
RTVSPropertyOp40
 70
     1
102
RTVSPropertyOp41
 70
     1
102
RTVSPropertyOp42
 70
     1
102
RTVSPropertyOp43
 70
     1
102
RTVSPropertyOp44
 70
     1
102
RTVSPropertyOp45
 70
     1
102
RTVSPropertyOp46
 70
     1
102
RTVSPropertyOp47
 70
     1
102
RTVSPropertyOp48
 70
     1
102
RTVSPropertyOp49
 70
     1
102
RTVSPropertyOp50
 70
     1
102
RTVSPropertyOp51
 70
     0
102
RTVSPropertyOp52
 70
     0
102
RTVSPropertyOp53
 70
     1
102
RTVSPropertyOp54
 70
     1
102
RTVSPropertyOp55
 70
     1
102
RTVSPropertyOp56
 70
     1
102
RTVSPropertyOp57
 70
     1
102
RTVSPost2010Prop28
280
     0
102
RTVSPost2010PropOp28
 70
     1
102
RTVSPost2010Prop29
280
     1
102
RTVSPost2010PropOp29
 70
     1
102
RTVSPost2010Prop30
280
     1
102
RTVSPost2010PropOp30
 70
     1
102
RTVSPost2010Prop31
280
     0
102
RTVSPost2010PropOp31
 70
     1
102
RTVSPost2010Prop32
280
     0
102
RTVSPost2010PropOp32
 70
     1
102
RTVSPost2010Prop33
280
     0
102
RTVSPost2010PropOp33
 70
     1
102
RTVSPost2010Prop34
280
     0
102
RTVSPost2010PropOp34
 70
     1
102
RTVSPost2010Prop35
280
     0
102
RTVSPost2010PropOp35
 70
     1
102
RTVSPost2010Prop36
280
     0
102
RTVSPost2010PropOp36
 70
     1
102
RTVSPost2010Prop37
 90
       50
102
RTVSPost2010PropOp37
 70
     1
102
RTVSPost2010Prop38
140
0.0
102
RTVSPost2010PropOp38
 70
     1
102
RTVSPost2010Prop39
140
1.0
102
RTVSPost2010PropOp39
 70
     1
102
RTVSPost2010Prop40
 90
        0
102
RTVSPost2010PropOp40
 70
     1
102
RTVSPost2010Prop41ColorIndex
 90
      178
102
RTVSPost2010Prop41ColorRGB
 90
        0
102
RTVSPost2010PropOp41
 70
     1
102
RTVSPost2010Prop42
 90
       50
102
RTVSPost2010PropOp42
 70
     1
102
RTVSPost2010Prop43
 90
        3
102
RTVSPost2010PropOp43
 70
     1
102
RTVSPost2010Prop44ColorIndex
 90
        5
102
RTVSPost2010Prop44ColorRGB
 90
      255
102
RTVSPost2010PropOp44
 70
     1
102
RTVSPost2010Prop45
280
     0
102
RTVSPost2010PropOp45
 70
     1
102
RTVSPost2010Prop46
 90
       50
102
RTVSPost2010PropOp46
 70
     1
102
RTVSPost2010Prop47
 90
       50
102
RTVSPost2010PropOp47
 70
     1
102
RTVSPost2010Prop48
 90
       50
102
RTVSPost2010PropOp48
 70
     1
102
RTVSPost2010Prop49
280
     0
102
RTVSPost2010PropOp49
 70
     1
102
RTVSPost2010Prop50
 90
       50
102
RTVSPost2010PropOp50
 70
     1
102
RTVSPost2010Prop51ColorIndex
 90
      256
102
RTVSPost2010Prop51ColorRGB
 90
-16777216
102
RTVSPost2010PropOp51
 70
     0
102
RTVSPost2010Prop52
140
1.0
102
RTVSPost2010PropOp52
 70
     0
102
RTVSPost2010Prop53
 90
        2
102
RTVSPost2010PropOp53
 70
     1
102
RTVSPost2010Prop54
  1
strokes_ogs.tif
102
RTVSPost2010PropOp54
 70
     1
102
RTVSPost2010Prop55
280
     0
102
RTVSPost2010PropOp55
 70
     1
102
RTVSPost2010Prop56
140
1.0
102
RTVSPost2010PropOp56
 70
     1
102
RTVSPost2010Prop57
140
1.0
102
RTVSPost2010PropOp57
 70
     1
  0
XRECORD
  5
33E
102
{ACAD_REACTORS
330
33D
102
}
330
33D
100
AcDbXrecord
280
     1
102
RTVSPropertyOp0
 70
     1
102
RTVSPropertyOp1
 70
     1
102
RTVSPropertyOp2
 70
     1
102
RTVSPropertyOp3
 70
     1
102
RTVSPropertyOp4
 70
     1
102
RTVSPropertyOp5
 70
     1
102
RTVSPropertyOp6
 70
     1
102
RTVSPropertyOp7
 70
     1
102
RTVSPropertyOp8
 70
     1
102
RTVSPropertyOp9
 70
     1
102
RTVSPropertyOp10
 70
     1
102
RTVSPropertyOp11
 70
     1
102
RTVSPropertyOp12
 70
     1
102
RTVSPropertyOp13
 70
     1
102
RTVSPropertyOp14
 70
     1
102
RTVSPropertyOp15
 70
     1
102
RTVSPropertyOp16
 70
     1
102
RTVSPropertyOp17
 70
     1
102
RTVSPropertyOp18
 70
     1
102
RTVSPropertyOp19
 70
     1
102
RTVSPropertyOp20
 70
     1
102
RTVSPropertyOp21
 70
     1
102
RTVSPropertyOp22
 70
     1
102
RTVSPropertyOp23
 70
     1
102
RTVSPropertyOp24
 70
     1
102
RTVSPropertyOp25
 70
     1
102
RTVSPropertyOp26
 70
     1
102
RTVSPropertyOp27
 70
     1
102
RTVSPropertyOp28
 70
     1
102
RTVSPropertyOp29
 70
     1
102
RTVSPropertyOp30
 70
     1
102
RTVSPropertyOp31
 70
     1
102
RTVSPropertyOp32
 70
     1
102
RTVSPropertyOp33
 70
     1
102
RTVSPropertyOp34
 70
     1
102
RTVSPropertyOp35
 70
     1
102
RTVSPropertyOp36
 70
     1
102
RTVSPropertyOp37
 70
     1
102
RTVSPropertyOp38
 70
     1
102
RTVSPropertyOp39
 70
     1
102
RTVSPropertyOp40
 70
     1
102
RTVSPropertyOp41
 70
     1
102
RTVSPropertyOp42
 70
     1
102
RTVSPropertyOp43
 70
     1
102
RTVSPropertyOp44
 70
     1
102
RTVSPropertyOp45
 70
     1
102
RTVSPropertyOp46
 70
     1
102
RTVSPropertyOp47
 70
     1
102
RTVSPropertyOp48
 70
     1
102
RTVSPropertyOp49
 70
     1
102
RTVSPropertyOp50
 70
     1
102
RTVSPropertyOp51
 70
     0
102
RTVSPropertyOp52
 70
     0
102
RTVSPropertyOp53
 70
     1
102
RTVSPropertyOp54
 70
     1
102
RTVSPropertyOp55
 70
     1
102
RTVSPropertyOp56
 70
     1
102
RTVSPropertyOp57
 70
     1
102
RTVSPost2010Prop28
280
     0
102
RTVSPost2010PropOp28
 70
     1
102
RTVSPost2010Prop29
280
     1
102
RTVSPost2010PropOp29
 70
     1
102
RTVSPost2010Prop30
280
     1
102
RTVSPost2010PropOp30
 70
     1
102
RTVSPost2010Prop31
280
     0
102
RTVSPost2010PropOp31
 70
     1
102
RTVSPost2010Prop32
280
     0
102
RTVSPost2010PropOp32
 70
     1
102
RTVSPost2010Prop33
280
     0
102
RTVSPost2010PropOp33
 70
     1
102
RTVSPost2010Prop34
280
     0
102
RTVSPost2010PropOp34
 70
     1
102
RTVSPost2010Prop35
280
     0
102
RTVSPost2010PropOp35
 70
     1
102
RTVSPost2010Prop36
280
     0
102
RTVSPost2010PropOp36
 70
     1
102
RTVSPost2010Prop37
 90
       50
102
RTVSPost2010PropOp37
 70
     1
102
RTVSPost2010Prop38
140
0.0
102
RTVSPost2010PropOp38
 70
     1
102
RTVSPost2010Prop39
140
1.0
102
RTVSPost2010PropOp39
 70
     1
102
RTVSPost2010Prop40
 90
        0
102
RTVSPost2010PropOp40
 70
     1
102
RTVSPost2010Prop41ColorIndex
 90
      178
102
RTVSPost2010Prop41ColorRGB
 90
        0
102
RTVSPost2010PropOp41
 70
     1
102
RTVSPost2010Prop42
 90
       50
102
RTVSPost2010PropOp42
 70
     1
102
RTVSPost2010Prop43
 90
        3
102
RTVSPost2010PropOp43
 70
     1
102
RTVSPost2010Prop44ColorIndex
 90
        5
102
RTVSPost2010Prop44ColorRGB
 90
      255
102
RTVSPost2010PropOp44
 70
     1
102
RTVSPost2010Prop45
280
     0
102
RTVSPost2010PropOp45
 70
     1
102
RTVSPost2010Prop46
 90
       50
102
RTVSPost2010PropOp46
 70
     1
102
RTVSPost2010Prop47
 90
       50
102
RTVSPost2010PropOp47
 70
     1
102
RTVSPost2010Prop48
 90
       50
102
RTVSPost2010PropOp48
 70
     1
102
RTVSPost2010Prop49
280
     0
102
RTVSPost2010PropOp49
 70
     1
102
RTVSPost2010Prop50
 90
       50
102
RTVSPost2010PropOp50
 70
     1
102
RTVSPost2010Prop51ColorIndex
 90
      256
102
RTVSPost2010Prop51ColorRGB
 90
-16777216
102
RTVSPost2010PropOp51
 70
     0
102
RTVSPost2010Prop52
140
1.0
102
RTVSPost2010PropOp52
 70
     0
102
RTVSPost2010Prop53
 90
        2
102
RTVSPost2010PropOp53
 70
     1
102
RTVSPost2010Prop54
  1
strokes_ogs.tif
102
RTVSPost2010PropOp54
 70
     1
102
RTVSPost2010Prop55
280
     0
102
RTVSPost2010PropOp55
 70
     1
102
RTVSPost2010Prop56
140
1.0
102
RTVSPost2010PropOp56
 70
     1
102
RTVSPost2010Prop57
140
1.0
102
RTVSPost2010PropOp57
 70
     1
  0
XRECORD
  5
32E
102
{ACAD_REACTORS
330
32D
102
}
330
32D
100
AcDbXrecord
280
     1
102
RTVSPropertyOp0
 70
     1
102
RTVSPropertyOp1
 70
     1
102
RTVSPropertyOp2
 70
     1
102
RTVSPropertyOp3
 70
     1
102
RTVSPropertyOp4
 70
     1
102
RTVSPropertyOp5
 70
     1
102
RTVSPropertyOp6
 70
     1
102
RTVSPropertyOp7
 70
     1
102
RTVSPropertyOp8
 70
     1
102
RTVSPropertyOp9
 70
     1
102
RTVSPropertyOp10
 70
     1
102
RTVSPropertyOp11
 70
     1
102
RTVSPropertyOp12
 70
     1
102
RTVSPropertyOp13
 70
     1
102
RTVSPropertyOp14
 70
     1
102
RTVSPropertyOp15
 70
     1
102
RTVSPropertyOp16
 70
     1
102
RTVSPropertyOp17
 70
     1
102
RTVSPropertyOp18
 70
     1
102
RTVSPropertyOp19
 70
     1
102
RTVSPropertyOp20
 70
     1
102
RTVSPropertyOp21
 70
     1
102
RTVSPropertyOp22
 70
     1
102
RTVSPropertyOp23
 70
     1
102
RTVSPropertyOp24
 70
     1
102
RTVSPropertyOp25
 70
     1
102
RTVSPropertyOp26
 70
     1
102
RTVSPropertyOp27
 70
     1
102
RTVSPropertyOp28
 70
     1
102
RTVSPropertyOp29
 70
     1
102
RTVSPropertyOp30
 70
     1
102
RTVSPropertyOp31
 70
     1
102
RTVSPropertyOp32
 70
     1
102
RTVSPropertyOp33
 70
     1
102
RTVSPropertyOp34
 70
     1
102
RTVSPropertyOp35
 70
     1
102
RTVSPropertyOp36
 70
     1
102
RTVSPropertyOp37
 70
     1
102
RTVSPropertyOp38
 70
     1
102
RTVSPropertyOp39
 70
     1
102
RTVSPropertyOp40
 70
     1
102
RTVSPropertyOp41
 70
     1
102
RTVSPropertyOp42
 70
     1
102
RTVSPropertyOp43
 70
     1
102
RTVSPropertyOp44
 70
     1
102
RTVSPropertyOp45
 70
     1
102
RTVSPropertyOp46
 70
     1
102
RTVSPropertyOp47
 70
     1
102
RTVSPropertyOp48
 70
     1
102
RTVSPropertyOp49
 70
     1
102
RTVSPropertyOp50
 70
     1
102
RTVSPropertyOp51
 70
     0
102
RTVSPropertyOp52
 70
     0
102
RTVSPropertyOp53
 70
     1
102
RTVSPropertyOp54
 70
     1
102
RTVSPropertyOp55
 70
     1
102
RTVSPropertyOp56
 70
     1
102
RTVSPropertyOp57
 70
     1
102
RTVSPost2010Prop28
280
     0
102
RTVSPost2010PropOp28
 70
     1
102
RTVSPost2010Prop29
280
     1
102
RTVSPost2010PropOp29
 70
     1
102
RTVSPost2010Prop30
280
     1
102
RTVSPost2010PropOp30
 70
     1
102
RTVSPost2010Prop31
280
     0
102
RTVSPost2010PropOp31
 70
     1
102
RTVSPost2010Prop32
280
     0
102
RTVSPost2010PropOp32
 70
     1
102
RTVSPost2010Prop33
280
     0
102
RTVSPost2010PropOp33
 70
     1
102
RTVSPost2010Prop34
280
     0
102
RTVSPost2010PropOp34
 70
     1
102
RTVSPost2010Prop35
280
     0
102
RTVSPost2010PropOp35
 70
     1
102
RTVSPost2010Prop36
280
     0
102
RTVSPost2010PropOp36
 70
     1
102
RTVSPost2010Prop37
 90
       50
102
RTVSPost2010PropOp37
 70
     1
102
RTVSPost2010Prop38
140
0.0
102
RTVSPost2010PropOp38
 70
     1
102
RTVSPost2010Prop39
140
1.0
102
RTVSPost2010PropOp39
 70
     1
102
RTVSPost2010Prop40
 90
        0
102
RTVSPost2010PropOp40
 70
     1
102
RTVSPost2010Prop41ColorIndex
 90
      178
102
RTVSPost2010Prop41ColorRGB
 90
        0
102
RTVSPost2010PropOp41
 70
     1
102
RTVSPost2010Prop42
 90
       50
102
RTVSPost2010PropOp42
 70
     1
102
RTVSPost2010Prop43
 90
        3
102
RTVSPost2010PropOp43
 70
     1
102
RTVSPost2010Prop44ColorIndex
 90
        5
102
RTVSPost2010Prop44ColorRGB
 90
      255
102
RTVSPost2010PropOp44
 70
     1
102
RTVSPost2010Prop45
280
     0
102
RTVSPost2010PropOp45
 70
     1
102
RTVSPost2010Prop46
 90
       50
102
RTVSPost2010PropOp46
 70
     1
102
RTVSPost2010Prop47
 90
       50
102
RTVSPost2010PropOp47
 70
     1
102
RTVSPost2010Prop48
 90
       50
102
RTVSPost2010PropOp48
 70
     1
102
RTVSPost2010Prop49
280
     0
102
RTVSPost2010PropOp49
 70
     1
102
RTVSPost2010Prop50
 90
       50
102
RTVSPost2010PropOp50
 70
     1
102
RTVSPost2010Prop51ColorIndex
 90
      256
102
RTVSPost2010Prop51ColorRGB
 90
-16777216
102
RTVSPost2010PropOp51
 70
     0
102
RTVSPost2010Prop52
140
1.0
102
RTVSPost2010PropOp52
 70
     0
102
RTVSPost2010Prop53
 90
        2
102
RTVSPost2010PropOp53
 70
     1
102
RTVSPost2010Prop54
  1
strokes_ogs.tif
102
RTVSPost2010PropOp54
 70
     1
102
RTVSPost2010Prop55
280
     0
102
RTVSPost2010PropOp55
 70
     1
102
RTVSPost2010Prop56
140
1.0
102
RTVSPost2010PropOp56
 70
     1
102
RTVSPost2010Prop57
140
1.0
102
RTVSPost2010PropOp57
 70
     1
  0
XRECORD
  5
320
102
{ACAD_REACTORS
330
31F
102
}
330
31F
100
AcDbXrecord
280
     1
102
RTVSPropertyOp0
 70
     1
102
RTVSPropertyOp1
 70
     1
102
RTVSPropertyOp2
 70
     1
102
RTVSPropertyOp3
 70
     1
102
RTVSPropertyOp4
 70
     1
102
RTVSPropertyOp5
 70
     1
102
RTVSPropertyOp6
 70
     1
102
RTVSPropertyOp7
 70
     1
102
RTVSPropertyOp8
 70
     1
102
RTVSPropertyOp9
 70
     1
102
RTVSPropertyOp10
 70
     1
102
RTVSPropertyOp11
 70
     1
102
RTVSPropertyOp12
 70
     1
102
RTVSPropertyOp13
 70
     1
102
RTVSPropertyOp14
 70
     1
102
RTVSPropertyOp15
 70
     1
102
RTVSPropertyOp16
 70
     1
102
RTVSPropertyOp17
 70
     1
102
RTVSPropertyOp18
 70
     1
102
RTVSPropertyOp19
 70
     1
102
RTVSPropertyOp20
 70
     1
102
RTVSPropertyOp21
 70
     1
102
RTVSPropertyOp22
 70
     1
102
RTVSPropertyOp23
 70
     1
102
RTVSPropertyOp24
 70
     1
102
RTVSPropertyOp25
 70
     1
102
RTVSPropertyOp26
 70
     1
102
RTVSPropertyOp27
 70
     1
102
RTVSPropertyOp28
 70
     1
102
RTVSPropertyOp29
 70
     1
102
RTVSPropertyOp30
 70
     1
102
RTVSPropertyOp31
 70
     1
102
RTVSPropertyOp32
 70
     1
102
RTVSPropertyOp33
 70
     1
102
RTVSPropertyOp34
 70
     1
102
RTVSPropertyOp35
 70
     1
102
RTVSPropertyOp36
 70
     1
102
RTVSPropertyOp37
 70
     1
102
RTVSPropertyOp38
 70
     1
102
RTVSPropertyOp39
 70
     1
102
RTVSPropertyOp40
 70
     1
102
RTVSPropertyOp41
 70
     1
102
RTVSPropertyOp42
 70
     1
102
RTVSPropertyOp43
 70
     1
102
RTVSPropertyOp44
 70
     1
102
RTVSPropertyOp45
 70
     1
102
RTVSPropertyOp46
 70
     1
102
RTVSPropertyOp47
 70
     1
102
RTVSPropertyOp48
 70
     1
102
RTVSPropertyOp49
 70
     1
102
RTVSPropertyOp50
 70
     1
102
RTVSPropertyOp51
 70
     0
102
RTVSPropertyOp52
 70
     0
102
RTVSPropertyOp53
 70
     1
102
RTVSPropertyOp54
 70
     1
102
RTVSPropertyOp55
 70
     1
102
RTVSPropertyOp56
 70
     1
102
RTVSPropertyOp57
 70
     1
102
RTVSPost2010Prop28
280
     0
102
RTVSPost2010PropOp28
 70
     1
102
RTVSPost2010Prop29
280
     1
102
RTVSPost2010PropOp29
 70
     1
102
RTVSPost2010Prop30
280
     1
102
RTVSPost2010PropOp30
 70
     1
102
RTVSPost2010Prop31
280
     0
102
RTVSPost2010PropOp31
 70
     1
102
RTVSPost2010Prop32
280
     0
102
RTVSPost2010PropOp32
 70
     1
102
RTVSPost2010Prop33
280
     0
102
RTVSPost2010PropOp33
 70
     1
102
RTVSPost2010Prop34
280
     0
102
RTVSPost2010PropOp34
 70
     1
102
RTVSPost2010Prop35
280
     0
102
RTVSPost2010PropOp35
 70
     1
102
RTVSPost2010Prop36
280
     0
102
RTVSPost2010PropOp36
 70
     1
102
RTVSPost2010Prop37
 90
       50
102
RTVSPost2010PropOp37
 70
     1
102
RTVSPost2010Prop38
140
0.0
102
RTVSPost2010PropOp38
 70
     1
102
RTVSPost2010Prop39
140
1.0
102
RTVSPost2010PropOp39
 70
     1
102
RTVSPost2010Prop40
 90
        0
102
RTVSPost2010PropOp40
 70
     1
102
RTVSPost2010Prop41ColorIndex
 90
      178
102
RTVSPost2010Prop41ColorRGB
 90
        0
102
RTVSPost2010PropOp41
 70
     1
102
RTVSPost2010Prop42
 90
       50
102
RTVSPost2010PropOp42
 70
     1
102
RTVSPost2010Prop43
 90
        3
102
RTVSPost2010PropOp43
 70
     1
102
RTVSPost2010Prop44ColorIndex
 90
        5
102
RTVSPost2010Prop44ColorRGB
 90
      255
102
RTVSPost2010PropOp44
 70
     1
102
RTVSPost2010Prop45
280
     0
102
RTVSPost2010PropOp45
 70
     1
102
RTVSPost2010Prop46
 90
       50
102
RTVSPost2010PropOp46
 70
     1
102
RTVSPost2010Prop47
 90
       50
102
RTVSPost2010PropOp47
 70
     1
102
RTVSPost2010Prop48
 90
       50
102
RTVSPost2010PropOp48
 70
     1
102
RTVSPost2010Prop49
280
     0
102
RTVSPost2010PropOp49
 70
     1
102
RTVSPost2010Prop50
 90
       50
102
RTVSPost2010PropOp50
 70
     1
102
RTVSPost2010Prop51ColorIndex
 90
      256
102
RTVSPost2010Prop51ColorRGB
 90
-16777216
102
RTVSPost2010PropOp51
 70
     0
102
RTVSPost2010Prop52
140
1.0
102
RTVSPost2010PropOp52
 70
     0
102
RTVSPost2010Prop53
 90
        2
102
RTVSPost2010PropOp53
 70
     1
102
RTVSPost2010Prop54
  1
strokes_ogs.tif
102
RTVSPost2010PropOp54
 70
     1
102
RTVSPost2010Prop55
280
     0
102
RTVSPost2010PropOp55
 70
     1
102
RTVSPost2010Prop56
140
1.0
102
RTVSPost2010PropOp56
 70
     1
102
RTVSPost2010Prop57
140
1.0
102
RTVSPost2010PropOp57
 70
     1
  0
XRECORD
  5
340
102
{ACAD_REACTORS
330
33F
102
}
330
33F
100
AcDbXrecord
280
     1
102
RTVSPropertyOp0
 70
     1
102
RTVSPropertyOp1
 70
     1
102
RTVSPropertyOp2
 70
     1
102
RTVSPropertyOp3
 70
     1
102
RTVSPropertyOp4
 70
     1
102
RTVSPropertyOp5
 70
     1
102
RTVSPropertyOp6
 70
     1
102
RTVSPropertyOp7
 70
     1
102
RTVSPropertyOp8
 70
     1
102
RTVSPropertyOp9
 70
     1
102
RTVSPropertyOp10
 70
     1
102
RTVSPropertyOp11
 70
     1
102
RTVSPropertyOp12
 70
     1
102
RTVSPropertyOp13
 70
     1
102
RTVSPropertyOp14
 70
     1
102
RTVSPropertyOp15
 70
     1
102
RTVSPropertyOp16
 70
     1
102
RTVSPropertyOp17
 70
     1
102
RTVSPropertyOp18
 70
     1
102
RTVSPropertyOp19
 70
     1
102
RTVSPropertyOp20
 70
     1
102
RTVSPropertyOp21
 70
     1
102
RTVSPropertyOp22
 70
     1
102
RTVSPropertyOp23
 70
     1
102
RTVSPropertyOp24
 70
     1
102
RTVSPropertyOp25
 70
     1
102
RTVSPropertyOp26
 70
     1
102
RTVSPropertyOp27
 70
     1
102
RTVSPropertyOp28
 70
     1
102
RTVSPropertyOp29
 70
     1
102
RTVSPropertyOp30
 70
     1
102
RTVSPropertyOp31
 70
     1
102
RTVSPropertyOp32
 70
     1
102
RTVSPropertyOp33
 70
     1
102
RTVSPropertyOp34
 70
     1
102
RTVSPropertyOp35
 70
     1
102
RTVSPropertyOp36
 70
     1
102
RTVSPropertyOp37
 70
     1
102
RTVSPropertyOp38
 70
     1
102
RTVSPropertyOp39
 70
     1
102
RTVSPropertyOp40
 70
     1
102
RTVSPropertyOp41
 70
     1
102
RTVSPropertyOp42
 70
     1
102
RTVSPropertyOp43
 70
     1
102
RTVSPropertyOp44
 70
     1
102
RTVSPropertyOp45
 70
     1
102
RTVSPropertyOp46
 70
     1
102
RTVSPropertyOp47
 70
     1
102
RTVSPropertyOp48
 70
     1
102
RTVSPropertyOp49
 70
     1
102
RTVSPropertyOp50
 70
     1
102
RTVSPropertyOp51
 70
     0
102
RTVSPropertyOp52
 70
     0
102
RTVSPropertyOp53
 70
     1
102
RTVSPropertyOp54
 70
     1
102
RTVSPropertyOp55
 70
     1
102
RTVSPropertyOp56
 70
     1
102
RTVSPropertyOp57
 70
     1
102
RTVSPost2010Prop28
280
     0
102
RTVSPost2010PropOp28
 70
     1
102
RTVSPost2010Prop29
280
     1
102
RTVSPost2010PropOp29
 70
     1
102
RTVSPost2010Prop30
280
     1
102
RTVSPost2010PropOp30
 70
     1
102
RTVSPost2010Prop31
280
     0
102
RTVSPost2010PropOp31
 70
     1
102
RTVSPost2010Prop32
280
     0
102
RTVSPost2010PropOp32
 70
     1
102
RTVSPost2010Prop33
280
     0
102
RTVSPost2010PropOp33
 70
     1
102
RTVSPost2010Prop34
280
     0
102
RTVSPost2010PropOp34
 70
     1
102
RTVSPost2010Prop35
280
     0
102
RTVSPost2010PropOp35
 70
     1
102
RTVSPost2010Prop36
280
     0
102
RTVSPost2010PropOp36
 70
     1
102
RTVSPost2010Prop37
 90
       50
102
RTVSPost2010PropOp37
 70
     1
102
RTVSPost2010Prop38
140
0.0
102
RTVSPost2010PropOp38
 70
     1
102
RTVSPost2010Prop39
140
1.0
102
RTVSPost2010PropOp39
 70
     1
102
RTVSPost2010Prop40
 90
        0
102
RTVSPost2010PropOp40
 70
     1
102
RTVSPost2010Prop41ColorIndex
 90
      178
102
RTVSPost2010Prop41ColorRGB
 90
        0
102
RTVSPost2010PropOp41
 70
     1
102
RTVSPost2010Prop42
 90
       50
102
RTVSPost2010PropOp42
 70
     1
102
RTVSPost2010Prop43
 90
        3
102
RTVSPost2010PropOp43
 70
     1
102
RTVSPost2010Prop44ColorIndex
 90
        5
102
RTVSPost2010Prop44ColorRGB
 90
      255
102
RTVSPost2010PropOp44
 70
     1
102
RTVSPost2010Prop45
280
     0
102
RTVSPost2010PropOp45
 70
     1
102
RTVSPost2010Prop46
 90
       50
102
RTVSPost2010PropOp46
 70
     1
102
RTVSPost2010Prop47
 90
       50
102
RTVSPost2010PropOp47
 70
     1
102
RTVSPost2010Prop48
 90
       50
102
RTVSPost2010PropOp48
 70
     1
102
RTVSPost2010Prop49
280
     0
102
RTVSPost2010PropOp49
 70
     1
102
RTVSPost2010Prop50
 90
       50
102
RTVSPost2010PropOp50
 70
     1
102
RTVSPost2010Prop51ColorIndex
 90
      256
102
RTVSPost2010Prop51ColorRGB
 90
-16777216
102
RTVSPost2010PropOp51
 70
     0
102
RTVSPost2010Prop52
140
1.0
102
RTVSPost2010PropOp52
 70
     0
102
RTVSPost2010Prop53
 90
        2
102
RTVSPost2010PropOp53
 70
     1
102
RTVSPost2010Prop54
  1
strokes_ogs.tif
102
RTVSPost2010PropOp54
 70
     1
102
RTVSPost2010Prop55
280
     0
102
RTVSPost2010PropOp55
 70
     1
102
RTVSPost2010Prop56
140
1.0
102
RTVSPost2010PropOp56
 70
     1
102
RTVSPost2010Prop57
140
1.0
102
RTVSPost2010PropOp57
 70
     1
  0
ENDSEC
  0
EOF
