0
SECTION
2
HEADER
9
$INSUNITS
70
4
9
$ACADVER
1
AC1014
9
$HANDSEED
5
FFFF
0
ENDSEC
0
SECTION
2
TABLES
0
TABLE
2
VPORT
5
8
100
AcDbSymbolTable
0
ENDTAB
0
TABLE
2
LTYPE
5
5
100
AcDbSymbolTable
0
LTYPE
5
14
100
AcDbSymbolTableRecord
100
AcDbLinetypeTableRecord
2
BYBLOCK
70
0
0
LTYPE
5
15
100
AcDbSymbolTableRecord
100
AcDbLinetypeTableRecord
2
BYLAYER
70
0
0
ENDTAB
0
TABLE
2
LAYER
5
2
100
AcDbSymbolTable
70
2
0
LAYER
5
50
100
AcDbSymbolTableRecord
100
AcDbLayerTableRecord
2
0
70
0
6
CONTINUOUS
0
ENDTAB
0
TABLE
2
STYLE
5
3
100
AcDbSymbolTable
70
1
0
STYLE
5
11
100
AcDbSymbolTableRecord
100
AcDbTextStyleTableRecord
2
STANDARD
70
0
0
ENDTAB
0
TABLE
2
VIEW
5
6
100
AcDbSymbolTable
70
0
0
ENDTAB
0
TABLE
2
UCS
5
7
100
AcDbSymbolTable
70
0
0
ENDTAB
0
TABLE
2
APPID
5
9
100
AcDbSymbolTable
70
2
0
APPID
5
12
100
AcDbSymbolTableRecord
100
AcDbRegAppTableRecord
2
ACAD
70
0
0
ENDTAB
0
TABLE
2
DIMSTYLE
5
A
100
AcDbSymbolTable
70
1
0
ENDTAB
0
TABLE
2
BLOCK_RECORD
5
1
100
AcDbSymbolTable
70
1
0
BLOCK_RECORD
5
1F
100
AcDbSymbolTableRecord
100
AcDbBlockTableRecord
2
*MODEL_SPACE
0
BLOCK_RECORD
5
1B
100
AcDbSymbolTableRecord
100
AcDbBlockTableRecord
2
*PAPER_SPACE
0
ENDTAB
0
ENDSEC
0
SECTION
2
BLOCKS
0
BLOCK
5
20
100
AcDbEntity
100
AcDbBlockBegin
2
*MODEL_SPACE
0
ENDBLK
5
21
100
AcDbEntity
100
AcDbBlockEnd
0
BLOCK
5
1C
100
AcDbEntity
100
AcDbBlockBegin
2
*PAPER_SPACE
0
ENDBLK
5
1D
100
AcDbEntity
100
AcDbBlockEnd
0
ENDSEC
0
SECTION
2
ENTITIES
0
CIRCLE
5
100
100
AcDbEntity
8
0
100
AcDbCircle
10
-169.99999999999997
20
-19.999999999999993
30
0
40
1.5000000000000002
0
LWPOLYLINE
5
101
100
AcDbEntity
8
0
100
AcDbPolyline
90
4
70
1
43
0.0
10
-169.99999999999997
20
-12.999999999999993
10
-163.64352720450071
20
-21.977485928703778
42
-1.3675814891465132
10
-169.99999999999994
20
-23.999999999999986
42
-1.3675814891468456
10
-176.35647279549718
20
-21.977485928705363
0
LWPOLYLINE
5
102
100
AcDbEntity
8
0
100
AcDbPolyline
90
4
70
1
43
0.0
10
-169.99999999999989
20
-4.3474025974025698
10
-159.56285178236163
20
-19.088180112569034
42
-0.76466827356214384
10
-169.9999999999992
20
-31.745966692414555
42
-0.76466827356222478
10
-180.43714821763601
20
-19.088180112570253
0
LWPOLYLINE
5
103
100
AcDbEntity
8
0
100
AcDbPolyline
90
4
70
1
43
0.0
10
-182.06941838649155
20
-17.932457786116206
10
-169.99999999999986
20
-0.88636363636359627
10
-157.93058161350601
20
-17.93245778611513
42
-0.73169820490091331
10
-169.99999999999912
20
-33.899494936611426
42
-0.73169820490098747
0
LWPOLYLINE
5
104
100
AcDbEntity
8
0
100
AcDbPolyline
90
4
70
1
43
0.0
10
-186.15009380863034
20
-15.043151969981094
10
-169.99999999999977
20
7.7662337662338254
10
-153.8499061913669
20
-15.0431519699804
42
-0.68953541185956946
10
-169.99999999999886
20
-39.099668870541308
42
-0.68953541185963751
0
LWPOLYLINE
5
105
100
AcDbEntity
8
0
100
AcDbPolyline
90
4
70
1
43
0.0
10
-187.78236397748589
20
-13.887429643527051
10
-169.99999999999977
20
11.22727272727278
10
-152.21763602251127
20
-13.887429643526501
42
-0.67983665401403393
10
-169.99999999999875
20
-41.146428199482074
42
-0.67983665401410087
0
LWPOLYLINE
5
106
100
AcDbEntity
8
0
100
AcDbPolyline
90
4
70
1
43
0.0
10
-169.99999999999969
20
21.610389610389685
10
-147.32082551594439
20
-10.420262664164797
42
-0.66104210509106165
10
-169.99999999999847
20
-47.237900077244333
42
-0.66104210509112571
10
-192.67917448405245
20
-10.42026266416492
0
LWPOLYLINE
5
107
100
AcDbEntity
8
0
100
AcDbPolyline
90
4
70
1
43
0.0
10
-194.31144465290799
20
-9.2645403377108728
10
-169.99999999999969
20
25.071428571428651
10
-145.68855534708877
20
-9.2645403377109066
42
-0.6568102585668365
10
-169.99999999999835
20
-49.258661880630008
42
-0.65681025856690167
0
LWPOLYLINE
5
108
100
AcDbEntity
8
0
100
AcDbPolyline
90
4
70
1
43
0.0
10
-169.99999999999957
20
35.454545454545553
10
-140.79174484052189
20
-5.7973733583492004
42
-0.64742191896874957
10
-169.99999999999807
20
-55.304951684996901
42
-0.64742191896881385
10
-199.20825515947456
20
-5.797373358348743
0
LWPOLYLINE
5
109
100
AcDbEntity
8
0
100
AcDbPolyline
90
4
70
1
43
0.0
10
-169.99999999999955
20
38.915584415584526
10
-139.15947467166629
20
-4.6416510318953037
42
-0.64505718127888634
10
-169.99999999999801
20
-57.316662497915218
42
-0.64505718127894984
10
-200.8405253283301
20
-4.6416510318947024
0
LWPOLYLINE
5
110
100
AcDbEntity
8
0
100
AcDbPolyline
90
4
70
1
43
0.0
10
-169.99999999999775
20
-62.3405790253615
42
-0.64024103361030016
10
-204.92120075046893
20
-1.752345215759572
10
-169.99999999999949
20
47.568181818181934
10
-135.07879924952718
20
-1.7523452157605734
42
-0.64024103361023632
0
LWPOLYLINE
5
111
100
AcDbEntity
8
0
100
AcDbPolyline
90
4
70
1
43
0.0
10
-207.36960600375221
20
-0.018761726078517782
10
-169.99999999999943
20
52.759740259740383
10
-132.6303939962437
20
-0.018761726079724594
42
-0.63791814737239327
10
-169.99999999999773
20
-65.352146256270515
42
-0.63791814737245534
0
LWPOLYLINE
5
112
100
AcDbEntity
8
0
100
AcDbPolyline
90
4
70
1
43
0.0
10
-211.45028142589101
20
2.8705440900565904
10
-169.99999999999937
20
61.412337662337805
10
-128.54971857410465
20
2.8705440900550232
42
-0.63472284174661664
10
-169.99999999999747
20
-70.368092477478385
42
-0.6347228417466787
0
LWPOLYLINE
5
113
100
AcDbEntity
8
0
100
AcDbPolyline
90
4
70
1
43
0.0
10
-169.99999999999937
20
66.603896103896275
10
-126.10131332082119
20
4.6041275797358896
42
-0.63311983664242055
10
-169.99999999999733
20
-73.376107582513924
42
-0.63311983664248261
10
-213.89868667917432
20
4.6041275797376624
0
LWPOLYLINE
5
114
100
AcDbEntity
8
0
100
AcDbPolyline
90
4
70
1
43
0.0
10
-169.99999999999929
20
75.256493506493712
10
-122.02063789868211
20
7.4934333958706167
42
-0.63084520989393189
10
-169.99999999999716
20
-78.38749856354849
42
-0.63084520989399329
10
-217.97936210131314
20
7.4934333958727706
0
LWPOLYLINE
5
115
100
AcDbEntity
8
0
100
AcDbPolyline
90
4
70
1
43
0.0
10
-220.42776735459643
20
9.2270168855538426
10
-169.9999999999992
20
80.448051948052154
10
-119.57223264539864
20
9.2270168855514392
42
-0.62967252046526756
10
-169.99999999999699
20
-81.393379409126851
42
-0.62967252046532973
0
LWPOLYLINE
5
116
100
AcDbEntity
8
0
100
AcDbPolyline
90
4
70
1
43
0.0
10
-169.99999999999915
20
89.100649350649576
10
-115.49155722325963
20
12.116322701686224
42
-0.6279708428587284
10
-169.99999999999673
20
-86.401923047290666
42
-0.62797084285879035
10
-224.50844277673525
20
12.116322701688951
0
LWPOLYLINE
5
117
100
AcDbEntity
8
0
100
AcDbPolyline
90
4
70
1
43
0.0
10
-169.99999999999653
20
-89.406421703071217
42
-0.62707577663672831
10
-226.95684803001853
20
13.849906191370014
10
-169.99999999999912
20
94.292207792208004
10
-113.04315196997615
20
13.849906191367033
42
-0.62707577663666558
0
LWPOLYLINE
5
118
100
AcDbEntity
8
0
100
AcDbPolyline
90
4
70
1
43
0.0
10
-169.99999999999631
20
-94.413066969135656
42
-0.62575482079253919
10
-231.03752345215736
20
16.739212007505131
10
-169.99999999999903
20
102.94480519480544
10
-108.96247654783713
20
16.739212007501848
42
-0.6257548207924768
0
LWPOLYLINE
5
119
100
AcDbEntity
8
0
100
AcDbPolyline
90
4
70
1
43
0.0
10
-169.99999999999625
20
-97.416619371910528
42
-0.62504926053687981
10
-233.48592870544067
20
18.472795497186194
10
-169.99999999999901
20
108.13636363636385
10
-106.51407129455362
20
18.472795497182666
42
-0.6250492605368182
0
LWPOLYLINE
5
120
100
AcDbEntity
8
0
100
AcDbPolyline
90
4
70
1
43
0.0
10
-102.43339587241454
20
21.362101313317375
42
-0.62399412902019458
10
-169.99999999999602
20
-102.42193570679049
42
-0.62399412902025664
10
-237.56660412757947
20
21.362101313321311
10
-169.99999999999892
20
116.78896103896129
0
LWPOLYLINE
5
121
100
AcDbEntity
8
0
100
AcDbPolyline
90
4
70
1
43
0.0
10
-99.984990619131096
20
23.095684802998239
42
-0.62342366972623842
10
-169.99999999999585
20
-105.42481194328903
42
-0.6234236697263007
10
-240.01500938086275
20
23.095684803002392
10
-169.99999999999889
20
121.98051948051976
0
LWPOLYLINE
5
122
100
AcDbEntity
8
0
100
AcDbPolyline
90
4
70
1
43
0.0
10
-95.904315196991973
20
25.984990619132962
42
-0.62256146704171067
10
-169.99999999999562
20
-110.42916174532752
42
-0.62256146704177284
10
-244.09568480300157
20
25.984990619137491
10
-169.99999999999883
20
130.6331168831172
0
LWPOLYLINE
5
123
100
AcDbEntity
8
0
100
AcDbPolyline
90
4
70
1
43
0.0
10
-93.455909943708591
20
27.718574108813794
42
-0.62209070509699094
10
-169.99999999999557
20
-113.43153806124539
42
-0.62209070509705289
10
-246.54409005628486
20
27.718574108818554
10
-169.99999999999881
20
135.82467532467561
0
LWPOLYLINE
5
124
100
AcDbEntity
8
0
100
AcDbPolyline
90
4
70
1
43
0.0
10
-169.99999999999523
20
-118.43516294262416
42
-0.62137295387082292
10
-250.62476547842365
20
30.607879924953671
10
-169.99999999999872
20
144.47727272727303
10
-89.375234521569496
20
30.607879924948588
42
-0.62137295387076064
0
LWPOLYLINE
5
125
100
AcDbEntity
8
0
100
AcDbPolyline
90
4
70
1
43
0.0
10
-169.92703193885654
20
-15.909432035589051
10
-166.63007106150701
20
-20.565854053920425
42
-1.141990515802106
10
-170
20
-21.928146590545175
42
-1.2436123624153674
10
-173.22399281620389
20
-20.565854053920425
0
ENDSEC
0
SECTION
2
OBJECTS
0
DICTIONARY
5
C
100
AcDbDictionary
3
ACAD_GROUP
350
D
3
ACAD_MLINESTYLE
350
17
0
DICTIONARY
5
D
100
AcDbDictionary
0
DICTIONARY
5
1A
330
C
100
AcDbDictionary
0
DICTIONARY
5
17
100
AcDbDictionary
0
ENDSEC
0
EOF
