999
dxfrw 0.5.11
0
SECTION
2
HEADER
9
$ACADVER
1
AC1021
9
$HANDSEED
5
20000
9
$DWGCODEPAGE
3
ANSI_1252
9
$INSBASE
10
0
20
0
30
0
9
$EXTMIN
10
1097.50767115
20
-2200
30
0
9
$EXTMAX
10
7102.49232885
20
2051.41333359
30
0
9
$LIMMIN
10
0
20
0
9
$LIMMAX
10
420
20
297
9
$ORTHOMODE
70
0
9
$LTSCALE
40
1
9
$TEXTSTYLE
7
STANDARD
9
$CLAYER
8
Centers
9
$DIMASZ
40
2.5
9
$DIMLFAC
40
1
9
$DIMSCALE
40
1
9
$DIMEXO
40
0.625
9
$DIMEXE
40
1.25
9
$DIMTXT
40
10
9
$DIMTSZ
40
0
9
$DIMAUNIT
70
0
9
$DIMADEC
70
2
9
$DIMLUNIT
70
2
9
$DIMSTYLE
2
STANDARD
9
$DIMGAP
40
0.625
9
$DIMTIH
70
0
9
$LUNITS
70
2
9
$LUPREC
70
2
9
$AUNITS
70
0
9
$AUPREC
70
2
9
$SPLINESEGS
70
8
9
$GRIDMODE
70
1
9
$SNAPSTYLE
70
0
9
$GRIDUNIT
10
0
20
0
9
$PINSBASE
10
0
20
0
30
0
9
$PLIMMIN
10
0
20
0
9
$PLIMMAX
10
297
20
210
9
$INSUNITS
70
4
9
$PSVPSCALE
40
1
0
ENDSEC
0
SECTION
2
CLASSES
0
ENDSEC
0
SECTION
2
TABLES
0
TABLE
2
VPORT
5
8
330
0
100
AcDbSymbolTable
70
1
0
VPORT
5
31
330
2
100
AcDbSymbolTableRecord
100
AcDbViewportTableRecord
2
*ACTIVE
70
0
10
0
20
0
11
1
21
1
12
4577.55455628
22
1767.51124883
13
0
23
0
14
10
24
10
15
10
25
10
16
0
26
0
36
1
17
0
27
0
37
0
40
7141.94375797
41
1.34731543624
42
50
43
0
44
0
50
0
51
0
71
0
72
100
73
1
74
3
75
0
76
1
77
0
78
0
281
0
65
1
110
0
120
0
130
0
111
1
121
0
131
0
112
0
122
1
132
0
79
0
146
0
348
10020
60
7
61
5
292
1
282
1
141
0
142
0
63
250
421
3358443
0
ENDTAB
0
TABLE
2
LTYPE
5
5
330
0
100
AcDbSymbolTable
70
4
0
LTYPE
5
14
330
5
100
AcDbSymbolTableRecord
100
AcDbLinetypeTableRecord
2
ByBlock
70
0
3

72
65
73
0
40
0
0
LTYPE
5
15
330
5
100
AcDbSymbolTableRecord
100
AcDbLinetypeTableRecord
2
ByLayer
70
0
3

72
65
73
0
40
0
0
LTYPE
5
16
330
5
100
AcDbSymbolTableRecord
100
AcDbLinetypeTableRecord
2
Continuous
70
0
3
Solid line
72
65
73
0
40
0
0
LTYPE
5
32
330
5
100
AcDbSymbolTableRecord
100
AcDbLinetypeTableRecord
2
DOT
70
0
3
Dot . . . . . . . . . . . . . . . . . . . . . .
72
65
73
2
40
6.35
49
0
74
0
49
-6.35
74
0
0
LTYPE
5
33
330
5
100
AcDbSymbolTableRecord
100
AcDbLinetypeTableRecord
2
DOT2
70
0
3
Dot (.5x) .....................................
72
65
73
2
40
3.175
49
0
74
0
49
-3.175
74
0
0
LTYPE
5
34
330
5
100
AcDbSymbolTableRecord
100
AcDbLinetypeTableRecord
2
DOTX2
70
0
3
Dot (2x) .  .  .  .  .  .  .  .  .  .  .  .  .
72
65
73
2
40
12.7
49
0
74
0
49
-12.7
74
0
0
LTYPE
5
35
330
5
100
AcDbSymbolTableRecord
100
AcDbLinetypeTableRecord
2
DASHED
70
0
3
Dot . . . . . . . . . . . . . . . . . . . . . .
72
65
73
2
40
19.05
49
12.7
74
0
49
-6.35
74
0
0
LTYPE
5
36
330
5
100
AcDbSymbolTableRecord
100
AcDbLinetypeTableRecord
2
DASHED2
70
0
3
Dashed (.5x) _ _ _ _ _ _ _ _ _ _ _ _ _ _ _ _ _
72
65
73
2
40
9.525
49
6.35
74
0
49
-3.175
74
0
0
LTYPE
5
37
330
5
100
AcDbSymbolTableRecord
100
AcDbLinetypeTableRecord
2
DASHEDX2
70
0
3
Dashed (2x) ____  ____  ____  ____  ____  ___
72
65
73
2
40
38.1
49
25.4
74
0
49
-12.7
74
0
0
LTYPE
5
38
330
5
100
AcDbSymbolTableRecord
100
AcDbLinetypeTableRecord
2
DASHDOT
70
0
3
Dash dot __ . __ . __ . __ . __ . __ . __ . __
72
65
73
4
40
25.4
49
12.7
74
0
49
-6.35
74
0
49
0
74
0
49
-6.35
74
0
0
LTYPE
5
39
330
5
100
AcDbSymbolTableRecord
100
AcDbLinetypeTableRecord
2
DASHDOT2
70
0
3
Dash dot (.5x) _._._._._._._._._._._._._._._.
72
65
73
4
40
12.7
49
6.35
74
0
49
-3.175
74
0
49
0
74
0
49
-3.175
74
0
0
LTYPE
5
3A
330
5
100
AcDbSymbolTableRecord
100
AcDbLinetypeTableRecord
2
DASHDOTX2
70
0
3
Dash dot (2x) ____  .  ____  .  ____  .  ___
72
65
73
4
40
50.8
49
25.4
74
0
49
-12.7
74
0
49
0
74
0
49
-12.7
74
0
0
LTYPE
5
3B
330
5
100
AcDbSymbolTableRecord
100
AcDbLinetypeTableRecord
2
DIVIDE
70
0
3
Divide ____ . . ____ . . ____ . . ____ . . ____
72
65
73
6
40
31.75
49
12.7
74
0
49
-6.35
74
0
49
0
74
0
49
-6.35
74
0
49
0
74
0
49
-6.35
74
0
0
LTYPE
5
3C
330
5
100
AcDbSymbolTableRecord
100
AcDbLinetypeTableRecord
2
DIVIDE2
70
0
3
Divide (.5x) __..__..__..__..__..__..__..__.._
72
65
73
6
40
15.875
49
6.35
74
0
49
-3.175
74
0
49
0
74
0
49
-3.175
74
0
49
0
74
0
49
-3.175
74
0
0
LTYPE
5
3D
330
5
100
AcDbSymbolTableRecord
100
AcDbLinetypeTableRecord
2
DIVIDEX2
70
0
3
Divide (2x) ________  .  .  ________  .  .  _
72
65
73
6
40
63.5
49
25.4
74
0
49
-12.7
74
0
49
0
74
0
49
-12.7
74
0
49
0
74
0
49
-12.7
74
0
0
LTYPE
5
3E
330
5
100
AcDbSymbolTableRecord
100
AcDbLinetypeTableRecord
2
BORDER
70
0
3
Border __ __ . __ __ . __ __ . __ __ . __ __ .
72
65
73
6
40
44.45
49
12.7
74
0
49
-6.35
74
0
49
12.7
74
0
49
-6.35
74
0
49
0
74
0
49
-6.35
74
0
0
LTYPE
5
3F
330
5
100
AcDbSymbolTableRecord
100
AcDbLinetypeTableRecord
2
BORDER2
70
0
3
Border (.5x) __.__.__.__.__.__.__.__.__.__.__.
72
65
73
6
40
22.225
49
6.35
74
0
49
-3.175
74
0
49
6.35
74
0
49
-3.175
74
0
49
0
74
0
49
-3.175
74
0
0
LTYPE
5
40
330
5
100
AcDbSymbolTableRecord
100
AcDbLinetypeTableRecord
2
BORDERX2
70
0
3
Border (2x) ____  ____  .  ____  ____  .  ___
72
65
73
6
40
88.9
49
25.4
74
0
49
-12.7
74
0
49
25.4
74
0
49
-12.7
74
0
49
0
74
0
49
-12.7
74
0
0
LTYPE
5
41
330
5
100
AcDbSymbolTableRecord
100
AcDbLinetypeTableRecord
2
CENTER
70
0
3
Center ____ _ ____ _ ____ _ ____ _ ____ _ ____
72
65
73
4
40
50.8
49
31.75
74
0
49
-6.35
74
0
49
6.35
74
0
49
-6.35
74
0
0
LTYPE
5
42
330
5
100
AcDbSymbolTableRecord
100
AcDbLinetypeTableRecord
2
CENTER2
70
0
3
Center (.5x) ___ _ ___ _ ___ _ ___ _ ___ _ ___
72
65
73
4
40
28.575
49
19.05
74
0
49
-3.175
74
0
49
3.175
74
0
49
-3.175
74
0
0
LTYPE
5
43
330
5
100
AcDbSymbolTableRecord
100
AcDbLinetypeTableRecord
2
CENTERX2
70
0
3
Center (2x) ________  __  ________  __  _____
72
65
73
4
40
101.6
49
63.5
74
0
49
-12.7
74
0
49
12.7
74
0
49
-12.7
74
0
0
ENDTAB
0
TABLE
2
LAYER
5
2
330
0
100
AcDbSymbolTable
70
1
0
LAYER
5
10
330
2
100
AcDbSymbolTableRecord
100
AcDbLayerTableRecord
2
0
70
0
62
7
6
CONTINUOUS
370
0
390
F
0
LAYER
5
44
330
2
100
AcDbSymbolTableRecord
100
AcDbLayerTableRecord
2
Centers
70
0
62
7
6
CONTINUOUS
370
0
390
F
0
LAYER
5
45
330
2
100
AcDbSymbolTableRecord
100
AcDbLayerTableRecord
2
Dimensions
70
0
62
7
6
CONTINUOUS
370
0
390
F
0
LAYER
5
46
330
2
100
AcDbSymbolTableRecord
100
AcDbLayerTableRecord
2
Hatches
70
0
62
7
6
CONTINUOUS
370
0
390
F
0
LAYER
5
47
330
2
100
AcDbSymbolTableRecord
100
AcDbLayerTableRecord
2
Title Block
70
0
62
7
6
CONTINUOUS
370
-3
390
F
0
ENDTAB
0
TABLE
2
STYLE
5
3
330
0
100
AcDbSymbolTable
70
3
0
STYLE
5
48
330
2
100
AcDbSymbolTableRecord
100
AcDbTextStyleTableRecord
2
standard
70
0
40
0
41
1
50
0
71
0
42
1
3
standard
4

0
ENDTAB
0
TABLE
2
VIEW
5
6
330
0
100
AcDbSymbolTable
70
0
0
ENDTAB
0
TABLE
2
UCS
5
7
330
0
100
AcDbSymbolTable
70
0
0
ENDTAB
0
TABLE
2
APPID
5
9
330
0
100
AcDbSymbolTable
70
1
0
APPID
5
12
330
9
100
AcDbSymbolTableRecord
100
AcDbRegAppTableRecord
2
ACAD
70
0
0
ENDTAB
0
TABLE
2
DIMSTYLE
5
A
330
0
100
AcDbSymbolTable
70
1
100
AcDbDimStyleTable
71
1
0
DIMSTYLE
105
49
330
A
100
AcDbSymbolTableRecord
100
AcDbDimStyleTableRecord
2
Standard
70
0
40
1
41
2.5
42
0.625
43
0.38
44
1.25
45
0
46
0
47
0
48
0
140
10
141
0.09
142
0
143
25.4
144
1
145
0
146
1
147
0.625
148
0
71
0
72
0
73
0
74
1
75
0
76
0
77
0
78
0
79
0
170
0
171
2
172
0
173
0
174
0
175
0
176
0
177
0
178
0
179
0
271
4
272
4
273
2
274
2
275
0
276
0
277
2
278
46
279
0
280
0
281
0
282
0
283
1
284
0
285
0
286
0
288
0
289
3
340
Standard
341

371
-2
372
-2
0
ENDTAB
0
TABLE
2
BLOCK_RECORD
5
1
330
0
100
AcDbSymbolTable
70
2
0
BLOCK_RECORD
5
1F
330
1
100
AcDbSymbolTableRecord
100
AcDbBlockTableRecord
2
*Model_Space
70
0
280
1
281
0
0
BLOCK_RECORD
5
1E
330
1
100
AcDbSymbolTableRecord
100
AcDbBlockTableRecord
2
*Paper_Space
70
0
280
1
281
0
0
BLOCK_RECORD
5
4A
330
1
100
AcDbSymbolTableRecord
100
AcDbBlockTableRecord
2
BottomVet
70
0
280
1
281
0
0
ENDTAB
0
ENDSEC
0
SECTION
2
BLOCKS
0
BLOCK
5
20
330
1F
100
AcDbEntity
8
0
100
AcDbBlockBegin
2
*Model_Space
70
0
10
0
20
0
30
0
3
*Model_Space
1

0
ENDBLK
5
21
330
1F
100
AcDbEntity
8
0
100
AcDbBlockEnd
0
BLOCK
5
1C
330
1B
100
AcDbEntity
8
0
100
AcDbBlockBegin
2
*Paper_Space
70
0
10
0
20
0
30
0
3
*Paper_Space
1

0
ENDBLK
5
1D
330
1F
100
AcDbEntity
8
0
100
AcDbBlockEnd
0
BLOCK
5
4B
330
4A
100
AcDbEntity
8
0
100
AcDbBlockBegin
2
BottomVet
70
0
10
0
20
0
3
BottomVet
1

0
LINE
5
4D
100
AcDbEntity
8
0
6
ByLayer
62
256
370
-1
100
AcDbLine
10
-675
20
-1.082
11
-60
21
-1.082
0
LINE
5
4E
100
AcDbEntity
8
0
6
ByLayer
62
256
370
-1
100
AcDbLine
10
0
20
-1.082
11
-69
21
-1.082
0
LINE
5
4F
100
AcDbEntity
8
0
6
ByLayer
62
256
370
-1
100
AcDbLine
10
-50
20
48.918
11
-675
21
48.918
0
LINE
5
50
100
AcDbEntity
8
0
6
CONTINUOUS
62
256
370
-1
100
AcDbLine
10
0
20
0
11
0
21
680
0
LINE
5
51
100
AcDbEntity
8
0
6
CONTINUOUS
62
256
370
-1
100
AcDbLine
10
-50
20
680
11
-50
21
0
0
LINE
5
52
100
AcDbEntity
8
0
6
CONTINUOUS
62
256
370
-1
100
AcDbLine
10
-60
20
680
11
0
21
680
0
LINE
5
53
100
AcDbEntity
8
0
6
CONTINUOUS
62
256
370
-1
100
AcDbLine
10
-59
20
680
11
-669
21
680
0
LINE
5
54
100
AcDbEntity
8
0
6
CONTINUOUS
62
256
370
-1
100
AcDbLine
10
-669
20
630
11
-49
21
630
0
LINE
5
55
100
AcDbEntity
8
0
6
CONTINUOUS
62
256
370
-1
100
AcDbLine
10
-670
20
308.253135813
11
-50
21
308.253135813
0
LINE
5
56
100
AcDbEntity
8
0
6
CONTINUOUS
62
256
370
-1
100
AcDbLine
10
-50
20
358.253135813
11
-670
21
358.253135813
0
ENDBLK
5
4C
330
4A
100
AcDbEntity
8
0
100
AcDbBlockEnd
0
ENDSEC
0
SECTION
2
ENTITIES
0
HATCH
5
57
100
AcDbEntity
8
0
6
CONTINUOUS
62
256
370
-1
100
AcDbHatch
10
0
20
0
30
0
210
0
220
0
230
1
2
sand
70
0
71
0
91
1
92
0
93
4
72
1
10
1101.79556926
20
-399.99395114
11
1141.79550588
21
-399.922741739
72
1
10
1141.79550588
20
-399.922741739
11
1141.80618729
21
-405.922732234
72
1
10
1141.80618729
20
-405.922732234
11
1101.80625067
21
-405.993941634
72
1
10
1101.80625067
20
-405.993941634
11
1101.79556926
21
-399.99395114
97
0
75
0
76
1
52
6.28140507134
41
1
77
0
78
0
98
0
0
HATCH
5
58
100
AcDbEntity
8
0
6
ByBlock
62
0
370
-3
100
AcDbHatch
10
0
20
0
30
0
210
0
220
0
230
1
2
honeycomb
70
0
71
0
91
1
92
0
93
4
72
1
10
1101.79556926
20
-399.99395114
11
1141.79550588
21
-399.922741739
72
1
10
1141.79550588
20
-399.922741739
11
1141.80618729
21
-405.922732234
72
1
10
1141.80618729
20
-405.922732234
11
1101.80625067
21
-405.993941634
72
1
10
1101.80625067
20
-405.993941634
11
1101.79556926
21
-399.99395114
97
0
75
0
76
1
52
0.347285614559
41
1
77
0
78
0
98
0
0
HATCH
5
59
100
AcDbEntity
8
0
6
CONTINUOUS
62
256
370
-1
100
AcDbHatch
10
0
20
0
30
0
210
0
220
0
230
1
2
sand
70
0
71
0
91
1
92
0
93
4
72
1
10
7098.20443074
20
-399.99395114
11
7058.20449412
21
-399.922741739
72
1
10
7058.20449412
20
-399.922741739
11
7058.19381271
21
-405.922732234
72
1
10
7058.19381271
20
-405.922732234
11
7098.19374933
21
-405.993941634
72
1
10
7098.19374933
20
-405.993941634
11
7098.20443074
21
-399.99395114
97
0
75
0
76
1
52
3.13981241775
41
1
77
0
78
0
98
0
0
HATCH
5
5A
100
AcDbEntity
8
0
6
ByBlock
62
0
370
-3
100
AcDbHatch
10
0
20
0
30
0
210
0
220
0
230
1
2
honeycomb
70
0
71
0
91
1
92
0
93
4
72
1
10
7098.20443074
20
-399.99395114
11
7058.20449412
21
-399.922741739
72
1
10
7058.20449412
20
-399.922741739
11
7058.19381271
21
-405.922732234
72
1
10
7058.19381271
20
-405.922732234
11
7098.19374933
21
-405.993941634
72
1
10
7098.19374933
20
-405.993941634
11
7098.20443074
21
-399.99395114
97
0
75
0
76
1
52
3.48887826815
41
1
77
0
78
0
98
0
0
HATCH
5
5B
100
AcDbEntity
8
0
6
ByBlock
62
0
370
-3
100
AcDbHatch
10
0
20
0
30
0
210
0
220
0
230
1
2
honeycomb
70
0
71
0
91
1
92
0
93
4
72
1
10
5689.93632277
20
1849.99999506
11
5649.93632277
21
1849.99999506
72
1
10
5649.93632277
20
1849.99999506
11
5649.93632277
21
1843.99999506
72
1
10
5649.93632277
20
1843.99999506
11
5689.93632277
21
1843.99999506
72
1
10
5689.93632277
20
1843.99999506
11
5689.93632277
21
1849.99999506
97
0
75
0
76
1
52
3.49065850399
41
1
77
0
78
0
98
0
0
HATCH
5
5C
100
AcDbEntity
8
0
6
CONTINUOUS
62
256
370
-1
100
AcDbHatch
10
0
20
0
30
0
210
0
220
0
230
1
2
sand
70
0
71
0
91
1
92
0
93
4
72
1
10
5689.93632277
20
1849.99999506
11
5649.93632277
21
1849.99999506
72
1
10
5649.93632277
20
1849.99999506
11
5649.93632277
21
1843.99999506
72
1
10
5649.93632277
20
1843.99999506
11
5689.93632277
21
1843.99999506
72
1
10
5689.93632277
20
1843.99999506
11
5689.93632277
21
1849.99999506
97
0
75
0
76
1
52
3.14159265359
41
1
77
0
78
0
98
0
0
HATCH
5
5D
100
AcDbEntity
8
0
6
CONTINUOUS
62
256
370
-1
100
AcDbHatch
10
0
20
0
30
0
210
0
220
0
230
1
2
sand
70
0
71
0
91
1
92
0
93
4
72
1
10
3003.05353881
20
1850
11
3043.05353881
21
1850
72
1
10
3043.05353881
20
1850
11
3043.05353881
21
1844
72
1
10
3043.05353881
20
1844
11
3003.05353881
21
1844
72
1
10
3003.05353881
20
1844
11
3003.05353881
21
1850
97
0
75
0
76
1
52
2.069e-013
41
1
77
0
78
0
98
0
0
LINE
5
5E
100
AcDbEntity
8
Centers
6
CONTINUOUS
62
4
370
-1
100
AcDbLine
10
5669.93632277
20
2049.99999506
11
5669.93632277
21
-150.000004943
0
LINE
5
5F
100
AcDbEntity
8
0
6
CONTINUOUS
62
256
370
-1
100
AcDbLine
10
5644.93632277
20
99.9999950575
11
5644.93632277
21
749.999995057
0
LINE
5
60
100
AcDbEntity
8
0
6
ByLayer
62
0
370
-3
100
AcDbLine
10
5644.93632277
20
49.9999950575
11
5644.93632277
21
1449.99999506
0
LINE
5
61
100
AcDbEntity
8
0
6
CONTINUOUS
62
256
370
-1
100
AcDbLine
10
5644.93632277
20
1449.99999506
11
5694.93632277
21
1449.99999506
0
LINE
5
62
100
AcDbEntity
8
0
6
CONTINUOUS
62
256
370
-1
100
AcDbLine
10
5694.93632277
20
49.9999950575
11
5644.93632277
21
49.9999950575
0
LINE
5
63
100
AcDbEntity
8
0
6
CONTINUOUS
62
256
370
-1
100
AcDbLine
10
5689.93632277
20
1849.99999506
11
5649.93632277
21
1849.99999506
0
LINE
5
64
100
AcDbEntity
8
0
6
CONTINUOUS
62
256
370
-1
100
AcDbLine
10
5649.93632277
20
1843.99999506
11
5689.93632277
21
1843.99999506
0
LINE
5
65
100
AcDbEntity
8
0
6
CONTINUOUS
62
256
370
-3
100
AcDbLine
10
5689.93632277
20
1843.99999506
11
5689.93632277
21
1449.99999506
0
LINE
5
66
100
AcDbEntity
8
0
6
CONTINUOUS
62
256
370
-1
100
AcDbLine
10
5649.93632277
20
1449.99999506
11
5649.93632277
21
1843.99999506
0
LINE
5
67
100
AcDbEntity
8
0
6
CONTINUOUS
62
256
370
-1
100
AcDbLine
10
5649.93632277
20
1849.99999506
11
5649.93632277
21
1843.99999506
0
LINE
5
68
100
AcDbEntity
8
0
6
CONTINUOUS
62
256
370
-1
100
AcDbLine
10
5689.93632277
20
1843.99999506
11
5689.93632277
21
1849.99999506
0
LINE
5
69
100
AcDbEntity
8
0
6
CONTINUOUS
62
256
370
-1
100
AcDbLine
10
5689.93632277
20
1899.99999506
11
5649.93632277
21
1899.99999506
0
LINE
5
6A
100
AcDbEntity
8
0
6
CONTINUOUS
62
256
370
-1
100
AcDbLine
10
5689.93632277
20
1849.99999506
11
5689.93632277
21
1899.99999506
0
LINE
5
6B
100
AcDbEntity
8
0
6
CONTINUOUS
62
256
370
-1
100
AcDbLine
10
5649.93632277
20
1899.99999506
11
5649.93632277
21
1849.99999506
0
CIRCLE
5
6C
100
AcDbEntity
8
0
6
CONTINUOUS
62
256
370
-1
100
AcDbCircle
10
5669.93632277
20
1874.99999506
40
8.1
0
LINE
5
6D
100
AcDbEntity
8
0
6
ByLayer
62
256
370
-1
100
AcDbLine
10
5644.93632277
20
779.999995057
11
5694.93632277
21
780.637425245
0
LINE
5
6E
100
AcDbEntity
8
0
6
CONTINUOUS
62
256
370
-1
100
AcDbLine
10
5644.93632277
20
1449.99999506
11
5644.93632277
21
779.999995057
0
LINE
5
6F
100
AcDbEntity
8
0
6
CONTINUOUS
62
256
370
-1
100
AcDbLine
10
5644.93632277
20
779.999995057
11
5644.93632277
21
49.9999950575
0
LINE
5
70
100
AcDbEntity
8
0
6
CONTINUOUS
62
256
370
-1
100
AcDbLine
10
5694.93632277
20
779.999995057
11
5694.93632277
21
1449.99999506
0
LINE
5
71
100
AcDbEntity
8
0
6
CONTINUOUS
62
256
370
-1
100
AcDbLine
10
5694.93632277
20
49.9999950575
11
5694.93632277
21
779.999995057
0
LINE
5
72
100
AcDbEntity
8
0
6
CONTINUOUS
62
256
370
-3
100
AcDbLine
10
5689.93632277
20
1449.99999506
11
5689.93632277
21
49.9999950575
0
LINE
5
73
100
AcDbEntity
8
0
6
CONTINUOUS
62
256
370
-1
100
AcDbLine
10
5684.70132277
20
49.9999950575
11
5684.93632277
21
149.999995057
0
LINE
5
74
100
AcDbEntity
8
0
6
CONTINUOUS
62
256
370
-1
100
AcDbLine
10
5684.93632277
20
149.999995057
11
5654.93632277
21
149.999995057
0
LINE
5
75
100
AcDbEntity
8
0
6
CONTINUOUS
62
256
370
-1
100
AcDbLine
10
5654.93632277
20
149.999995057
11
5654.93632277
21
49.9999950575
0
LINE
5
76
100
AcDbEntity
8
0
6
CONTINUOUS
62
256
370
-1
100
AcDbLine
10
5649.93632277
20
49.9999950575
11
5649.93632277
21
1449.99999506
0
LINE
5
77
100
AcDbEntity
8
Centers
6
CONTINUOUS
62
4
370
-1
100
AcDbLine
10
5775
20
2049
11
5775
21
-151.000000003
0
LINE
5
78
100
AcDbEntity
8
0
6
ByLayer
62
0
370
-3
100
AcDbLine
10
5750
20
49.9999999975
11
5750
21
1850
0
LINE
5
79
100
AcDbEntity
8
0
6
ByLayer
62
256
370
-1
100
AcDbLine
10
5800
20
1850
11
5800
21
1900
0
LINE
5
7A
100
AcDbEntity
8
0
6
CONTINUOUS
62
256
370
-1
100
AcDbLine
10
3805
20
1900
11
3765
21
1900
0
LINE
5
7B
100
AcDbEntity
8
0
6
ByLayer
62
256
370
-1
100
AcDbLine
10
5800
20
1900
11
2905
21
1900
0
LINE
5
7C
100
AcDbEntity
8
0
6
ByLayer
62
256
370
-1
100
AcDbLine
10
5800
20
0
11
2905
21
0
0
LINE
5
7D
100
AcDbEntity
8
0
6
ByLayer
62
256
370
-1
100
AcDbLine
10
2905
20
50
11
5800
21
50
0
LINE
5
7E
100
AcDbEntity
8
0
6
ByLayer
62
256
370
-1
100
AcDbLine
10
5800
20
50
11
5800
21
0
0
LINE
5
7F
100
AcDbEntity
8
0
6
ByLayer
62
0
370
-3
100
AcDbLine
10
5800
20
1850
11
5800
21
50
0
LINE
5
80
100
AcDbEntity
8
Centers
6
CONTINUOUS
62
4
370
-1
100
AcDbLine
10
2930
20
2051
11
2930
21
-149
0
LINE
5
81
100
AcDbEntity
8
0
6
ByLayer
62
0
370
-3
100
AcDbLine
10
2954.56076477
20
1850
11
2954.56076477
21
50
0
LINE
5
82
100
AcDbEntity
8
0
6
ByLayer
62
0
370
-3
100
AcDbLine
10
2904.56076477
20
50
11
2904.56076477
21
1850
0
LINE
5
83
100
AcDbEntity
8
0
6
ByLayer
62
256
370
-1
100
AcDbLine
10
2905
20
1901
11
2905
21
1851
0
LINE
5
84
100
AcDbEntity
8
0
6
ByLayer
62
256
370
-1
100
AcDbLine
10
2904.56076477
20
51
11
2904.56076477
21
1
0
LINE
5
85
100
AcDbEntity
8
0
6
CONTINUOUS
62
256
370
-1
100
AcDbLine
10
3753.03979515
20
50
11
3703.03979515
21
50
0
LINE
5
86
100
AcDbEntity
8
0
6
ByLayer
62
0
370
-3
100
AcDbLine
10
3056.72850093
20
50
11
3056.72850093
21
1450
0
LINE
5
87
100
AcDbEntity
8
0
6
CONTINUOUS
62
256
370
-1
100
AcDbLine
10
3056.72850093
20
780
11
3056.72850093
21
50
0
LINE
5
88
100
AcDbEntity
8
0
6
CONTINUOUS
62
256
370
-1
100
AcDbLine
10
3006.72850093
20
780
11
3006.72850093
21
1450
0
LINE
5
89
100
AcDbEntity
8
0
6
CONTINUOUS
62
256
370
-1
100
AcDbLine
10
3006.72850093
20
50
11
3006.72850093
21
780
0
LINE
5
8A
100
AcDbEntity
8
0
6
CONTINUOUS
62
256
370
-1
100
AcDbLine
10
3016.96350093
20
50
11
3016.72850093
21
150
0
LINE
5
8B
100
AcDbEntity
8
0
6
CONTINUOUS
62
256
370
-1
100
AcDbLine
10
3016.72850093
20
150
11
3046.72850093
21
150
0
LINE
5
8C
100
AcDbEntity
8
0
6
CONTINUOUS
62
256
370
-1
100
AcDbLine
10
3046.72850093
20
150
11
3046.72850093
21
50
0
LINE
5
8D
100
AcDbEntity
8
0
6
CONTINUOUS
62
256
370
-1
100
AcDbLine
10
3051.72850093
20
50
11
3051.72850093
21
1450
0
LINE
5
8E
100
AcDbEntity
8
0
6
CONTINUOUS
62
256
370
-1
100
AcDbLine
10
3667.78025073
20
730
11
3667.78025073
21
100
0
LINE
5
8F
100
AcDbEntity
8
0
6
CONTINUOUS
62
256
370
-1
100
AcDbLine
10
3717.78025073
20
100
11
3717.78025073
21
730
0
LINE
5
90
100
AcDbEntity
8
0
6
CONTINUOUS
62
256
370
-1
100
AcDbLine
10
3667.78025073
20
100
11
3717.78025073
21
100
0
LINE
5
91
100
AcDbEntity
8
0
6
ByLayer
62
256
370
-1
100
AcDbLine
10
3057.78025073
20
100
11
3667.78025073
21
100
0
LINE
5
92
100
AcDbEntity
8
0
6
CONTINUOUS
62
256
370
-1
100
AcDbLine
10
3057.78025073
20
100
11
3057.78025073
21
750
0
LINE
5
93
100
AcDbEntity
8
0
6
ByLayer
62
256
370
-1
100
AcDbLine
10
3057.78025073
20
384.23
11
3667.78025073
21
382.426
0
LINE
5
94
100
AcDbEntity
8
0
6
ByLayer
62
256
370
-1
100
AcDbLine
10
3057.78025073
20
436.543
11
3667.78025073
21
436.543
0
LINE
5
95
100
AcDbEntity
8
0
6
ByLayer
62
256
370
-1
100
AcDbLine
10
3057.78025073
20
150
11
3667.78025073
21
150
0
LINE
5
96
100
AcDbEntity
8
0
6
CONTINUOUS
62
256
370
-1
100
AcDbLine
10
3665.72850093
20
1400.40089829
11
3665.72850093
21
827.988474234
0
LINE
5
97
100
AcDbEntity
8
0
6
CONTINUOUS
62
256
370
-1
100
AcDbLine
10
3715.72850093
20
827.988474234
11
3715.72850093
21
1400.40089829
0
LINE
5
98
100
AcDbEntity
8
0
6
ByLayer
62
256
370
-1
100
AcDbLine
10
3057.78025073
20
1350
11
3667.78025073
21
1350
0
LINE
5
99
100
AcDbEntity
8
0
6
ByLayer
62
256
370
-1
100
AcDbLine
10
3057.78025073
20
1400
11
3667.78025073
21
1400
0
LINE
5
9A
100
AcDbEntity
8
Centers
6
CONTINUOUS
62
4
370
-1
100
AcDbLine
10
3760
20
1999.71099568
11
3760
21
-200.289004317
0
LINE
5
9B
100
AcDbEntity
8
Centers
6
CONTINUOUS
62
4
370
-1
100
AcDbLine
10
3031.72850093
20
2051.41333359
11
3031.72850093
21
-148.58666641
0
LINE
5
9C
100
AcDbEntity
8
0
6
ByLayer
62
256
370
-1
100
AcDbLine
10
5799.56076477
20
1849
11
2904.56076477
21
1849
0
CIRCLE
5
9D
100
AcDbEntity
8
0
6
CONTINUOUS
62
256
370
-1
100
AcDbCircle
10
3031.72850093
20
1876.4540169
40
8.1
0
LINE
5
9E
100
AcDbEntity
8
Centers
6
ByLayer
62
256
370
-1
100
AcDbLine
10
3715.72850093
20
1300
11
3715.72850093
21
729
0
LINE
5
9F
100
AcDbEntity
8
Centers
6
ByLayer
62
256
370
-1
100
AcDbLine
10
3665.72850093
20
830
11
3665.72850093
21
730
0
LINE
5
A0
100
AcDbEntity
8
0
6
ByLayer
62
256
370
-1
100
AcDbLine
10
3055.72850093
20
862.245085635
11
3665.72850093
21
862.245085635
0
LINE
5
A1
100
AcDbEntity
8
0
6
ByLayer
62
256
370
-1
100
AcDbLine
10
3057.78025073
20
810.301187345
11
3667.78025073
21
810.301187345
0
LINE
5
A2
100
AcDbEntity
8
0
6
CONTINUOUS
62
256
370
-3
100
AcDbLine
10
3010
20
1450
11
3010
21
50
0
LINE
5
A3
100
AcDbEntity
8
Centers
6
ByLayer
62
256
370
-1
100
AcDbLine
10
3006.72850093
20
810.301187345
11
3006.72850093
21
1450
0
LINE
5
A4
100
AcDbEntity
8
0
6
CONTINUOUS
62
256
370
-1
100
AcDbLine
10
3052.49
20
1844
11
3010
21
1844
0
LINE
5
A5
100
AcDbEntity
8
0
6
CONTINUOUS
62
256
370
-1
100
AcDbLine
10
3052.49
20
1450
11
3052.49
21
1849
0
LINE
5
A6
100
AcDbEntity
8
Centers
6
ByLayer
62
256
370
-1
100
AcDbLine
10
3052.49
20
1849
11
3052.49
21
1900
0
LINE
5
A7
100
AcDbEntity
8
0
6
CONTINUOUS
62
256
370
-3
100
AcDbLine
10
3010
20
1900
11
3010
21
1450
0
LINE
5
A8
100
AcDbEntity
8
0
6
ByLayer
62
0
370
-3
100
AcDbLine
10
3735
20
1850
11
3735
21
50
0
LINE
5
A9
100
AcDbEntity
8
0
6
ByLayer
62
0
370
-3
100
AcDbLine
10
3785
20
50
11
3785
21
1850
0
LINE
5
AA
100
AcDbEntity
8
Centers
6
CONTINUOUS
62
4
370
-1
100
AcDbLine
10
3869.82036131
20
2051
11
3869.82036131
21
-149
0
LINE
5
AB
100
AcDbEntity
8
0
6
CONTINUOUS
62
256
370
-3
100
AcDbLine
10
3849.82036131
20
1900
11
3849.82036131
21
50
0
LINE
5
AC
100
AcDbEntity
8
0
6
ByLayer
62
0
370
-3
100
AcDbLine
10
3889.82036131
20
1850
11
3889.82036131
21
50
0
LINE
5
AD
100
AcDbEntity
8
Centers
6
ByLayer
62
256
370
-1
100
AcDbLine
10
3006.73
20
1450
11
3055
21
1450
0
LINE
5
AE
100
AcDbEntity
8
0
6
ByLayer
62
256
370
-1
100
AcDbLine
10
3715.73
20
1400
11
3665.73
21
1400
0
LINE
5
AF
100
AcDbEntity
8
Centers
6
ByLayer
62
256
370
-1
100
AcDbLine
10
3845
20
1400
11
3895
21
1400
0
LINE
5
B0
100
AcDbEntity
8
0
6
ByLayer
62
0
370
-3
100
AcDbLine
10
3845
20
1400.10471153
11
3845
21
50
0
LINE
5
B1
100
AcDbEntity
8
0
6
ByLayer
62
0
370
-3
100
AcDbLine
10
3895
20
50
11
3895
21
1400.10471153
0
CIRCLE
5
B2
100
AcDbEntity
8
0
6
CONTINUOUS
62
256
370
-1
100
AcDbCircle
10
3871.54886224
20
1876.4540169
40
8.1
0
LINE
5
B3
100
AcDbEntity
8
Centers
6
ByLayer
62
256
370
-1
100
AcDbLine
10
3889.82036131
20
1849
11
3889.82036131
21
1900
0
LINE
5
B4
100
AcDbEntity
8
0
6
CONTINUOUS
62
256
370
-1
100
AcDbLine
10
3889.82036131
20
1844
11
3849.82036131
21
1844
0
LINE
5
B5
100
AcDbEntity
8
0
6
CONTINUOUS
62
256
370
-1
100
AcDbLine
10
7050.08909098
20
-2149.91106748
11
7051.24624366
21
-1499.91209749
0
LINE
5
B6
100
AcDbEntity
8
0
6
ByLayer
62
0
370
-3
100
AcDbLine
10
7050.00007923
20
-2199.91098826
11
7052.49240809
21
-799.913206717
0
LINE
5
B7
100
AcDbEntity
8
0
6
CONTINUOUS
62
256
370
-1
100
AcDbLine
10
7052.49240809
20
-799.913206717
11
7102.49232885
21
-800.00221847
0
LINE
5
B8
100
AcDbEntity
8
0
6
CONTINUOUS
62
256
370
-1
100
AcDbLine
10
7098.20443074
20
-399.99395114
11
7058.20449412
21
-399.922741739
0
LINE
5
B9
100
AcDbEntity
8
0
6
CONTINUOUS
62
256
370
-1
100
AcDbLine
10
7058.19381271
20
-405.922732234
11
7098.19374933
21
-405.993941634
0
LINE
5
BA
100
AcDbEntity
8
0
6
CONTINUOUS
62
256
370
-1
100
AcDbLine
10
7057.49240016
20
-799.922107893
11
7058.19381271
21
-405.922732234
0
LINE
5
BB
100
AcDbEntity
8
0
6
CONTINUOUS
62
256
370
-1
100
AcDbLine
10
7058.20449412
20
-399.922741739
11
7058.19381271
21
-405.922732234
0
LINE
5
BC
100
AcDbEntity
8
0
6
CONTINUOUS
62
256
370
-1
100
AcDbLine
10
7098.19374933
20
-405.993941634
11
7098.20443074
21
-399.99395114
0
LINE
5
BD
100
AcDbEntity
8
0
6
CONTINUOUS
62
256
370
-1
100
AcDbLine
10
7098.29344248
20
-349.994030365
11
7058.29350587
21
-349.922820975
0
LINE
5
BE
100
AcDbEntity
8
0
6
CONTINUOUS
62
256
370
-1
100
AcDbLine
10
7098.20443074
20
-399.99395114
11
7098.29344248
21
-349.994030365
0
LINE
5
BF
100
AcDbEntity
8
0
6
CONTINUOUS
62
256
370
-1
100
AcDbLine
10
7058.29350587
20
-349.922820975
11
7058.20449412
21
-399.922741739
0
CIRCLE
5
C0
100
AcDbEntity
8
0
6
CONTINUOUS
62
256
370
-1
100
AcDbCircle
10
7078.2489683
20
-374.958386057
40
8.1
0
LINE
5
C1
100
AcDbEntity
8
0
6
ByLayer
62
256
370
-1
100
AcDbLine
10
7051.29965071
20
-1469.91214502
11
7101.30070625
21
-1469.36372759
0
LINE
5
C2
100
AcDbEntity
8
0
6
CONTINUOUS
62
256
370
-1
100
AcDbLine
10
7052.49240809
20
-799.913206717
11
7051.29965071
21
-1469.91214502
0
LINE
5
C3
100
AcDbEntity
8
0
6
CONTINUOUS
62
256
370
-1
100
AcDbLine
10
7051.29965071
20
-1469.91214502
11
7050.00007923
21
-2199.91098826
0
LINE
5
C4
100
AcDbEntity
8
0
6
CONTINUOUS
62
256
370
-1
100
AcDbLine
10
7101.29957147
20
-1470.00115678
11
7102.49232885
21
-800.00221847
0
LINE
5
C5
100
AcDbEntity
8
0
6
CONTINUOUS
62
256
370
-1
100
AcDbLine
10
7100
20
-2200
11
7101.29957147
21
-1470.00115678
0
LINE
5
C6
100
AcDbEntity
8
0
6
CONTINUOUS
62
256
370
-3
100
AcDbLine
10
7097.49233678
20
-799.993317294
11
7095.00000792
21
-2199.99109882
0
LINE
5
C7
100
AcDbEntity
8
0
6
CONTINUOUS
62
256
370
-1
100
AcDbLine
10
7055.00007131
20
-2199.91988943
11
7057.49240016
21
-799.922107893
0
LINE
5
C8
100
AcDbEntity
8
0
6
CONTINUOUS
62
256
370
-1
100
AcDbLine
10
5402.46968811
20
-846.975848329
11
7052.46707348
21
-849.913235907
0
LINE
5
C9
100
AcDbEntity
8
0
6
CONTINUOUS
62
256
370
-1
100
AcDbLine
10
5402.38957754
20
-891.975777019
11
7052.38696291
21
-894.913164606
0
LINE
5
CA
100
AcDbEntity
8
0
6
CONTINUOUS
62
256
370
-1
100
AcDbLine
10
5402.00682703
20
-1106.97543633
11
7051.94021251
21
-1109.91270998
0
LINE
5
CB
100
AcDbEntity
8
0
6
CONTINUOUS
62
256
370
-1
100
AcDbLine
10
7051.91520067
20
-1159.91274467
11
5401.91781529
21
-1156.9753571
0
LINE
5
CC
100
AcDbEntity
8
0
6
ByLayer
62
256
370
-1
100
AcDbLine
10
5401.54396596
20
-1366.97502432
11
7056.47734352
21
-1369.92119915
0
LINE
5
CD
100
AcDbEntity
8
0
6
ByLayer
62
256
370
-1
100
AcDbLine
10
7051.45233959
20
-1419.91233268
11
5401.45495421
21
-1416.9749451
0
LINE
5
CE
100
AcDbEntity
8
0
6
CONTINUOUS
62
256
370
-1
100
AcDbLine
10
7050.99079544
20
-1643.22186488
11
5401.05740996
21
-1640.28459123
0
LINE
5
CF
100
AcDbEntity
8
0
6
CONTINUOUS
62
256
370
-1
100
AcDbLine
10
5401.18791898
20
-1566.9747074
11
7051.18530436
21
-1569.91209499
0
LINE
5
D0
100
AcDbEntity
8
0
6
CONTINUOUS
62
256
370
-1
100
AcDbLine
10
5400.96839822
20
-1690.28451201
11
7050.90178369
21
-1693.22178565
0
LINE
5
D1
100
AcDbEntity
8
0
6
CONTINUOUS
62
256
370
-1
100
AcDbLine
10
5400.25106502
20
-2093.22687349
11
7050.1844505
21
-2096.16414714
0
LINE
5
D2
100
AcDbEntity
8
0
6
CONTINUOUS
62
256
370
-1
100
AcDbLine
10
5353.46976575
20
-846.888616824
11
5352.45503187
21
-1416.88771358
0
LINE
5
D3
100
AcDbEntity
8
0
6
ByLayer
62
256
370
-1
100
AcDbLine
10
5402.45495263
20
-1416.97672534
11
5352.45503187
21
-1416.88771358
0
LINE
5
D4
100
AcDbEntity
8
0
6
ByLayer
62
256
370
-1
100
AcDbLine
10
5403.47146675
20
-845.977630148
11
5402.45673287
21
-1415.97672692
0
LINE
5
D5
100
AcDbEntity
8
0
6
ByLayer
62
256
370
-1
100
AcDbLine
10
5403.47146675
20
-845.977630148
11
5353.47154599
21
-845.888618406
0
LINE
5
D6
100
AcDbEntity
8
0
6
ByLayer
62
256
370
-1
100
AcDbLine
10
5402.28359968
20
-1513.22957281
11
5401.1620517
21
-2143.22857449
0
LINE
5
D7
100
AcDbEntity
8
0
6
ByLayer
62
256
370
-1
100
AcDbLine
10
5352.28367891
20
-1513.14056107
11
5402.28359968
21
-1513.22957281
0
LINE
5
D8
100
AcDbEntity
8
0
6
CONTINUOUS
62
256
370
-1
100
AcDbLine
10
7050.15276812
20
-2149.91117591
11
5400.15538274
21
-2146.97378833
0
LINE
5
D9
100
AcDbEntity
8
0
6
ByLayer
62
256
370
-1
100
AcDbLine
10
5405.15537482
20
-2146.9826895
11
5355.15545404
21
-2146.89367775
0
LINE
5
DA
100
AcDbEntity
8
0
6
CONTINUOUS
62
256
370
-1
100
AcDbLine
10
5356.27700203
20
-1516.89467607
11
5355.15545404
21
-2146.89367775
0
LINE
5
DB
100
AcDbEntity
8
0
6
ByLayer
62
0
370
-3
100
AcDbLine
10
5330.71035079
20
-396.84738657
11
5327.50592797
21
-2196.84453425
0
LINE
5
DC
100
AcDbEntity
8
0
6
ByLayer
62
0
370
-3
100
AcDbLine
10
5282.49688209
20
-2196.76440745
11
5285.7013049
21
-396.767259767
0
LINE
5
DD
100
AcDbEntity
8
0
6
CONTINUOUS
62
256
370
-1
100
AcDbLine
10
7051.2743161
20
-1519.91217421
11
5401.27693072
21
-1516.97478664
0
LINE
5
DE
100
AcDbEntity
8
0
6
CONTINUOUS
62
256
370
-3
100
AcDbLine
10
7098.18916517
20
-405.99006455
11
7097.49477209
21
-799.987803145
0
LINE
5
DF
100
AcDbEntity
8
0
6
CONTINUOUS
62
256
370
-1
100
AcDbLine
10
1149.91090902
20
-2149.91106748
11
1148.75375634
21
-1499.91209749
0
LINE
5
E0
100
AcDbEntity
8
0
6
ByLayer
62
0
370
-3
100
AcDbLine
10
1149.99992077
20
-2199.91098826
11
1147.50759191
21
-799.913206717
0
LINE
5
E1
100
AcDbEntity
8
0
6
CONTINUOUS
62
256
370
-1
100
AcDbLine
10
1147.50759191
20
-799.913206717
11
1097.50767115
21
-800.00221847
0
LINE
5
E2
100
AcDbEntity
8
0
6
CONTINUOUS
62
256
370
-1
100
AcDbLine
10
1101.79556926
20
-399.99395114
11
1141.79550588
21
-399.922741739
0
LINE
5
E3
100
AcDbEntity
8
0
6
CONTINUOUS
62
256
370
-1
100
AcDbLine
10
1141.80618729
20
-405.922732234
11
1101.80625067
21
-405.993941634
0
LINE
5
E4
100
AcDbEntity
8
0
6
CONTINUOUS
62
256
370
-1
100
AcDbLine
10
1142.50759984
20
-799.922107893
11
1141.80618729
21
-405.922732234
0
LINE
5
E5
100
AcDbEntity
8
0
6
CONTINUOUS
62
256
370
-1
100
AcDbLine
10
1141.79550588
20
-399.922741739
11
1141.80618729
21
-405.922732234
0
LINE
5
E6
100
AcDbEntity
8
0
6
CONTINUOUS
62
256
370
-1
100
AcDbLine
10
1101.80625067
20
-405.993941634
11
1101.79556926
21
-399.99395114
0
LINE
5
E7
100
AcDbEntity
8
0
6
CONTINUOUS
62
256
370
-1
100
AcDbLine
10
1101.70655752
20
-349.994030365
11
1141.70649413
21
-349.922820975
0
LINE
5
E8
100
AcDbEntity
8
0
6
CONTINUOUS
62
256
370
-1
100
AcDbLine
10
1101.79556926
20
-399.99395114
11
1101.70655752
21
-349.994030365
0
LINE
5
E9
100
AcDbEntity
8
0
6
CONTINUOUS
62
256
370
-1
100
AcDbLine
10
1141.70649413
20
-349.922820975
11
1141.79550588
21
-399.922741739
0
CIRCLE
5
EA
100
AcDbEntity
8
0
6
CONTINUOUS
62
256
370
-1
100
AcDbCircle
10
1121.7510317
20
-374.958386057
40
8.1
0
LINE
5
EB
100
AcDbEntity
8
0
6
ByLayer
62
256
370
-1
100
AcDbLine
10
1148.70034929
20
-1469.91214502
11
1098.69929375
21
-1469.36372759
0
LINE
5
EC
100
AcDbEntity
8
0
6
CONTINUOUS
62
256
370
-1
100
AcDbLine
10
1147.50759191
20
-799.913206717
11
1148.70034929
21
-1469.91214502
0
LINE
5
ED
100
AcDbEntity
8
0
6
CONTINUOUS
62
256
370
-1
100
AcDbLine
10
1148.70034929
20
-1469.91214502
11
1149.99992077
21
-2199.91098826
0
LINE
5
EE
100
AcDbEntity
8
0
6
CONTINUOUS
62
256
370
-1
100
AcDbLine
10
1098.70042853
20
-1470.00115678
11
1097.50767115
21
-800.00221847
0
LINE
5
EF
100
AcDbEntity
8
0
6
CONTINUOUS
62
256
370
-1
100
AcDbLine
10
1100
20
-2200
11
1098.70042853
21
-1470.00115678
0
LINE
5
F0
100
AcDbEntity
8
0
6
CONTINUOUS
62
256
370
-3
100
AcDbLine
10
1102.50766322
20
-799.993317294
11
1104.99999208
21
-2199.99109882
0
LINE
5
F1
100
AcDbEntity
8
0
6
CONTINUOUS
62
256
370
-1
100
AcDbLine
10
1144.99992869
20
-2199.91988943
11
1142.50759984
21
-799.922107893
0
LINE
5
F2
100
AcDbEntity
8
0
6
CONTINUOUS
62
256
370
-1
100
AcDbLine
10
2797.53031189
20
-846.975848329
11
1147.53292652
21
-849.913235907
0
LINE
5
F3
100
AcDbEntity
8
0
6
CONTINUOUS
62
256
370
-1
100
AcDbLine
10
2797.61042246
20
-891.975777019
11
1147.61303709
21
-894.913164606
0
LINE
5
F4
100
AcDbEntity
8
0
6
CONTINUOUS
62
256
370
-1
100
AcDbLine
10
2797.99317297
20
-1106.97543633
11
1148.05978749
21
-1109.91270998
0
LINE
5
F5
100
AcDbEntity
8
0
6
CONTINUOUS
62
256
370
-1
100
AcDbLine
10
1148.08479933
20
-1159.91274467
11
2798.08218471
21
-1156.9753571
0
LINE
5
F6
100
AcDbEntity
8
0
6
ByLayer
62
256
370
-1
100
AcDbLine
10
2798.45603404
20
-1366.97502432
11
1143.52265648
21
-1369.92119915
0
LINE
5
F7
100
AcDbEntity
8
0
6
ByLayer
62
256
370
-1
100
AcDbLine
10
1148.54766041
20
-1419.91233268
11
2798.54504579
21
-1416.9749451
0
LINE
5
F8
100
AcDbEntity
8
0
6
CONTINUOUS
62
256
370
-1
100
AcDbLine
10
1149.00920456
20
-1643.22186488
11
2798.94259004
21
-1640.28459123
0
LINE
5
F9
100
AcDbEntity
8
0
6
CONTINUOUS
62
256
370
-1
100
AcDbLine
10
2798.81208102
20
-1566.9747074
11
1148.81469564
21
-1569.91209499
0
LINE
5
FA
100
AcDbEntity
8
0
6
CONTINUOUS
62
256
370
-1
100
AcDbLine
10
2799.03160178
20
-1690.28451201
11
1149.09821631
21
-1693.22178565
0
LINE
5
FB
100
AcDbEntity
8
0
6
CONTINUOUS
62
256
370
-1
100
AcDbLine
10
2799.74893498
20
-2093.22687349
11
1149.8155495
21
-2096.16414714
0
LINE
5
FC
100
AcDbEntity
8
0
6
CONTINUOUS
62
256
370
-1
100
AcDbLine
10
2846.53023425
20
-846.888616824
11
2847.54496813
21
-1416.88771358
0
LINE
5
FD
100
AcDbEntity
8
0
6
ByLayer
62
256
370
-1
100
AcDbLine
10
2797.54504737
20
-1416.97672534
11
2847.54496813
21
-1416.88771358
0
LINE
5
FE
100
AcDbEntity
8
0
6
ByLayer
62
256
370
-1
100
AcDbLine
10
2796.52853325
20
-845.977630148
11
2797.54326713
21
-1415.97672692
0
LINE
5
FF
100
AcDbEntity
8
0
6
ByLayer
62
256
370
-1
100
AcDbLine
10
2796.52853325
20
-845.977630148
11
2846.52845401
21
-845.888618406
0
LINE
5
100
100
AcDbEntity
8
0
6
ByLayer
62
256
370
-1
100
AcDbLine
10
2797.71640032
20
-1513.22957281
11
2798.8379483
21
-2143.22857449
0
LINE
5
101
100
AcDbEntity
8
0
6
ByLayer
62
256
370
-1
100
AcDbLine
10
2847.71632109
20
-1513.14056107
11
2797.71640032
21
-1513.22957281
0
LINE
5
102
100
AcDbEntity
8
0
6
CONTINUOUS
62
256
370
-1
100
AcDbLine
10
1149.84723188
20
-2149.91117591
11
2799.84461726
21
-2146.97378833
0
LINE
5
103
100
AcDbEntity
8
0
6
ByLayer
62
256
370
-1
100
AcDbLine
10
2794.84462518
20
-2146.9826895
11
2844.84454596
21
-2146.89367775
0
LINE
5
104
100
AcDbEntity
8
0
6
CONTINUOUS
62
256
370
-1
100
AcDbLine
10
2843.72299797
20
-1516.89467607
11
2844.84454596
21
-2146.89367775
0
LINE
5
105
100
AcDbEntity
8
0
6
ByLayer
62
0
370
-3
100
AcDbLine
10
2869.28964921
20
-396.84738657
11
2872.49407203
21
-2196.84453425
0
LINE
5
106
100
AcDbEntity
8
0
6
ByLayer
62
0
370
-3
100
AcDbLine
10
2917.50311791
20
-2196.76440745
11
2914.2986951
21
-396.767259767
0
LINE
5
107
100
AcDbEntity
8
0
6
CONTINUOUS
62
256
370
-1
100
AcDbLine
10
1148.7256839
20
-1519.91217421
11
2798.72306928
21
-1516.97478664
0
LINE
5
108
100
AcDbEntity
8
0
6
CONTINUOUS
62
256
370
-3
100
AcDbLine
10
1101.81083483
20
-405.99006455
11
1102.50522791
21
-799.987803145
0
LINE
5
109
100
AcDbEntity
8
Title Block
6
ByLayer
62
256
370
-1
100
AcDbLine
10
2375.77592219
20
-2295.10044444
11
6125.77592219
21
-2295.10044444
0
LINE
5
10A
100
AcDbEntity
8
Title Block
6
ByLayer
62
256
370
-1
100
AcDbLine
10
2375.77592219
20
-2694.28044444
11
6125.77592219
21
-2694.28044444
0
LINE
5
10B
100
AcDbEntity
8
Title Block
6
ByLayer
62
256
370
-1
100
AcDbLine
10
6125.77592219
20
-3163.90419444
11
2375.77592219
21
-3156.07669444
0
LINE
5
10C
100
AcDbEntity
8
Title Block
6
ByLayer
62
256
370
-1
100
AcDbLine
10
6125.77592219
20
-3545.10044444
11
2375.77592219
21
-3545.10044444
0
LINE
5
10D
100
AcDbEntity
8
Title Block
6
ByLayer
62
256
370
-1
100
AcDbLine
10
2375.77592219
20
-3545.10044444
11
2375.77592219
21
-2295.10044444
0
LINE
5
10E
100
AcDbEntity
8
Title Block
6
ByLayer
62
256
370
-1
100
AcDbLine
10
6125.77592219
20
-2295.10044444
11
6125.77592219
21
-3545.10044444
0
TEXT
5
10F
100
AcDbEntity
8
Title Block
6
ByLayer
62
256
370
-1
100
AcDbText
10
2929.59536663
20
-2420.10044444
30
0
40
62.5
1
Part Name
50
0
41
1
51
0
7
standard
71
0
72
2
11
2929.59536663
21
-2420.10044444
31
0
210
0
220
0
230
1
100
AcDbText
73
3
0
MTEXT
5
110
100
AcDbEntity
8
Title Block
6
ByLayer
62
256
370
-1
100
AcDbMText
10
5000.77592219
20
-2795.10044444
30
0
40
62.5
41
201.388875639
71
3
72
1
1
Scale
7
standard
210
0
220
0
230
1
50
0
73
2
44
1
0
MTEXT
5
111
100
AcDbEntity
8
Title Block
6
ByLayer
62
256
370
-1
100
AcDbMText
10
5500.77592219
20
-2920.10044444
30
0
40
125
41
263.888888889
71
3
72
1
1
Full
7
standard
210
0
220
0
230
1
50
0
73
2
44
1
0
MTEXT
5
112
100
AcDbEntity
8
Title Block
6
ByLayer
62
256
370
-1
100
AcDbMText
10
3625.77592219
20
-3295.10044444
30
0
40
125
41
774.305555556
71
3
72
1
1
Ty Tower
7
standard
210
0
220
0
230
1
50
0
73
2
44
1
0
LINE
5
113
100
AcDbEntity
8
Title Block
6
ByLayer
62
256
370
-1
100
AcDbLine
10
4741.03842219
20
-2694.28044444
11
4736.93559236
21
-3140.38519538
0
LINE
5
114
100
AcDbEntity
8
Title Block
6
ByLayer
62
256
370
-1
100
AcDbLine
10
4052.28359007
20
-3159.57612478
11
4052.25821842
21
-3545.10044444
0
MTEXT
5
115
100
AcDbEntity
8
Title Block
6
ByLayer
62
256
370
-1
100
AcDbMText
10
4250.77592219
20
-3420.10044444
30
0
40
62.5
41
173.611111111
71
2
72
1
1
Date
7
standard
210
0
220
0
230
1
50
0
73
2
44
1
0
MTEXT
5
116
100
AcDbEntity
8
Title Block
6
ByLayer
62
256
370
-1
100
AcDbMText
10
5900
20
-3300
30
0
40
125
41
1437.5
71
3
72
1
1
9th January 2016
7
standard
210
0
220
0
230
1
50
0
73
2
44
1
0
MTEXT
5
117
100
AcDbEntity
8
Title Block
6
ByLayer
62
256
370
-1
100
AcDbMText
10
3249.52592219
20
-2420.10044444
30
0
40
125
41
1781.25012857
71
1
72
1
1
Crush Right side Full
7
standard
210
0
220
0
230
1
50
0
73
2
44
1
0
ENDSEC
0
SECTION
2
OBJECTS
0
DICTIONARY
5
C
330
0
100
AcDbDictionary
281
1
3
ACAD_GROUP
350
D
0
DICTIONARY
5
D
330
C
100
AcDbDictionary
281
1
0
ENDSEC
0
EOF
