  0
SECTION
  2
HEADER
  9
$ACADVER
  1
AC1014
  9
$HANDSEED
  5
FFFF
  9
$MEASUREMENT
 70
     1
  0
ENDSEC
  0
SECTION
  2
TABLES
  0
TABLE
  2
VPORT
  5
8
330
0
100
AcDbSymbolTable
 70
     4
  0
VPORT
  5
2E
330
8
100
AcDbSymbolTableRecord
100
AcDbViewportTableRecord
  2
*ACTIVE
 70
     0
 10
0.0
 20
0.0
 11
1.0
 21
1.0
 12
210.0
 22
148.5
 13
0.0
 23
0.0
 14
10.0
 24
10.0
 15
10.0
 25
10.0
 16
0.0
 26
0.0
 36
1.0
 17
0.0
 27
0.0
 37
0.0
 40
341.0
 41
1.24
 42
50.0
 43
0.0
 44
0.0
 50
0.0
 51
0.0
 71
     0
 72
   100
 73
     1
 74
     3
 75
     0
 76
     0
 77
     0
 78
     0
  0
ENDTAB
  0
TABLE
  2
LTYPE
  5
5
330
0
100
AcDbSymbolTable
 70
     1
  0
LTYPE
  5
14
330
5
100
AcDbSymbolTableRecord
100
AcDbLinetypeTableRecord
  2
BYBLOCK
 70
     0
  3

 72
    65
 73
     0
 40
0.0
  0
LTYPE
  5
15
330
5
100
AcDbSymbolTableRecord
100
AcDbLinetypeTableRecord
  2
BYLAYER
 70
     0
  3

 72
    65
 73
     0
 40
0.0
  0
LTYPE
  5
16
330
5
100
AcDbSymbolTableRecord
100
AcDbLinetypeTableRecord
  2
CONTINUOUS
 70
     0
  3
Solid line
 72
    65
 73
     0
 40
0.0
  0
ENDTAB
  0
TABLE
  2
LAYER
  5
2
100
AcDbSymbolTable
 70
2
  0
LAYER
  5
50
100
AcDbSymbolTableRecord
100
AcDbLayerTableRecord
  2
0
 70
0
  6
CONTINUOUS
  0
LAYER
  5
51
100
AcDbSymbolTableRecord
100
AcDbLayerTableRecord
  2
Layer_1
 70
0
  6
CONTINUOUS
  0
ENDTAB
  0
TABLE
  2
STYLE
  5
3
330
0
100
AcDbSymbolTable
 70
     1
  0
STYLE
  5
11
330
3
100
AcDbSymbolTableRecord
100
AcDbTextStyleTableRecord
  2
STANDARD
 70
     0
 40
0.0
 41
1.0
 50
0.0
 71
     0
 42
2.5
  3
txt
  4

  0
ENDTAB
  0
TABLE
  2
VIEW
  5
6
330
0
100
AcDbSymbolTable
 70
     0
  0
ENDTAB
  0
TABLE
  2
UCS
  5
7
330
0
100
AcDbSymbolTable
 70
     0
  0
ENDTAB
  0
TABLE
  2
APPID
  5
9
330
0
100
AcDbSymbolTable
 70
     2
  0
APPID
  5
12
330
9
100
AcDbSymbolTableRecord
100
AcDbRegAppTableRecord
  2
ACAD
 70
     0
  0
ENDTAB
  0
TABLE
  2
DIMSTYLE
  5
A
330
0
100
AcDbSymbolTable
 70
     1
  0
DIMSTYLE
105
27
330
A
100
AcDbSymbolTableRecord
100
AcDbDimStyleTableRecord
  2
ISO-25
 70
     0
  3

  4

  5

  6

  7

 40
1.0
 41
2.5
 42
0.625
 43
3.75
 44
1.25
 45
0.0
 46
0.0
 47
0.0
 48
0.0
140
2.5
141
2.5
142
0.0
143
0.03937007874016
144
1.0
145
0.0
146
1.0
147
0.625
 71
     0
 72
     0
 73
     0
 74
     0
 75
     0
 76
     0
 77
     1
 78
     8
170
     0
171
     3
172
     1
173
     0
174
     0
175
     0
176
     0
177
     0
178
     0
270
     2
271
     2
272
     2
273
     2
274
     3
340
11
275
     0
280
     0
281
     0
282
     0
283
     0
284
     8
285
     0
286
     0
287
     3
288
     0
  0
ENDTAB
  0
TABLE
  2
BLOCK_RECORD
  5
1
330
0
100
AcDbSymbolTable
 70
     1
  0
BLOCK_RECORD
  5
1F
330
1
100
AcDbSymbolTableRecord
100
AcDbBlockTableRecord
  2
*MODEL_SPACE
  0
BLOCK_RECORD
  5
1B
330
1
100
AcDbSymbolTableRecord
100
AcDbBlockTableRecord
  2
*PAPER_SPACE
  0
ENDTAB
  0
ENDSEC
  0
SECTION
  2
BLOCKS
  0
BLOCK
  5
20
330
1F
100
AcDbEntity
  8
0
100
AcDbBlockBegin
  2
*MODEL_SPACE
 70
     0
 10
0.0
 20
0.0
 30
0.0
  3
*MODEL_SPACE
  1

  0
ENDBLK
  5
21
330
1F
100
AcDbEntity
  8
0
100
AcDbBlockEnd
  0
BLOCK
  5
1C
330
1B
100
AcDbEntity
 67
     1
  8
0
100
AcDbBlockBegin
  2
*PAPER_SPACE
  1

  0
ENDBLK
  5
1D
330
1B
100
AcDbEntity
 67
     1
  8
0
100
AcDbBlockEnd
  0
ENDSEC
  0
SECTION
  2
ENTITIES
  0
SPLINE
  5
100
100
AcDbEntity
  8
Layer_1
 62
4
100
AcDbSpline
 70
8
 71
3
 72
8
 73
4
 74
0
 40
0
 40
0
 40
0
 40
0
 40
1
 40
1
 40
1
 40
1
 10
156.548456
 20
244.058724
 30
0.0
 10
153.759008
 20
244.058724
 30
0.0
 10
151.513352
 20
246.536644
 30
0.0
 10
151.513352
 20
249.614644
 30
0.0
  0
LWPOLYLINE
  5
101
100
AcDbEntity
  8
Layer_1
 62
4
100
AcDbPolyline
 90
2
 70
1
 10
443.549120
 20
244.058724
 30
0.0
 10
156.548456
 20
244.058724
 30
0.0
  0
SPLINE
  5
102
100
AcDbEntity
  8
Layer_1
 62
4
100
AcDbSpline
 70
8
 71
3
 72
8
 73
4
 74
0
 40
0
 40
0
 40
0
 40
0
 40
1
 40
1
 40
1
 40
1
 10
151.513352
 20
266.282324
 30
0.0
 10
151.513352
 20
269.360324
 30
0.0
 10
153.759008
 20
271.838244
 30
0.0
 10
156.548456
 20
271.838244
 30
0.0
  0
LWPOLYLINE
  5
103
100
AcDbEntity
  8
Layer_1
 62
4
100
AcDbPolyline
 90
2
 70
1
 10
151.513352
 20
249.614644
 30
0.0
 10
151.513352
 20
266.282324
 30
0.0
  0
SPLINE
  5
104
100
AcDbEntity
  8
Layer_1
 62
4
100
AcDbSpline
 70
8
 71
3
 72
8
 73
4
 74
0
 40
0
 40
0
 40
0
 40
0
 40
1
 40
1
 40
1
 40
1
 10
443.549120
 20
271.838244
 30
0.0
 10
446.338568
 20
271.838244
 30
0.0
 10
448.584216
 20
269.360324
 30
0.0
 10
448.584216
 20
266.282324
 30
0.0
  0
LWPOLYLINE
  5
105
100
AcDbEntity
  8
Layer_1
 62
4
100
AcDbPolyline
 90
2
 70
1
 10
156.548456
 20
271.838244
 30
0.0
 10
443.549120
 20
271.838244
 30
0.0
  0
SPLINE
  5
106
100
AcDbEntity
  8
Layer_1
 62
4
100
AcDbSpline
 70
8
 71
3
 72
8
 73
4
 74
0
 40
0
 40
0
 40
0
 40
0
 40
1
 40
1
 40
1
 40
1
 10
448.584216
 20
249.614644
 30
0.0
 10
448.584216
 20
246.536644
 30
0.0
 10
446.338568
 20
244.058724
 30
0.0
 10
443.549120
 20
244.058724
 30
0.0
  0
LWPOLYLINE
  5
107
100
AcDbEntity
  8
Layer_1
 62
4
100
AcDbPolyline
 90
2
 70
1
 10
448.584216
 20
266.282324
 30
0.0
 10
448.584216
 20
249.614644
 30
0.0
  0
SPLINE
  5
108
100
AcDbEntity
  8
Layer_1
 62
1
100
AcDbSpline
 70
8
 71
3
 72
8
 73
4
 74
0
 40
0
 40
0
 40
0
 40
0
 40
1
 40
1
 40
1
 40
1
 10
503.393592
 20
644.979076
 30
0.0
 10
503.393592
 20
652.831028
 30
0.0
 10
497.069536
 20
658.951828
 30
0.0
 10
489.220152
 20
659.152508
 30
0.0
  0
LWPOLYLINE
  5
109
100
AcDbEntity
  8
Layer_1
 62
4
100
AcDbPolyline
 90
2
 70
1
 10
443.549120
 20
244.058724
 30
0.0
 10
443.549120
 20
244.058724
 30
0.0
  0
SPLINE
  5
10a
100
AcDbEntity
  8
Layer_1
 62
1
100
AcDbSpline
 70
8
 71
3
 72
8
 73
4
 74
0
 40
0
 40
0
 40
0
 40
0
 40
1
 40
1
 40
1
 40
1
 10
426.637344
 20
659.124348
 30
0.0
 10
426.550360
 20
659.134188
 30
0.0
 10
426.465808
 20
659.152508
 30
0.0
 10
426.376408
 20
659.152508
 30
0.0
  0
SPLINE
  5
10b
100
AcDbEntity
  8
Layer_1
 62
1
100
AcDbSpline
 70
8
 71
3
 72
8
 73
4
 74
0
 40
0
 40
0
 40
0
 40
0
 40
1
 40
1
 40
1
 40
1
 10
426.376408
 20
659.152508
 30
0.0
 10
424.962840
 20
659.152508
 30
0.0
 10
423.824840
 20
657.888532
 30
0.0
 10
423.824840
 20
656.318140
 30
0.0
  0
LWPOLYLINE
  5
10c
100
AcDbEntity
  8
Layer_1
 62
1
100
AcDbPolyline
 90
3
 70
1
 10
489.220152
 20
659.152508
 30
0.0
 10
426.637344
 20
659.152508
 30
0.0
 10
426.637344
 20
659.124348
 30
0.0
  0
SPLINE
  5
10d
100
AcDbEntity
  8
Layer_1
 62
1
100
AcDbSpline
 70
8
 71
3
 72
8
 73
4
 74
0
 40
0
 40
0
 40
0
 40
0
 40
1
 40
1
 40
1
 40
1
 10
420.140464
 20
656.318140
 30
0.0
 10
420.140464
 20
657.888532
 30
0.0
 10
419.002472
 20
659.152508
 30
0.0
 10
417.588904
 20
659.152508
 30
0.0
  0
SPLINE
  5
10e
100
AcDbEntity
  8
Layer_1
 62
1
100
AcDbSpline
 70
8
 71
3
 72
8
 73
4
 74
0
 40
0
 40
0
 40
0
 40
0
 40
1
 40
1
 40
1
 40
1
 10
417.588904
 20
659.152508
 30
0.0
 10
416.175336
 20
659.152508
 30
0.0
 10
415.037344
 20
657.888532
 30
0.0
 10
415.037344
 20
656.318140
 30
0.0
  0
LWPOLYLINE
  5
10f
100
AcDbEntity
  8
Layer_1
 62
1
100
AcDbPolyline
 90
4
 70
1
 10
423.824840
 20
656.318140
 30
0.0
 10
423.824840
 20
643.379076
 30
0.0
 10
420.140464
 20
643.379076
 30
0.0
 10
420.140464
 20
656.318140
 30
0.0
  0
SPLINE
  5
110
100
AcDbEntity
  8
Layer_1
 62
1
100
AcDbSpline
 70
8
 71
3
 72
8
 73
4
 74
0
 40
0
 40
0
 40
0
 40
0
 40
1
 40
1
 40
1
 40
1
 10
411.351408
 20
656.318140
 30
0.0
 10
411.351408
 20
657.888532
 30
0.0
 10
410.213408
 20
659.152508
 30
0.0
 10
408.799840
 20
659.152508
 30
0.0
  0
SPLINE
  5
111
100
AcDbEntity
  8
Layer_1
 62
1
100
AcDbSpline
 70
8
 71
3
 72
8
 73
4
 74
0
 40
0
 40
0
 40
0
 40
0
 40
1
 40
1
 40
1
 40
1
 10
408.799840
 20
659.152508
 30
0.0
 10
407.386280
 20
659.152508
 30
0.0
 10
406.248280
 20
657.888532
 30
0.0
 10
406.248280
 20
656.318140
 30
0.0
  0
LWPOLYLINE
  5
112
100
AcDbEntity
  8
Layer_1
 62
1
100
AcDbPolyline
 90
4
 70
1
 10
415.037344
 20
656.318140
 30
0.0
 10
415.037344
 20
643.379076
 30
0.0
 10
411.351408
 20
643.379076
 30
0.0
 10
411.351408
 20
656.318140
 30
0.0
  0
SPLINE
  5
113
100
AcDbEntity
  8
Layer_1
 62
1
100
AcDbSpline
 70
8
 71
3
 72
8
 73
4
 74
0
 40
0
 40
0
 40
0
 40
0
 40
1
 40
1
 40
1
 40
1
 10
402.563904
 20
656.318140
 30
0.0
 10
402.563904
 20
657.888532
 30
0.0
 10
401.425912
 20
659.152508
 30
0.0
 10
400.012344
 20
659.152508
 30
0.0
  0
SPLINE
  5
114
100
AcDbEntity
  8
Layer_1
 62
1
100
AcDbSpline
 70
8
 71
3
 72
8
 73
4
 74
0
 40
0
 40
0
 40
0
 40
0
 40
1
 40
1
 40
1
 40
1
 10
400.012344
 20
659.152508
 30
0.0
 10
398.598776
 20
659.152508
 30
0.0
 10
397.460784
 20
657.888532
 30
0.0
 10
397.460784
 20
656.318140
 30
0.0
  0
LWPOLYLINE
  5
115
100
AcDbEntity
  8
Layer_1
 62
1
100
AcDbPolyline
 90
4
 70
1
 10
406.248280
 20
656.318140
 30
0.0
 10
406.248280
 20
643.379076
 30
0.0
 10
402.563904
 20
643.379076
 30
0.0
 10
402.563904
 20
656.318140
 30
0.0
  0
SPLINE
  5
116
100
AcDbEntity
  8
Layer_1
 62
1
100
AcDbSpline
 70
8
 71
3
 72
8
 73
4
 74
0
 40
0
 40
0
 40
0
 40
0
 40
1
 40
1
 40
1
 40
1
 10
393.774840
 20
656.318140
 30
0.0
 10
393.774840
 20
657.888532
 30
0.0
 10
392.636848
 20
659.152508
 30
0.0
 10
391.223280
 20
659.152508
 30
0.0
  0
SPLINE
  5
117
100
AcDbEntity
  8
Layer_1
 62
1
100
AcDbSpline
 70
8
 71
3
 72
8
 73
4
 74
0
 40
0
 40
0
 40
0
 40
0
 40
1
 40
1
 40
1
 40
1
 10
391.223280
 20
659.152508
 30
0.0
 10
389.809712
 20
659.152508
 30
0.0
 10
388.671720
 20
657.888532
 30
0.0
 10
388.671720
 20
656.318140
 30
0.0
  0
LWPOLYLINE
  5
118
100
AcDbEntity
  8
Layer_1
 62
1
100
AcDbPolyline
 90
4
 70
1
 10
397.460784
 20
656.318140
 30
0.0
 10
397.460784
 20
643.379076
 30
0.0
 10
393.774840
 20
643.379076
 30
0.0
 10
393.774840
 20
656.318140
 30
0.0
  0
SPLINE
  5
119
100
AcDbEntity
  8
Layer_1
 62
1
100
AcDbSpline
 70
8
 71
3
 72
8
 73
4
 74
0
 40
0
 40
0
 40
0
 40
0
 40
1
 40
1
 40
1
 40
1
 10
384.987344
 20
656.318140
 30
0.0
 10
384.987344
 20
657.888532
 30
0.0
 10
383.849352
 20
659.152508
 30
0.0
 10
382.435776
 20
659.152508
 30
0.0
  0
SPLINE
  5
11a
100
AcDbEntity
  8
Layer_1
 62
1
100
AcDbSpline
 70
8
 71
3
 72
8
 73
4
 74
0
 40
0
 40
0
 40
0
 40
0
 40
1
 40
1
 40
1
 40
1
 10
382.435776
 20
659.152508
 30
0.0
 10
381.022216
 20
659.152508
 30
0.0
 10
379.884216
 20
657.888532
 30
0.0
 10
379.884216
 20
656.318140
 30
0.0
  0
LWPOLYLINE
  5
11b
100
AcDbEntity
  8
Layer_1
 62
1
100
AcDbPolyline
 90
4
 70
1
 10
388.671720
 20
656.318140
 30
0.0
 10
388.671720
 20
643.379076
 30
0.0
 10
384.987344
 20
643.379076
 30
0.0
 10
384.987344
 20
656.318140
 30
0.0
  0
SPLINE
  5
11c
100
AcDbEntity
  8
Layer_1
 62
1
100
AcDbSpline
 70
8
 71
3
 72
8
 73
4
 74
0
 40
0
 40
0
 40
0
 40
0
 40
1
 40
1
 40
1
 40
1
 10
376.199840
 20
656.318140
 30
0.0
 10
376.199840
 20
657.888532
 30
0.0
 10
375.061848
 20
659.152508
 30
0.0
 10
373.648280
 20
659.152508
 30
0.0
  0
SPLINE
  5
11d
100
AcDbEntity
  8
Layer_1
 62
1
100
AcDbSpline
 70
8
 71
3
 72
8
 73
4
 74
0
 40
0
 40
0
 40
0
 40
0
 40
1
 40
1
 40
1
 40
1
 10
373.648280
 20
659.152508
 30
0.0
 10
372.234712
 20
659.152508
 30
0.0
 10
371.096720
 20
657.888532
 30
0.0
 10
371.096720
 20
656.318140
 30
0.0
  0
LWPOLYLINE
  5
11e
100
AcDbEntity
  8
Layer_1
 62
1
100
AcDbPolyline
 90
4
 70
1
 10
379.884216
 20
656.318140
 30
0.0
 10
379.884216
 20
643.379076
 30
0.0
 10
376.199840
 20
643.379076
 30
0.0
 10
376.199840
 20
656.318140
 30
0.0
  0
SPLINE
  5
11f
100
AcDbEntity
  8
Layer_1
 62
1
100
AcDbSpline
 70
8
 71
3
 72
8
 73
4
 74
0
 40
0
 40
0
 40
0
 40
0
 40
1
 40
1
 40
1
 40
1
 10
367.410784
 20
656.318140
 30
0.0
 10
367.410784
 20
657.888532
 30
0.0
 10
366.272784
 20
659.152508
 30
0.0
 10
364.859216
 20
659.152508
 30
0.0
  0
SPLINE
  5
120
100
AcDbEntity
  8
Layer_1
 62
1
100
AcDbSpline
 70
8
 71
3
 72
8
 73
4
 74
0
 40
0
 40
0
 40
0
 40
0
 40
1
 40
1
 40
1
 40
1
 10
364.859216
 20
659.152508
 30
0.0
 10
363.445648
 20
659.152508
 30
0.0
 10
362.307656
 20
657.888532
 30
0.0
 10
362.307656
 20
656.318140
 30
0.0
  0
LWPOLYLINE
  5
121
100
AcDbEntity
  8
Layer_1
 62
1
100
AcDbPolyline
 90
4
 70
1
 10
371.096720
 20
656.318140
 30
0.0
 10
371.096720
 20
643.379076
 30
0.0
 10
367.410784
 20
643.379076
 30
0.0
 10
367.410784
 20
656.318140
 30
0.0
  0
SPLINE
  5
122
100
AcDbEntity
  8
Layer_1
 62
1
100
AcDbSpline
 70
8
 71
3
 72
8
 73
4
 74
0
 40
0
 40
0
 40
0
 40
0
 40
1
 40
1
 40
1
 40
1
 10
358.623280
 20
656.318140
 30
0.0
 10
358.623280
 20
657.888532
 30
0.0
 10
357.485280
 20
659.152508
 30
0.0
 10
356.071720
 20
659.152508
 30
0.0
  0
SPLINE
  5
123
100
AcDbEntity
  8
Layer_1
 62
1
100
AcDbSpline
 70
8
 71
3
 72
8
 73
4
 74
0
 40
0
 40
0
 40
0
 40
0
 40
1
 40
1
 40
1
 40
1
 10
356.071720
 20
659.152508
 30
0.0
 10
354.658152
 20
659.152508
 30
0.0
 10
353.520152
 20
657.888532
 30
0.0
 10
353.520152
 20
656.318140
 30
0.0
  0
LWPOLYLINE
  5
124
100
AcDbEntity
  8
Layer_1
 62
1
100
AcDbPolyline
 90
4
 70
1
 10
362.307656
 20
656.318140
 30
0.0
 10
362.307656
 20
643.379076
 30
0.0
 10
358.623280
 20
643.379076
 30
0.0
 10
358.623280
 20
656.318140
 30
0.0
  0
SPLINE
  5
125
100
AcDbEntity
  8
Layer_1
 62
1
100
AcDbSpline
 70
8
 71
3
 72
8
 73
4
 74
0
 40
0
 40
0
 40
0
 40
0
 40
1
 40
1
 40
1
 40
1
 10
349.834216
 20
656.318140
 30
0.0
 10
349.834216
 20
657.888532
 30
0.0
 10
348.696224
 20
659.152508
 30
0.0
 10
347.282656
 20
659.152508
 30
0.0
  0
SPLINE
  5
126
100
AcDbEntity
  8
Layer_1
 62
1
100
AcDbSpline
 70
8
 71
3
 72
8
 73
4
 74
0
 40
0
 40
0
 40
0
 40
0
 40
1
 40
1
 40
1
 40
1
 10
347.282656
 20
659.152508
 30
0.0
 10
345.869088
 20
659.152508
 30
0.0
 10
344.731096
 20
657.888532
 30
0.0
 10
344.731096
 20
656.318140
 30
0.0
  0
LWPOLYLINE
  5
127
100
AcDbEntity
  8
Layer_1
 62
1
100
AcDbPolyline
 90
4
 70
1
 10
353.520152
 20
656.318140
 30
0.0
 10
353.520152
 20
643.379076
 30
0.0
 10
349.834216
 20
643.379076
 30
0.0
 10
349.834216
 20
656.318140
 30
0.0
  0
SPLINE
  5
128
100
AcDbEntity
  8
Layer_1
 62
1
100
AcDbSpline
 70
8
 71
3
 72
8
 73
4
 74
0
 40
0
 40
0
 40
0
 40
0
 40
1
 40
1
 40
1
 40
1
 10
341.046720
 20
656.318140
 30
0.0
 10
341.046720
 20
657.888532
 30
0.0
 10
339.908720
 20
659.152508
 30
0.0
 10
338.495152
 20
659.152508
 30
0.0
  0
SPLINE
  5
129
100
AcDbEntity
  8
Layer_1
 62
1
100
AcDbSpline
 70
8
 71
3
 72
8
 73
4
 74
0
 40
0
 40
0
 40
0
 40
0
 40
1
 40
1
 40
1
 40
1
 10
338.495152
 20
659.152508
 30
0.0
 10
337.081592
 20
659.152508
 30
0.0
 10
335.943592
 20
657.888532
 30
0.0
 10
335.943592
 20
656.318140
 30
0.0
  0
LWPOLYLINE
  5
12a
100
AcDbEntity
  8
Layer_1
 62
1
100
AcDbPolyline
 90
4
 70
1
 10
344.731096
 20
656.318140
 30
0.0
 10
344.731096
 20
643.379076
 30
0.0
 10
341.046720
 20
643.379076
 30
0.0
 10
341.046720
 20
656.318140
 30
0.0
  0
SPLINE
  5
12b
100
AcDbEntity
  8
Layer_1
 62
1
100
AcDbSpline
 70
8
 71
3
 72
8
 73
4
 74
0
 40
0
 40
0
 40
0
 40
0
 40
1
 40
1
 40
1
 40
1
 10
332.257656
 20
656.318140
 30
0.0
 10
332.257656
 20
657.888532
 30
0.0
 10
331.119656
 20
659.152508
 30
0.0
 10
329.706096
 20
659.152508
 30
0.0
  0
SPLINE
  5
12c
100
AcDbEntity
  8
Layer_1
 62
1
100
AcDbSpline
 70
8
 71
3
 72
8
 73
4
 74
0
 40
0
 40
0
 40
0
 40
0
 40
1
 40
1
 40
1
 40
1
 10
329.706096
 20
659.152508
 30
0.0
 10
328.292528
 20
659.152508
 30
0.0
 10
327.154528
 20
657.888532
 30
0.0
 10
327.154528
 20
656.318140
 30
0.0
  0
LWPOLYLINE
  5
12d
100
AcDbEntity
  8
Layer_1
 62
1
100
AcDbPolyline
 90
4
 70
1
 10
335.943592
 20
656.318140
 30
0.0
 10
335.943592
 20
643.379076
 30
0.0
 10
332.257656
 20
643.379076
 30
0.0
 10
332.257656
 20
656.318140
 30
0.0
  0
SPLINE
  5
12e
100
AcDbEntity
  8
Layer_1
 62
1
100
AcDbSpline
 70
8
 71
3
 72
8
 73
4
 74
0
 40
0
 40
0
 40
0
 40
0
 40
1
 40
1
 40
1
 40
1
 10
323.470152
 20
656.318140
 30
0.0
 10
323.470152
 20
657.888532
 30
0.0
 10
322.332160
 20
659.152508
 30
0.0
 10
320.918592
 20
659.152508
 30
0.0
  0
SPLINE
  5
12f
100
AcDbEntity
  8
Layer_1
 62
1
100
AcDbSpline
 70
8
 71
3
 72
8
 73
4
 74
0
 40
0
 40
0
 40
0
 40
0
 40
1
 40
1
 40
1
 40
1
 10
320.918592
 20
659.152508
 30
0.0
 10
319.505024
 20
659.152508
 30
0.0
 10
318.367032
 20
657.888532
 30
0.0
 10
318.367032
 20
656.318140
 30
0.0
  0
LWPOLYLINE
  5
130
100
AcDbEntity
  8
Layer_1
 62
1
100
AcDbPolyline
 90
4
 70
1
 10
327.154528
 20
656.318140
 30
0.0
 10
327.154528
 20
643.379076
 30
0.0
 10
323.470152
 20
643.379076
 30
0.0
 10
323.470152
 20
656.318140
 30
0.0
  0
SPLINE
  5
131
100
AcDbEntity
  8
Layer_1
 62
1
100
AcDbSpline
 70
8
 71
3
 72
8
 73
4
 74
0
 40
0
 40
0
 40
0
 40
0
 40
1
 40
1
 40
1
 40
1
 10
314.682656
 20
656.318140
 30
0.0
 10
314.682656
 20
657.888532
 30
0.0
 10
313.544656
 20
659.152508
 30
0.0
 10
312.131096
 20
659.152508
 30
0.0
  0
SPLINE
  5
132
100
AcDbEntity
  8
Layer_1
 62
1
100
AcDbSpline
 70
8
 71
3
 72
8
 73
4
 74
0
 40
0
 40
0
 40
0
 40
0
 40
1
 40
1
 40
1
 40
1
 10
312.131096
 20
659.152508
 30
0.0
 10
310.717528
 20
659.152508
 30
0.0
 10
309.579528
 20
657.888532
 30
0.0
 10
309.579528
 20
656.318140
 30
0.0
  0
LWPOLYLINE
  5
133
100
AcDbEntity
  8
Layer_1
 62
1
100
AcDbPolyline
 90
4
 70
1
 10
318.367032
 20
656.318140
 30
0.0
 10
318.367032
 20
643.379076
 30
0.0
 10
314.682656
 20
643.379076
 30
0.0
 10
314.682656
 20
656.318140
 30
0.0
  0
SPLINE
  5
134
100
AcDbEntity
  8
Layer_1
 62
1
100
AcDbSpline
 70
8
 71
3
 72
8
 73
4
 74
0
 40
0
 40
0
 40
0
 40
0
 40
1
 40
1
 40
1
 40
1
 10
305.893592
 20
656.318140
 30
0.0
 10
305.893592
 20
657.888532
 30
0.0
 10
304.755600
 20
659.152508
 30
0.0
 10
303.342032
 20
659.152508
 30
0.0
  0
SPLINE
  5
135
100
AcDbEntity
  8
Layer_1
 62
1
100
AcDbSpline
 70
8
 71
3
 72
8
 73
4
 74
0
 40
0
 40
0
 40
0
 40
0
 40
1
 40
1
 40
1
 40
1
 10
303.342032
 20
659.152508
 30
0.0
 10
301.928464
 20
659.152508
 30
0.0
 10
300.790464
 20
657.888532
 30
0.0
 10
300.790464
 20
656.318140
 30
0.0
  0
LWPOLYLINE
  5
136
100
AcDbEntity
  8
Layer_1
 62
1
100
AcDbPolyline
 90
4
 70
1
 10
309.579528
 20
656.318140
 30
0.0
 10
309.579528
 20
643.379076
 30
0.0
 10
305.893592
 20
643.379076
 30
0.0
 10
305.893592
 20
656.318140
 30
0.0
  0
SPLINE
  5
137
100
AcDbEntity
  8
Layer_1
 62
1
100
AcDbSpline
 70
8
 71
3
 72
8
 73
4
 74
0
 40
0
 40
0
 40
0
 40
0
 40
1
 40
1
 40
1
 40
1
 10
297.106096
 20
656.318140
 30
0.0
 10
297.106096
 20
657.888532
 30
0.0
 10
295.968096
 20
659.152508
 30
0.0
 10
294.554528
 20
659.152508
 30
0.0
  0
SPLINE
  5
138
100
AcDbEntity
  8
Layer_1
 62
1
100
AcDbSpline
 70
8
 71
3
 72
8
 73
4
 74
0
 40
0
 40
0
 40
0
 40
0
 40
1
 40
1
 40
1
 40
1
 10
294.554528
 20
659.152508
 30
0.0
 10
293.140960
 20
659.152508
 30
0.0
 10
292.002968
 20
657.888532
 30
0.0
 10
292.002968
 20
656.318140
 30
0.0
  0
LWPOLYLINE
  5
139
100
AcDbEntity
  8
Layer_1
 62
1
100
AcDbPolyline
 90
4
 70
1
 10
300.790464
 20
656.318140
 30
0.0
 10
300.790464
 20
643.379076
 30
0.0
 10
297.106096
 20
643.379076
 30
0.0
 10
297.106096
 20
656.318140
 30
0.0
  0
SPLINE
  5
13a
100
AcDbEntity
  8
Layer_1
 62
1
100
AcDbSpline
 70
8
 71
3
 72
8
 73
4
 74
0
 40
0
 40
0
 40
0
 40
0
 40
1
 40
1
 40
1
 40
1
 10
288.317032
 20
656.318140
 30
0.0
 10
288.317032
 20
657.888532
 30
0.0
 10
287.179032
 20
659.152508
 30
0.0
 10
285.765464
 20
659.152508
 30
0.0
  0
SPLINE
  5
13b
100
AcDbEntity
  8
Layer_1
 62
1
100
AcDbSpline
 70
8
 71
3
 72
8
 73
4
 74
0
 40
0
 40
0
 40
0
 40
0
 40
1
 40
1
 40
1
 40
1
 10
285.765464
 20
659.152508
 30
0.0
 10
284.351904
 20
659.152508
 30
0.0
 10
283.213904
 20
657.888532
 30
0.0
 10
283.213904
 20
656.318140
 30
0.0
  0
LWPOLYLINE
  5
13c
100
AcDbEntity
  8
Layer_1
 62
1
100
AcDbPolyline
 90
4
 70
1
 10
292.002968
 20
656.318140
 30
0.0
 10
292.002968
 20
643.379076
 30
0.0
 10
288.317032
 20
643.379076
 30
0.0
 10
288.317032
 20
656.318140
 30
0.0
  0
SPLINE
  5
13d
100
AcDbEntity
  8
Layer_1
 62
1
100
AcDbSpline
 70
8
 71
3
 72
8
 73
4
 74
0
 40
0
 40
0
 40
0
 40
0
 40
1
 40
1
 40
1
 40
1
 10
279.529528
 20
656.318140
 30
0.0
 10
279.529528
 20
657.888532
 30
0.0
 10
278.391536
 20
659.152508
 30
0.0
 10
276.977968
 20
659.152508
 30
0.0
  0
SPLINE
  5
13e
100
AcDbEntity
  8
Layer_1
 62
1
100
AcDbSpline
 70
8
 71
3
 72
8
 73
4
 74
0
 40
0
 40
0
 40
0
 40
0
 40
1
 40
1
 40
1
 40
1
 10
276.977968
 20
659.152508
 30
0.0
 10
275.564400
 20
659.152508
 30
0.0
 10
274.426408
 20
657.888532
 30
0.0
 10
274.426408
 20
656.318140
 30
0.0
  0
LWPOLYLINE
  5
13f
100
AcDbEntity
  8
Layer_1
 62
1
100
AcDbPolyline
 90
4
 70
1
 10
283.213904
 20
656.318140
 30
0.0
 10
283.213904
 20
643.379076
 30
0.0
 10
279.529528
 20
643.379076
 30
0.0
 10
279.529528
 20
656.318140
 30
0.0
  0
SPLINE
  5
140
100
AcDbEntity
  8
Layer_1
 62
1
100
AcDbSpline
 70
8
 71
3
 72
8
 73
4
 74
0
 40
0
 40
0
 40
0
 40
0
 40
1
 40
1
 40
1
 40
1
 10
270.740464
 20
656.318140
 30
0.0
 10
270.740464
 20
657.888532
 30
0.0
 10
269.602472
 20
659.152508
 30
0.0
 10
268.188904
 20
659.152508
 30
0.0
  0
SPLINE
  5
141
100
AcDbEntity
  8
Layer_1
 62
1
100
AcDbSpline
 70
8
 71
3
 72
8
 73
4
 74
0
 40
0
 40
0
 40
0
 40
0
 40
1
 40
1
 40
1
 40
1
 10
268.188904
 20
659.152508
 30
0.0
 10
266.775336
 20
659.152508
 30
0.0
 10
265.637344
 20
657.888532
 30
0.0
 10
265.637344
 20
656.318140
 30
0.0
  0
LWPOLYLINE
  5
142
100
AcDbEntity
  8
Layer_1
 62
1
100
AcDbPolyline
 90
4
 70
1
 10
274.426408
 20
656.318140
 30
0.0
 10
274.426408
 20
643.379076
 30
0.0
 10
270.740464
 20
643.379076
 30
0.0
 10
270.740464
 20
656.318140
 30
0.0
  0
SPLINE
  5
143
100
AcDbEntity
  8
Layer_1
 62
1
100
AcDbSpline
 70
8
 71
3
 72
8
 73
4
 74
0
 40
0
 40
0
 40
0
 40
0
 40
1
 40
1
 40
1
 40
1
 10
261.952968
 20
656.318140
 30
0.0
 10
261.952968
 20
657.888532
 30
0.0
 10
260.814968
 20
659.152508
 30
0.0
 10
259.401408
 20
659.152508
 30
0.0
  0
SPLINE
  5
144
100
AcDbEntity
  8
Layer_1
 62
1
100
AcDbSpline
 70
8
 71
3
 72
8
 73
4
 74
0
 40
0
 40
0
 40
0
 40
0
 40
1
 40
1
 40
1
 40
1
 10
259.401408
 20
659.152508
 30
0.0
 10
257.987840
 20
659.152508
 30
0.0
 10
256.849840
 20
657.888532
 30
0.0
 10
256.849840
 20
656.318140
 30
0.0
  0
LWPOLYLINE
  5
145
100
AcDbEntity
  8
Layer_1
 62
1
100
AcDbPolyline
 90
4
 70
1
 10
265.637344
 20
656.318140
 30
0.0
 10
265.637344
 20
643.379076
 30
0.0
 10
261.952968
 20
643.379076
 30
0.0
 10
261.952968
 20
656.318140
 30
0.0
  0
SPLINE
  5
146
100
AcDbEntity
  8
Layer_1
 62
1
100
AcDbSpline
 70
8
 71
3
 72
8
 73
4
 74
0
 40
0
 40
0
 40
0
 40
0
 40
1
 40
1
 40
1
 40
1
 10
253.163904
 20
656.318140
 30
0.0
 10
253.163904
 20
657.888532
 30
0.0
 10
252.025912
 20
659.152508
 30
0.0
 10
250.612344
 20
659.152508
 30
0.0
  0
SPLINE
  5
147
100
AcDbEntity
  8
Layer_1
 62
1
100
AcDbSpline
 70
8
 71
3
 72
8
 73
4
 74
0
 40
0
 40
0
 40
0
 40
0
 40
1
 40
1
 40
1
 40
1
 10
250.612344
 20
659.152508
 30
0.0
 10
249.198776
 20
659.152508
 30
0.0
 10
248.060784
 20
657.888532
 30
0.0
 10
248.060784
 20
656.318140
 30
0.0
  0
LWPOLYLINE
  5
148
100
AcDbEntity
  8
Layer_1
 62
1
100
AcDbPolyline
 90
4
 70
1
 10
256.849840
 20
656.318140
 30
0.0
 10
256.849840
 20
643.379076
 30
0.0
 10
253.163904
 20
643.379076
 30
0.0
 10
253.163904
 20
656.318140
 30
0.0
  0
SPLINE
  5
149
100
AcDbEntity
  8
Layer_1
 62
1
100
AcDbSpline
 70
8
 71
3
 72
8
 73
4
 74
0
 40
0
 40
0
 40
0
 40
0
 40
1
 40
1
 40
1
 40
1
 10
244.376408
 20
656.318140
 30
0.0
 10
244.376408
 20
657.888532
 30
0.0
 10
243.238408
 20
659.152508
 30
0.0
 10
241.824840
 20
659.152508
 30
0.0
  0
SPLINE
  5
14a
100
AcDbEntity
  8
Layer_1
 62
1
100
AcDbSpline
 70
8
 71
3
 72
8
 73
4
 74
0
 40
0
 40
0
 40
0
 40
0
 40
1
 40
1
 40
1
 40
1
 10
241.824840
 20
659.152508
 30
0.0
 10
240.411280
 20
659.152508
 30
0.0
 10
239.273280
 20
657.888532
 30
0.0
 10
239.273280
 20
656.318140
 30
0.0
  0
LWPOLYLINE
  5
14b
100
AcDbEntity
  8
Layer_1
 62
1
100
AcDbPolyline
 90
4
 70
1
 10
248.060784
 20
656.318140
 30
0.0
 10
248.060784
 20
643.379076
 30
0.0
 10
244.376408
 20
643.379076
 30
0.0
 10
244.376408
 20
656.318140
 30
0.0
  0
SPLINE
  5
14c
100
AcDbEntity
  8
Layer_1
 62
1
100
AcDbSpline
 70
8
 71
3
 72
8
 73
4
 74
0
 40
0
 40
0
 40
0
 40
0
 40
1
 40
1
 40
1
 40
1
 10
235.588904
 20
656.318140
 30
0.0
 10
235.588904
 20
657.888532
 30
0.0
 10
234.450912
 20
659.152508
 30
0.0
 10
233.037344
 20
659.152508
 30
0.0
  0
SPLINE
  5
14d
100
AcDbEntity
  8
Layer_1
 62
1
100
AcDbSpline
 70
8
 71
3
 72
8
 73
4
 74
0
 40
0
 40
0
 40
0
 40
0
 40
1
 40
1
 40
1
 40
1
 10
233.037344
 20
659.152508
 30
0.0
 10
231.623776
 20
659.152508
 30
0.0
 10
230.485776
 20
657.888532
 30
0.0
 10
230.485776
 20
656.318140
 30
0.0
  0
LWPOLYLINE
  5
14e
100
AcDbEntity
  8
Layer_1
 62
1
100
AcDbPolyline
 90
4
 70
1
 10
239.273280
 20
656.318140
 30
0.0
 10
239.273280
 20
643.379076
 30
0.0
 10
235.588904
 20
643.379076
 30
0.0
 10
235.588904
 20
656.318140
 30
0.0
  0
SPLINE
  5
14f
100
AcDbEntity
  8
Layer_1
 62
1
100
AcDbSpline
 70
8
 71
3
 72
8
 73
4
 74
0
 40
0
 40
0
 40
0
 40
0
 40
1
 40
1
 40
1
 40
1
 10
226.799840
 20
656.318140
 30
0.0
 10
226.799840
 20
657.888532
 30
0.0
 10
225.661848
 20
659.152508
 30
0.0
 10
224.248280
 20
659.152508
 30
0.0
  0
SPLINE
  5
150
100
AcDbEntity
  8
Layer_1
 62
1
100
AcDbSpline
 70
8
 71
3
 72
8
 73
4
 74
0
 40
0
 40
0
 40
0
 40
0
 40
1
 40
1
 40
1
 40
1
 10
224.248280
 20
659.152508
 30
0.0
 10
222.834712
 20
659.152508
 30
0.0
 10
221.696720
 20
657.888532
 30
0.0
 10
221.696720
 20
656.318140
 30
0.0
  0
LWPOLYLINE
  5
151
100
AcDbEntity
  8
Layer_1
 62
1
100
AcDbPolyline
 90
4
 70
1
 10
230.485776
 20
656.318140
 30
0.0
 10
230.485776
 20
643.379076
 30
0.0
 10
226.799840
 20
643.379076
 30
0.0
 10
226.799840
 20
656.318140
 30
0.0
  0
SPLINE
  5
152
100
AcDbEntity
  8
Layer_1
 62
1
100
AcDbSpline
 70
8
 71
3
 72
8
 73
4
 74
0
 40
0
 40
0
 40
0
 40
0
 40
1
 40
1
 40
1
 40
1
 10
218.012344
 20
656.318140
 30
0.0
 10
218.012344
 20
657.888532
 30
0.0
 10
216.874344
 20
659.152508
 30
0.0
 10
215.460784
 20
659.152508
 30
0.0
  0
SPLINE
  5
153
100
AcDbEntity
  8
Layer_1
 62
1
100
AcDbSpline
 70
8
 71
3
 72
8
 73
4
 74
0
 40
0
 40
0
 40
0
 40
0
 40
1
 40
1
 40
1
 40
1
 10
215.460784
 20
659.152508
 30
0.0
 10
214.047200
 20
659.152508
 30
0.0
 10
212.909216
 20
657.888532
 30
0.0
 10
212.909216
 20
656.318140
 30
0.0
  0
LWPOLYLINE
  5
154
100
AcDbEntity
  8
Layer_1
 62
1
100
AcDbPolyline
 90
4
 70
1
 10
221.696720
 20
656.318140
 30
0.0
 10
221.696720
 20
643.379076
 30
0.0
 10
218.012344
 20
643.379076
 30
0.0
 10
218.012344
 20
656.318140
 30
0.0
  0
SPLINE
  5
155
100
AcDbEntity
  8
Layer_1
 62
1
100
AcDbSpline
 70
8
 71
3
 72
8
 73
4
 74
0
 40
0
 40
0
 40
0
 40
0
 40
1
 40
1
 40
1
 40
1
 10
209.223280
 20
656.318140
 30
0.0
 10
209.223280
 20
657.888532
 30
0.0
 10
208.085280
 20
659.152508
 30
0.0
 10
206.671720
 20
659.152508
 30
0.0
  0
SPLINE
  5
156
100
AcDbEntity
  8
Layer_1
 62
1
100
AcDbSpline
 70
8
 71
3
 72
8
 73
4
 74
0
 40
0
 40
0
 40
0
 40
0
 40
1
 40
1
 40
1
 40
1
 10
206.671720
 20
659.152508
 30
0.0
 10
205.258152
 20
659.152508
 30
0.0
 10
204.120152
 20
657.888532
 30
0.0
 10
204.120152
 20
656.318140
 30
0.0
  0
LWPOLYLINE
  5
157
100
AcDbEntity
  8
Layer_1
 62
1
100
AcDbPolyline
 90
4
 70
1
 10
212.909216
 20
656.318140
 30
0.0
 10
212.909216
 20
643.379076
 30
0.0
 10
209.223280
 20
643.379076
 30
0.0
 10
209.223280
 20
656.318140
 30
0.0
  0
SPLINE
  5
158
100
AcDbEntity
  8
Layer_1
 62
1
100
AcDbSpline
 70
8
 71
3
 72
8
 73
4
 74
0
 40
0
 40
0
 40
0
 40
0
 40
1
 40
1
 40
1
 40
1
 10
200.435776
 20
656.318140
 30
0.0
 10
200.435776
 20
657.888532
 30
0.0
 10
199.297784
 20
659.152508
 30
0.0
 10
197.884216
 20
659.152508
 30
0.0
  0
SPLINE
  5
159
100
AcDbEntity
  8
Layer_1
 62
1
100
AcDbSpline
 70
8
 71
3
 72
8
 73
4
 74
0
 40
0
 40
0
 40
0
 40
0
 40
1
 40
1
 40
1
 40
1
 10
197.884216
 20
659.152508
 30
0.0
 10
196.470648
 20
659.152508
 30
0.0
 10
195.332656
 20
657.888532
 30
0.0
 10
195.332656
 20
656.318140
 30
0.0
  0
LWPOLYLINE
  5
15a
100
AcDbEntity
  8
Layer_1
 62
1
100
AcDbPolyline
 90
4
 70
1
 10
204.120152
 20
656.318140
 30
0.0
 10
204.120152
 20
643.379076
 30
0.0
 10
200.435776
 20
643.379076
 30
0.0
 10
200.435776
 20
656.318140
 30
0.0
  0
SPLINE
  5
15b
100
AcDbEntity
  8
Layer_1
 62
1
100
AcDbSpline
 70
8
 71
3
 72
8
 73
4
 74
0
 40
0
 40
0
 40
0
 40
0
 40
1
 40
1
 40
1
 40
1
 10
191.646720
 20
656.318140
 30
0.0
 10
191.646720
 20
657.888532
 30
0.0
 10
190.508784
 20
659.152508
 30
0.0
 10
189.095120
 20
659.152508
 30
0.0
  0
SPLINE
  5
15c
100
AcDbEntity
  8
Layer_1
 62
1
100
AcDbSpline
 70
8
 71
3
 72
8
 73
4
 74
0
 40
0
 40
0
 40
0
 40
0
 40
1
 40
1
 40
1
 40
1
 10
189.095120
 20
659.152508
 30
0.0
 10
187.681600
 20
659.152508
 30
0.0
 10
186.543600
 20
657.888532
 30
0.0
 10
186.543600
 20
656.318140
 30
0.0
  0
LWPOLYLINE
  5
15d
100
AcDbEntity
  8
Layer_1
 62
1
100
AcDbPolyline
 90
4
 70
1
 10
195.332656
 20
656.318140
 30
0.0
 10
195.332656
 20
643.379076
 30
0.0
 10
191.646720
 20
643.379076
 30
0.0
 10
191.646720
 20
656.318140
 30
0.0
  0
SPLINE
  5
15e
100
AcDbEntity
  8
Layer_1
 62
1
100
AcDbSpline
 70
8
 71
3
 72
8
 73
4
 74
0
 40
0
 40
0
 40
0
 40
0
 40
1
 40
1
 40
1
 40
1
 10
182.859200
 20
656.318140
 30
0.0
 10
182.859200
 20
657.888532
 30
0.0
 10
181.721200
 20
659.152508
 30
0.0
 10
180.307680
 20
659.152508
 30
0.0
  0
SPLINE
  5
15f
100
AcDbEntity
  8
Layer_1
 62
1
100
AcDbSpline
 70
8
 71
3
 72
8
 73
4
 74
0
 40
0
 40
0
 40
0
 40
0
 40
1
 40
1
 40
1
 40
1
 10
180.307680
 20
659.152508
 30
0.0
 10
178.894080
 20
659.152508
 30
0.0
 10
177.756080
 20
657.888532
 30
0.0
 10
177.756080
 20
656.318140
 30
0.0
  0
LWPOLYLINE
  5
160
100
AcDbEntity
  8
Layer_1
 62
1
100
AcDbPolyline
 90
4
 70
1
 10
186.543600
 20
656.318140
 30
0.0
 10
186.543600
 20
643.379076
 30
0.0
 10
182.859200
 20
643.379076
 30
0.0
 10
182.859200
 20
656.318140
 30
0.0
  0
SPLINE
  5
161
100
AcDbEntity
  8
Layer_1
 62
1
100
AcDbSpline
 70
8
 71
3
 72
8
 73
4
 74
0
 40
0
 40
0
 40
0
 40
0
 40
1
 40
1
 40
1
 40
1
 10
174.071680
 20
656.318140
 30
0.0
 10
174.071680
 20
657.888532
 30
0.0
 10
172.933760
 20
659.152508
 30
0.0
 10
171.520160
 20
659.152508
 30
0.0
  0
LWPOLYLINE
  5
162
100
AcDbEntity
  8
Layer_1
 62
1
100
AcDbPolyline
 90
4
 70
1
 10
177.756080
 20
656.318140
 30
0.0
 10
177.756080
 20
643.379076
 30
0.0
 10
174.071680
 20
643.379076
 30
0.0
 10
174.071680
 20
656.318140
 30
0.0
  0
SPLINE
  5
163
100
AcDbEntity
  8
Layer_1
 62
1
100
AcDbSpline
 70
8
 71
3
 72
8
 73
4
 74
0
 40
0
 40
0
 40
0
 40
0
 40
1
 40
1
 40
1
 40
1
 10
108.937360
 20
659.152508
 30
0.0
 10
101.085360
 20
659.152508
 30
0.0
 10
94.763920
 20
652.831028
 30
0.0
 10
94.763920
 20
644.979076
 30
0.0
  0
LWPOLYLINE
  5
164
100
AcDbEntity
  8
Layer_1
 62
1
100
AcDbPolyline
 90
2
 70
1
 10
171.520160
 20
659.152508
 30
0.0
 10
108.937360
 20
659.152508
 30
0.0
  0
SPLINE
  5
165
100
AcDbEntity
  8
Layer_1
 62
1
100
AcDbSpline
 70
8
 71
3
 72
8
 73
4
 74
0
 40
0
 40
0
 40
0
 40
0
 40
1
 40
1
 40
1
 40
1
 10
94.763920
 20
123.529044
 30
0.0
 10
94.763920
 20
115.677044
 30
0.0
 10
101.085360
 20
109.355604
 30
0.0
 10
108.937360
 20
109.355604
 30
0.0
  0
LWPOLYLINE
  5
166
100
AcDbEntity
  8
Layer_1
 62
1
100
AcDbPolyline
 90
3
 70
1
 10
94.763920
 20
644.979076
 30
0.0
 10
94.763920
 20
384.254084
 30
0.0
 10
94.763920
 20
123.529044
 30
0.0
  0
SPLINE
  5
167
100
AcDbEntity
  8
Layer_1
 62
1
100
AcDbSpline
 70
8
 71
3
 72
8
 73
4
 74
0
 40
0
 40
0
 40
0
 40
0
 40
1
 40
1
 40
1
 40
1
 10
171.520160
 20
109.355604
 30
0.0
 10
172.933760
 20
109.355604
 30
0.0
 10
174.071680
 20
110.619604
 30
0.0
 10
174.071680
 20
112.190004
 30
0.0
  0
LWPOLYLINE
  5
168
100
AcDbEntity
  8
Layer_1
 62
1
100
AcDbPolyline
 90
2
 70
1
 10
108.937360
 20
109.355604
 30
0.0
 10
171.520160
 20
109.355604
 30
0.0
  0
SPLINE
  5
169
100
AcDbEntity
  8
Layer_1
 62
1
100
AcDbSpline
 70
8
 71
3
 72
8
 73
4
 74
0
 40
0
 40
0
 40
0
 40
0
 40
1
 40
1
 40
1
 40
1
 10
177.756080
 20
112.190004
 30
0.0
 10
177.756080
 20
110.619604
 30
0.0
 10
178.894080
 20
109.355604
 30
0.0
 10
180.307680
 20
109.355604
 30
0.0
  0
SPLINE
  5
16a
100
AcDbEntity
  8
Layer_1
 62
1
100
AcDbSpline
 70
8
 71
3
 72
8
 73
4
 74
0
 40
0
 40
0
 40
0
 40
0
 40
1
 40
1
 40
1
 40
1
 10
180.307680
 20
109.355604
 30
0.0
 10
181.721200
 20
109.355604
 30
0.0
 10
182.859200
 20
110.619604
 30
0.0
 10
182.859200
 20
112.190004
 30
0.0
  0
LWPOLYLINE
  5
16b
100
AcDbEntity
  8
Layer_1
 62
1
100
AcDbPolyline
 90
4
 70
1
 10
174.071680
 20
112.190004
 30
0.0
 10
174.071680
 20
125.129044
 30
0.0
 10
177.756080
 20
125.129044
 30
0.0
 10
177.756080
 20
112.190004
 30
0.0
  0
SPLINE
  5
16c
100
AcDbEntity
  8
Layer_1
 62
1
100
AcDbSpline
 70
8
 71
3
 72
8
 73
4
 74
0
 40
0
 40
0
 40
0
 40
0
 40
1
 40
1
 40
1
 40
1
 10
186.543600
 20
112.190004
 30
0.0
 10
186.543600
 20
110.619604
 30
0.0
 10
187.681600
 20
109.355604
 30
0.0
 10
189.095120
 20
109.355604
 30
0.0
  0
SPLINE
  5
16d
100
AcDbEntity
  8
Layer_1
 62
1
100
AcDbSpline
 70
8
 71
3
 72
8
 73
4
 74
0
 40
0
 40
0
 40
0
 40
0
 40
1
 40
1
 40
1
 40
1
 10
189.095120
 20
109.355604
 30
0.0
 10
190.508784
 20
109.355604
 30
0.0
 10
191.646720
 20
110.619604
 30
0.0
 10
191.646720
 20
112.190004
 30
0.0
  0
LWPOLYLINE
  5
16e
100
AcDbEntity
  8
Layer_1
 62
1
100
AcDbPolyline
 90
4
 70
1
 10
182.859200
 20
112.190004
 30
0.0
 10
182.859200
 20
125.129044
 30
0.0
 10
186.543600
 20
125.129044
 30
0.0
 10
186.543600
 20
112.190004
 30
0.0
  0
SPLINE
  5
16f
100
AcDbEntity
  8
Layer_1
 62
1
100
AcDbSpline
 70
8
 71
3
 72
8
 73
4
 74
0
 40
0
 40
0
 40
0
 40
0
 40
1
 40
1
 40
1
 40
1
 10
195.332656
 20
112.190004
 30
0.0
 10
195.332656
 20
110.619604
 30
0.0
 10
196.470648
 20
109.355604
 30
0.0
 10
197.884216
 20
109.355604
 30
0.0
  0
SPLINE
  5
170
100
AcDbEntity
  8
Layer_1
 62
1
100
AcDbSpline
 70
8
 71
3
 72
8
 73
4
 74
0
 40
0
 40
0
 40
0
 40
0
 40
1
 40
1
 40
1
 40
1
 10
197.884216
 20
109.355604
 30
0.0
 10
199.297784
 20
109.355604
 30
0.0
 10
200.435776
 20
110.619604
 30
0.0
 10
200.435776
 20
112.190004
 30
0.0
  0
LWPOLYLINE
  5
171
100
AcDbEntity
  8
Layer_1
 62
1
100
AcDbPolyline
 90
4
 70
1
 10
191.646720
 20
112.190004
 30
0.0
 10
191.646720
 20
125.129044
 30
0.0
 10
195.332656
 20
125.129044
 30
0.0
 10
195.332656
 20
112.190004
 30
0.0
  0
SPLINE
  5
172
100
AcDbEntity
  8
Layer_1
 62
1
100
AcDbSpline
 70
8
 71
3
 72
8
 73
4
 74
0
 40
0
 40
0
 40
0
 40
0
 40
1
 40
1
 40
1
 40
1
 10
204.120152
 20
112.190004
 30
0.0
 10
204.120152
 20
110.619604
 30
0.0
 10
205.258152
 20
109.355604
 30
0.0
 10
206.671720
 20
109.355604
 30
0.0
  0
SPLINE
  5
173
100
AcDbEntity
  8
Layer_1
 62
1
100
AcDbSpline
 70
8
 71
3
 72
8
 73
4
 74
0
 40
0
 40
0
 40
0
 40
0
 40
1
 40
1
 40
1
 40
1
 10
206.671720
 20
109.355604
 30
0.0
 10
208.085280
 20
109.355604
 30
0.0
 10
209.223280
 20
110.619604
 30
0.0
 10
209.223280
 20
112.190004
 30
0.0
  0
LWPOLYLINE
  5
174
100
AcDbEntity
  8
Layer_1
 62
1
100
AcDbPolyline
 90
4
 70
1
 10
200.435776
 20
112.190004
 30
0.0
 10
200.435776
 20
125.129044
 30
0.0
 10
204.120152
 20
125.129044
 30
0.0
 10
204.120152
 20
112.190004
 30
0.0
  0
SPLINE
  5
175
100
AcDbEntity
  8
Layer_1
 62
1
100
AcDbSpline
 70
8
 71
3
 72
8
 73
4
 74
0
 40
0
 40
0
 40
0
 40
0
 40
1
 40
1
 40
1
 40
1
 10
212.909216
 20
112.190004
 30
0.0
 10
212.909216
 20
110.619604
 30
0.0
 10
214.047200
 20
109.355604
 30
0.0
 10
215.460784
 20
109.355604
 30
0.0
  0
SPLINE
  5
176
100
AcDbEntity
  8
Layer_1
 62
1
100
AcDbSpline
 70
8
 71
3
 72
8
 73
4
 74
0
 40
0
 40
0
 40
0
 40
0
 40
1
 40
1
 40
1
 40
1
 10
215.460784
 20
109.355604
 30
0.0
 10
216.874344
 20
109.355604
 30
0.0
 10
218.012344
 20
110.619604
 30
0.0
 10
218.012344
 20
112.190004
 30
0.0
  0
LWPOLYLINE
  5
177
100
AcDbEntity
  8
Layer_1
 62
1
100
AcDbPolyline
 90
4
 70
1
 10
209.223280
 20
112.190004
 30
0.0
 10
209.223280
 20
125.129044
 30
0.0
 10
212.909216
 20
125.129044
 30
0.0
 10
212.909216
 20
112.190004
 30
0.0
  0
SPLINE
  5
178
100
AcDbEntity
  8
Layer_1
 62
1
100
AcDbSpline
 70
8
 71
3
 72
8
 73
4
 74
0
 40
0
 40
0
 40
0
 40
0
 40
1
 40
1
 40
1
 40
1
 10
221.696720
 20
112.190004
 30
0.0
 10
221.696720
 20
110.619604
 30
0.0
 10
222.834712
 20
109.355604
 30
0.0
 10
224.248280
 20
109.355604
 30
0.0
  0
SPLINE
  5
179
100
AcDbEntity
  8
Layer_1
 62
1
100
AcDbSpline
 70
8
 71
3
 72
8
 73
4
 74
0
 40
0
 40
0
 40
0
 40
0
 40
1
 40
1
 40
1
 40
1
 10
224.248280
 20
109.355604
 30
0.0
 10
225.661848
 20
109.355604
 30
0.0
 10
226.799840
 20
110.619604
 30
0.0
 10
226.799840
 20
112.190004
 30
0.0
  0
LWPOLYLINE
  5
17a
100
AcDbEntity
  8
Layer_1
 62
1
100
AcDbPolyline
 90
4
 70
1
 10
218.012344
 20
112.190004
 30
0.0
 10
218.012344
 20
125.129044
 30
0.0
 10
221.696720
 20
125.129044
 30
0.0
 10
221.696720
 20
112.190004
 30
0.0
  0
SPLINE
  5
17b
100
AcDbEntity
  8
Layer_1
 62
1
100
AcDbSpline
 70
8
 71
3
 72
8
 73
4
 74
0
 40
0
 40
0
 40
0
 40
0
 40
1
 40
1
 40
1
 40
1
 10
230.485776
 20
112.190004
 30
0.0
 10
230.485776
 20
110.619604
 30
0.0
 10
231.623776
 20
109.355604
 30
0.0
 10
233.037344
 20
109.355604
 30
0.0
  0
SPLINE
  5
17c
100
AcDbEntity
  8
Layer_1
 62
1
100
AcDbSpline
 70
8
 71
3
 72
8
 73
4
 74
0
 40
0
 40
0
 40
0
 40
0
 40
1
 40
1
 40
1
 40
1
 10
233.037344
 20
109.355604
 30
0.0
 10
234.450912
 20
109.355604
 30
0.0
 10
235.588904
 20
110.619604
 30
0.0
 10
235.588904
 20
112.190004
 30
0.0
  0
LWPOLYLINE
  5
17d
100
AcDbEntity
  8
Layer_1
 62
1
100
AcDbPolyline
 90
4
 70
1
 10
226.799840
 20
112.190004
 30
0.0
 10
226.799840
 20
125.129044
 30
0.0
 10
230.485776
 20
125.129044
 30
0.0
 10
230.485776
 20
112.190004
 30
0.0
  0
SPLINE
  5
17e
100
AcDbEntity
  8
Layer_1
 62
1
100
AcDbSpline
 70
8
 71
3
 72
8
 73
4
 74
0
 40
0
 40
0
 40
0
 40
0
 40
1
 40
1
 40
1
 40
1
 10
239.273280
 20
112.190004
 30
0.0
 10
239.273280
 20
110.619604
 30
0.0
 10
240.411280
 20
109.355604
 30
0.0
 10
241.824840
 20
109.355604
 30
0.0
  0
SPLINE
  5
17f
100
AcDbEntity
  8
Layer_1
 62
1
100
AcDbSpline
 70
8
 71
3
 72
8
 73
4
 74
0
 40
0
 40
0
 40
0
 40
0
 40
1
 40
1
 40
1
 40
1
 10
241.824840
 20
109.355604
 30
0.0
 10
243.238408
 20
109.355604
 30
0.0
 10
244.376408
 20
110.619604
 30
0.0
 10
244.376408
 20
112.190004
 30
0.0
  0
LWPOLYLINE
  5
180
100
AcDbEntity
  8
Layer_1
 62
1
100
AcDbPolyline
 90
4
 70
1
 10
235.588904
 20
112.190004
 30
0.0
 10
235.588904
 20
125.129044
 30
0.0
 10
239.273280
 20
125.129044
 30
0.0
 10
239.273280
 20
112.190004
 30
0.0
  0
SPLINE
  5
181
100
AcDbEntity
  8
Layer_1
 62
1
100
AcDbSpline
 70
8
 71
3
 72
8
 73
4
 74
0
 40
0
 40
0
 40
0
 40
0
 40
1
 40
1
 40
1
 40
1
 10
248.060784
 20
112.190004
 30
0.0
 10
248.060784
 20
110.619604
 30
0.0
 10
249.198776
 20
109.355604
 30
0.0
 10
250.612344
 20
109.355604
 30
0.0
  0
SPLINE
  5
182
100
AcDbEntity
  8
Layer_1
 62
1
100
AcDbSpline
 70
8
 71
3
 72
8
 73
4
 74
0
 40
0
 40
0
 40
0
 40
0
 40
1
 40
1
 40
1
 40
1
 10
250.612344
 20
109.355604
 30
0.0
 10
252.025912
 20
109.355604
 30
0.0
 10
253.163904
 20
110.619604
 30
0.0
 10
253.163904
 20
112.190004
 30
0.0
  0
LWPOLYLINE
  5
183
100
AcDbEntity
  8
Layer_1
 62
1
100
AcDbPolyline
 90
4
 70
1
 10
244.376408
 20
112.190004
 30
0.0
 10
244.376408
 20
125.129044
 30
0.0
 10
248.060784
 20
125.129044
 30
0.0
 10
248.060784
 20
112.190004
 30
0.0
  0
SPLINE
  5
184
100
AcDbEntity
  8
Layer_1
 62
1
100
AcDbSpline
 70
8
 71
3
 72
8
 73
4
 74
0
 40
0
 40
0
 40
0
 40
0
 40
1
 40
1
 40
1
 40
1
 10
256.849840
 20
112.190004
 30
0.0
 10
256.849840
 20
110.619604
 30
0.0
 10
257.987840
 20
109.355604
 30
0.0
 10
259.401408
 20
109.355604
 30
0.0
  0
SPLINE
  5
185
100
AcDbEntity
  8
Layer_1
 62
1
100
AcDbSpline
 70
8
 71
3
 72
8
 73
4
 74
0
 40
0
 40
0
 40
0
 40
0
 40
1
 40
1
 40
1
 40
1
 10
259.401408
 20
109.355604
 30
0.0
 10
260.814968
 20
109.355604
 30
0.0
 10
261.952968
 20
110.619604
 30
0.0
 10
261.952968
 20
112.190004
 30
0.0
  0
LWPOLYLINE
  5
186
100
AcDbEntity
  8
Layer_1
 62
1
100
AcDbPolyline
 90
4
 70
1
 10
253.163904
 20
112.190004
 30
0.0
 10
253.163904
 20
125.129044
 30
0.0
 10
256.849840
 20
125.129044
 30
0.0
 10
256.849840
 20
112.190004
 30
0.0
  0
SPLINE
  5
187
100
AcDbEntity
  8
Layer_1
 62
1
100
AcDbSpline
 70
8
 71
3
 72
8
 73
4
 74
0
 40
0
 40
0
 40
0
 40
0
 40
1
 40
1
 40
1
 40
1
 10
265.637344
 20
112.190004
 30
0.0
 10
265.637344
 20
110.619604
 30
0.0
 10
266.775336
 20
109.355604
 30
0.0
 10
268.188904
 20
109.355604
 30
0.0
  0
SPLINE
  5
188
100
AcDbEntity
  8
Layer_1
 62
1
100
AcDbSpline
 70
8
 71
3
 72
8
 73
4
 74
0
 40
0
 40
0
 40
0
 40
0
 40
1
 40
1
 40
1
 40
1
 10
268.188904
 20
109.355604
 30
0.0
 10
269.602472
 20
109.355604
 30
0.0
 10
270.740464
 20
110.619604
 30
0.0
 10
270.740464
 20
112.190004
 30
0.0
  0
LWPOLYLINE
  5
189
100
AcDbEntity
  8
Layer_1
 62
1
100
AcDbPolyline
 90
4
 70
1
 10
261.952968
 20
112.190004
 30
0.0
 10
261.952968
 20
125.129044
 30
0.0
 10
265.637344
 20
125.129044
 30
0.0
 10
265.637344
 20
112.190004
 30
0.0
  0
SPLINE
  5
18a
100
AcDbEntity
  8
Layer_1
 62
1
100
AcDbSpline
 70
8
 71
3
 72
8
 73
4
 74
0
 40
0
 40
0
 40
0
 40
0
 40
1
 40
1
 40
1
 40
1
 10
274.426408
 20
112.190004
 30
0.0
 10
274.426408
 20
110.619604
 30
0.0
 10
275.564400
 20
109.355604
 30
0.0
 10
276.977968
 20
109.355604
 30
0.0
  0
SPLINE
  5
18b
100
AcDbEntity
  8
Layer_1
 62
1
100
AcDbSpline
 70
8
 71
3
 72
8
 73
4
 74
0
 40
0
 40
0
 40
0
 40
0
 40
1
 40
1
 40
1
 40
1
 10
276.977968
 20
109.355604
 30
0.0
 10
278.391536
 20
109.355604
 30
0.0
 10
279.529528
 20
110.619604
 30
0.0
 10
279.529528
 20
112.190004
 30
0.0
  0
LWPOLYLINE
  5
18c
100
AcDbEntity
  8
Layer_1
 62
1
100
AcDbPolyline
 90
4
 70
1
 10
270.740464
 20
112.190004
 30
0.0
 10
270.740464
 20
125.129044
 30
0.0
 10
274.426408
 20
125.129044
 30
0.0
 10
274.426408
 20
112.190004
 30
0.0
  0
SPLINE
  5
18d
100
AcDbEntity
  8
Layer_1
 62
1
100
AcDbSpline
 70
8
 71
3
 72
8
 73
4
 74
0
 40
0
 40
0
 40
0
 40
0
 40
1
 40
1
 40
1
 40
1
 10
283.213904
 20
112.190004
 30
0.0
 10
283.213904
 20
110.619604
 30
0.0
 10
284.351904
 20
109.355604
 30
0.0
 10
285.765464
 20
109.355604
 30
0.0
  0
SPLINE
  5
18e
100
AcDbEntity
  8
Layer_1
 62
1
100
AcDbSpline
 70
8
 71
3
 72
8
 73
4
 74
0
 40
0
 40
0
 40
0
 40
0
 40
1
 40
1
 40
1
 40
1
 10
285.765464
 20
109.355604
 30
0.0
 10
287.179032
 20
109.355604
 30
0.0
 10
288.317032
 20
110.619604
 30
0.0
 10
288.317032
 20
112.190004
 30
0.0
  0
LWPOLYLINE
  5
18f
100
AcDbEntity
  8
Layer_1
 62
1
100
AcDbPolyline
 90
4
 70
1
 10
279.529528
 20
112.190004
 30
0.0
 10
279.529528
 20
125.129044
 30
0.0
 10
283.213904
 20
125.129044
 30
0.0
 10
283.213904
 20
112.190004
 30
0.0
  0
SPLINE
  5
190
100
AcDbEntity
  8
Layer_1
 62
1
100
AcDbSpline
 70
8
 71
3
 72
8
 73
4
 74
0
 40
0
 40
0
 40
0
 40
0
 40
1
 40
1
 40
1
 40
1
 10
292.002968
 20
112.190004
 30
0.0
 10
292.002968
 20
110.619604
 30
0.0
 10
293.140960
 20
109.355604
 30
0.0
 10
294.554528
 20
109.355604
 30
0.0
  0
SPLINE
  5
191
100
AcDbEntity
  8
Layer_1
 62
1
100
AcDbSpline
 70
8
 71
3
 72
8
 73
4
 74
0
 40
0
 40
0
 40
0
 40
0
 40
1
 40
1
 40
1
 40
1
 10
294.554528
 20
109.355604
 30
0.0
 10
295.968096
 20
109.355604
 30
0.0
 10
297.106096
 20
110.619604
 30
0.0
 10
297.106096
 20
112.190004
 30
0.0
  0
LWPOLYLINE
  5
192
100
AcDbEntity
  8
Layer_1
 62
1
100
AcDbPolyline
 90
4
 70
1
 10
288.317032
 20
112.190004
 30
0.0
 10
288.317032
 20
125.129044
 30
0.0
 10
292.002968
 20
125.129044
 30
0.0
 10
292.002968
 20
112.190004
 30
0.0
  0
SPLINE
  5
193
100
AcDbEntity
  8
Layer_1
 62
1
100
AcDbSpline
 70
8
 71
3
 72
8
 73
4
 74
0
 40
0
 40
0
 40
0
 40
0
 40
1
 40
1
 40
1
 40
1
 10
300.790464
 20
112.190004
 30
0.0
 10
300.790464
 20
110.619604
 30
0.0
 10
301.928464
 20
109.355604
 30
0.0
 10
303.342032
 20
109.355604
 30
0.0
  0
SPLINE
  5
194
100
AcDbEntity
  8
Layer_1
 62
1
100
AcDbSpline
 70
8
 71
3
 72
8
 73
4
 74
0
 40
0
 40
0
 40
0
 40
0
 40
1
 40
1
 40
1
 40
1
 10
303.342032
 20
109.355604
 30
0.0
 10
304.755600
 20
109.355604
 30
0.0
 10
305.893592
 20
110.619604
 30
0.0
 10
305.893592
 20
112.190004
 30
0.0
  0
LWPOLYLINE
  5
195
100
AcDbEntity
  8
Layer_1
 62
1
100
AcDbPolyline
 90
4
 70
1
 10
297.106096
 20
112.190004
 30
0.0
 10
297.106096
 20
125.129044
 30
0.0
 10
300.790464
 20
125.129044
 30
0.0
 10
300.790464
 20
112.190004
 30
0.0
  0
SPLINE
  5
196
100
AcDbEntity
  8
Layer_1
 62
1
100
AcDbSpline
 70
8
 71
3
 72
8
 73
4
 74
0
 40
0
 40
0
 40
0
 40
0
 40
1
 40
1
 40
1
 40
1
 10
309.579528
 20
112.190004
 30
0.0
 10
309.579528
 20
110.619604
 30
0.0
 10
310.717528
 20
109.355604
 30
0.0
 10
312.131096
 20
109.355604
 30
0.0
  0
SPLINE
  5
197
100
AcDbEntity
  8
Layer_1
 62
1
100
AcDbSpline
 70
8
 71
3
 72
8
 73
4
 74
0
 40
0
 40
0
 40
0
 40
0
 40
1
 40
1
 40
1
 40
1
 10
312.131096
 20
109.355604
 30
0.0
 10
313.544656
 20
109.355604
 30
0.0
 10
314.682656
 20
110.619604
 30
0.0
 10
314.682656
 20
112.190004
 30
0.0
  0
LWPOLYLINE
  5
198
100
AcDbEntity
  8
Layer_1
 62
1
100
AcDbPolyline
 90
4
 70
1
 10
305.893592
 20
112.190004
 30
0.0
 10
305.893592
 20
125.129044
 30
0.0
 10
309.579528
 20
125.129044
 30
0.0
 10
309.579528
 20
112.190004
 30
0.0
  0
SPLINE
  5
199
100
AcDbEntity
  8
Layer_1
 62
1
100
AcDbSpline
 70
8
 71
3
 72
8
 73
4
 74
0
 40
0
 40
0
 40
0
 40
0
 40
1
 40
1
 40
1
 40
1
 10
318.367032
 20
112.190004
 30
0.0
 10
318.367032
 20
110.619604
 30
0.0
 10
319.505024
 20
109.355604
 30
0.0
 10
320.918592
 20
109.355604
 30
0.0
  0
SPLINE
  5
19a
100
AcDbEntity
  8
Layer_1
 62
1
100
AcDbSpline
 70
8
 71
3
 72
8
 73
4
 74
0
 40
0
 40
0
 40
0
 40
0
 40
1
 40
1
 40
1
 40
1
 10
320.918592
 20
109.355604
 30
0.0
 10
322.332160
 20
109.355604
 30
0.0
 10
323.470152
 20
110.619604
 30
0.0
 10
323.470152
 20
112.190004
 30
0.0
  0
LWPOLYLINE
  5
19b
100
AcDbEntity
  8
Layer_1
 62
1
100
AcDbPolyline
 90
4
 70
1
 10
314.682656
 20
112.190004
 30
0.0
 10
314.682656
 20
125.129044
 30
0.0
 10
318.367032
 20
125.129044
 30
0.0
 10
318.367032
 20
112.190004
 30
0.0
  0
SPLINE
  5
19c
100
AcDbEntity
  8
Layer_1
 62
1
100
AcDbSpline
 70
8
 71
3
 72
8
 73
4
 74
0
 40
0
 40
0
 40
0
 40
0
 40
1
 40
1
 40
1
 40
1
 10
327.154528
 20
112.190004
 30
0.0
 10
327.154528
 20
110.619604
 30
0.0
 10
328.292528
 20
109.355604
 30
0.0
 10
329.706096
 20
109.355604
 30
0.0
  0
SPLINE
  5
19d
100
AcDbEntity
  8
Layer_1
 62
1
100
AcDbSpline
 70
8
 71
3
 72
8
 73
4
 74
0
 40
0
 40
0
 40
0
 40
0
 40
1
 40
1
 40
1
 40
1
 10
329.706096
 20
109.355604
 30
0.0
 10
331.119656
 20
109.355604
 30
0.0
 10
332.257656
 20
110.619604
 30
0.0
 10
332.257656
 20
112.190004
 30
0.0
  0
LWPOLYLINE
  5
19e
100
AcDbEntity
  8
Layer_1
 62
1
100
AcDbPolyline
 90
4
 70
1
 10
323.470152
 20
112.190004
 30
0.0
 10
323.470152
 20
125.129044
 30
0.0
 10
327.154528
 20
125.129044
 30
0.0
 10
327.154528
 20
112.190004
 30
0.0
  0
SPLINE
  5
19f
100
AcDbEntity
  8
Layer_1
 62
1
100
AcDbSpline
 70
8
 71
3
 72
8
 73
4
 74
0
 40
0
 40
0
 40
0
 40
0
 40
1
 40
1
 40
1
 40
1
 10
335.943592
 20
112.190004
 30
0.0
 10
335.943592
 20
110.619604
 30
0.0
 10
337.081592
 20
109.355604
 30
0.0
 10
338.495152
 20
109.355604
 30
0.0
  0
SPLINE
  5
1a0
100
AcDbEntity
  8
Layer_1
 62
1
100
AcDbSpline
 70
8
 71
3
 72
8
 73
4
 74
0
 40
0
 40
0
 40
0
 40
0
 40
1
 40
1
 40
1
 40
1
 10
338.495152
 20
109.355604
 30
0.0
 10
339.908720
 20
109.355604
 30
0.0
 10
341.046720
 20
110.619604
 30
0.0
 10
341.046720
 20
112.190004
 30
0.0
  0
LWPOLYLINE
  5
1a1
100
AcDbEntity
  8
Layer_1
 62
1
100
AcDbPolyline
 90
4
 70
1
 10
332.257656
 20
112.190004
 30
0.0
 10
332.257656
 20
125.129044
 30
0.0
 10
335.943592
 20
125.129044
 30
0.0
 10
335.943592
 20
112.190004
 30
0.0
  0
SPLINE
  5
1a2
100
AcDbEntity
  8
Layer_1
 62
1
100
AcDbSpline
 70
8
 71
3
 72
8
 73
4
 74
0
 40
0
 40
0
 40
0
 40
0
 40
1
 40
1
 40
1
 40
1
 10
344.731096
 20
112.190004
 30
0.0
 10
344.731096
 20
110.619604
 30
0.0
 10
345.869088
 20
109.355604
 30
0.0
 10
347.282656
 20
109.355604
 30
0.0
  0
SPLINE
  5
1a3
100
AcDbEntity
  8
Layer_1
 62
1
100
AcDbSpline
 70
8
 71
3
 72
8
 73
4
 74
0
 40
0
 40
0
 40
0
 40
0
 40
1
 40
1
 40
1
 40
1
 10
347.282656
 20
109.355604
 30
0.0
 10
348.696224
 20
109.355604
 30
0.0
 10
349.834216
 20
110.619604
 30
0.0
 10
349.834216
 20
112.190004
 30
0.0
  0
LWPOLYLINE
  5
1a4
100
AcDbEntity
  8
Layer_1
 62
1
100
AcDbPolyline
 90
4
 70
1
 10
341.046720
 20
112.190004
 30
0.0
 10
341.046720
 20
125.129044
 30
0.0
 10
344.731096
 20
125.129044
 30
0.0
 10
344.731096
 20
112.190004
 30
0.0
  0
SPLINE
  5
1a5
100
AcDbEntity
  8
Layer_1
 62
1
100
AcDbSpline
 70
8
 71
3
 72
8
 73
4
 74
0
 40
0
 40
0
 40
0
 40
0
 40
1
 40
1
 40
1
 40
1
 10
353.520152
 20
112.190004
 30
0.0
 10
353.520152
 20
110.619604
 30
0.0
 10
354.658152
 20
109.355604
 30
0.0
 10
356.071720
 20
109.355604
 30
0.0
  0
SPLINE
  5
1a6
100
AcDbEntity
  8
Layer_1
 62
1
100
AcDbSpline
 70
8
 71
3
 72
8
 73
4
 74
0
 40
0
 40
0
 40
0
 40
0
 40
1
 40
1
 40
1
 40
1
 10
356.071720
 20
109.355604
 30
0.0
 10
357.485280
 20
109.355604
 30
0.0
 10
358.623280
 20
110.619604
 30
0.0
 10
358.623280
 20
112.190004
 30
0.0
  0
LWPOLYLINE
  5
1a7
100
AcDbEntity
  8
Layer_1
 62
1
100
AcDbPolyline
 90
4
 70
1
 10
349.834216
 20
112.190004
 30
0.0
 10
349.834216
 20
125.129044
 30
0.0
 10
353.520152
 20
125.129044
 30
0.0
 10
353.520152
 20
112.190004
 30
0.0
  0
SPLINE
  5
1a8
100
AcDbEntity
  8
Layer_1
 62
1
100
AcDbSpline
 70
8
 71
3
 72
8
 73
4
 74
0
 40
0
 40
0
 40
0
 40
0
 40
1
 40
1
 40
1
 40
1
 10
362.307656
 20
112.190004
 30
0.0
 10
362.307656
 20
110.619604
 30
0.0
 10
363.445648
 20
109.355604
 30
0.0
 10
364.859216
 20
109.355604
 30
0.0
  0
SPLINE
  5
1a9
100
AcDbEntity
  8
Layer_1
 62
1
100
AcDbSpline
 70
8
 71
3
 72
8
 73
4
 74
0
 40
0
 40
0
 40
0
 40
0
 40
1
 40
1
 40
1
 40
1
 10
364.859216
 20
109.355604
 30
0.0
 10
366.272784
 20
109.355604
 30
0.0
 10
367.410784
 20
110.619604
 30
0.0
 10
367.410784
 20
112.190004
 30
0.0
  0
LWPOLYLINE
  5
1aa
100
AcDbEntity
  8
Layer_1
 62
1
100
AcDbPolyline
 90
4
 70
1
 10
358.623280
 20
112.190004
 30
0.0
 10
358.623280
 20
125.129044
 30
0.0
 10
362.307656
 20
125.129044
 30
0.0
 10
362.307656
 20
112.190004
 30
0.0
  0
SPLINE
  5
1ab
100
AcDbEntity
  8
Layer_1
 62
1
100
AcDbSpline
 70
8
 71
3
 72
8
 73
4
 74
0
 40
0
 40
0
 40
0
 40
0
 40
1
 40
1
 40
1
 40
1
 10
371.096720
 20
112.190004
 30
0.0
 10
371.096720
 20
110.619604
 30
0.0
 10
372.234712
 20
109.355604
 30
0.0
 10
373.648280
 20
109.355604
 30
0.0
  0
SPLINE
  5
1ac
100
AcDbEntity
  8
Layer_1
 62
1
100
AcDbSpline
 70
8
 71
3
 72
8
 73
4
 74
0
 40
0
 40
0
 40
0
 40
0
 40
1
 40
1
 40
1
 40
1
 10
373.648280
 20
109.355604
 30
0.0
 10
375.061848
 20
109.355604
 30
0.0
 10
376.199840
 20
110.619604
 30
0.0
 10
376.199840
 20
112.190004
 30
0.0
  0
LWPOLYLINE
  5
1ad
100
AcDbEntity
  8
Layer_1
 62
1
100
AcDbPolyline
 90
4
 70
1
 10
367.410784
 20
112.190004
 30
0.0
 10
367.410784
 20
125.129044
 30
0.0
 10
371.096720
 20
125.129044
 30
0.0
 10
371.096720
 20
112.190004
 30
0.0
  0
SPLINE
  5
1ae
100
AcDbEntity
  8
Layer_1
 62
1
100
AcDbSpline
 70
8
 71
3
 72
8
 73
4
 74
0
 40
0
 40
0
 40
0
 40
0
 40
1
 40
1
 40
1
 40
1
 10
379.884216
 20
112.190004
 30
0.0
 10
379.884216
 20
110.619604
 30
0.0
 10
381.022216
 20
109.355604
 30
0.0
 10
382.435776
 20
109.355604
 30
0.0
  0
SPLINE
  5
1af
100
AcDbEntity
  8
Layer_1
 62
1
100
AcDbSpline
 70
8
 71
3
 72
8
 73
4
 74
0
 40
0
 40
0
 40
0
 40
0
 40
1
 40
1
 40
1
 40
1
 10
382.435776
 20
109.355604
 30
0.0
 10
383.849352
 20
109.355604
 30
0.0
 10
384.987344
 20
110.619604
 30
0.0
 10
384.987344
 20
112.190004
 30
0.0
  0
LWPOLYLINE
  5
1b0
100
AcDbEntity
  8
Layer_1
 62
1
100
AcDbPolyline
 90
4
 70
1
 10
376.199840
 20
112.190004
 30
0.0
 10
376.199840
 20
125.129044
 30
0.0
 10
379.884216
 20
125.129044
 30
0.0
 10
379.884216
 20
112.190004
 30
0.0
  0
SPLINE
  5
1b1
100
AcDbEntity
  8
Layer_1
 62
1
100
AcDbSpline
 70
8
 71
3
 72
8
 73
4
 74
0
 40
0
 40
0
 40
0
 40
0
 40
1
 40
1
 40
1
 40
1
 10
388.671720
 20
112.190004
 30
0.0
 10
388.671720
 20
110.619604
 30
0.0
 10
389.809712
 20
109.355604
 30
0.0
 10
391.223280
 20
109.355604
 30
0.0
  0
SPLINE
  5
1b2
100
AcDbEntity
  8
Layer_1
 62
1
100
AcDbSpline
 70
8
 71
3
 72
8
 73
4
 74
0
 40
0
 40
0
 40
0
 40
0
 40
1
 40
1
 40
1
 40
1
 10
391.223280
 20
109.355604
 30
0.0
 10
392.636848
 20
109.355604
 30
0.0
 10
393.774840
 20
110.619604
 30
0.0
 10
393.774840
 20
112.190004
 30
0.0
  0
LWPOLYLINE
  5
1b3
100
AcDbEntity
  8
Layer_1
 62
1
100
AcDbPolyline
 90
4
 70
1
 10
384.987344
 20
112.190004
 30
0.0
 10
384.987344
 20
125.129044
 30
0.0
 10
388.671720
 20
125.129044
 30
0.0
 10
388.671720
 20
112.190004
 30
0.0
  0
SPLINE
  5
1b4
100
AcDbEntity
  8
Layer_1
 62
1
100
AcDbSpline
 70
8
 71
3
 72
8
 73
4
 74
0
 40
0
 40
0
 40
0
 40
0
 40
1
 40
1
 40
1
 40
1
 10
397.460784
 20
112.190004
 30
0.0
 10
397.460784
 20
110.619604
 30
0.0
 10
398.598776
 20
109.355604
 30
0.0
 10
400.012344
 20
109.355604
 30
0.0
  0
SPLINE
  5
1b5
100
AcDbEntity
  8
Layer_1
 62
1
100
AcDbSpline
 70
8
 71
3
 72
8
 73
4
 74
0
 40
0
 40
0
 40
0
 40
0
 40
1
 40
1
 40
1
 40
1
 10
400.012344
 20
109.355604
 30
0.0
 10
401.425912
 20
109.355604
 30
0.0
 10
402.563904
 20
110.619604
 30
0.0
 10
402.563904
 20
112.190004
 30
0.0
  0
LWPOLYLINE
  5
1b6
100
AcDbEntity
  8
Layer_1
 62
1
100
AcDbPolyline
 90
4
 70
1
 10
393.774840
 20
112.190004
 30
0.0
 10
393.774840
 20
125.129044
 30
0.0
 10
397.460784
 20
125.129044
 30
0.0
 10
397.460784
 20
112.190004
 30
0.0
  0
SPLINE
  5
1b7
100
AcDbEntity
  8
Layer_1
 62
1
100
AcDbSpline
 70
8
 71
3
 72
8
 73
4
 74
0
 40
0
 40
0
 40
0
 40
0
 40
1
 40
1
 40
1
 40
1
 10
406.248280
 20
112.190004
 30
0.0
 10
406.248280
 20
110.619604
 30
0.0
 10
407.386280
 20
109.355604
 30
0.0
 10
408.799840
 20
109.355604
 30
0.0
  0
SPLINE
  5
1b8
100
AcDbEntity
  8
Layer_1
 62
1
100
AcDbSpline
 70
8
 71
3
 72
8
 73
4
 74
0
 40
0
 40
0
 40
0
 40
0
 40
1
 40
1
 40
1
 40
1
 10
408.799840
 20
109.355604
 30
0.0
 10
410.213408
 20
109.355604
 30
0.0
 10
411.351408
 20
110.619604
 30
0.0
 10
411.351408
 20
112.190004
 30
0.0
  0
LWPOLYLINE
  5
1b9
100
AcDbEntity
  8
Layer_1
 62
1
100
AcDbPolyline
 90
4
 70
1
 10
402.563904
 20
112.190004
 30
0.0
 10
402.563904
 20
125.129044
 30
0.0
 10
406.248280
 20
125.129044
 30
0.0
 10
406.248280
 20
112.190004
 30
0.0
  0
SPLINE
  5
1ba
100
AcDbEntity
  8
Layer_1
 62
1
100
AcDbSpline
 70
8
 71
3
 72
8
 73
4
 74
0
 40
0
 40
0
 40
0
 40
0
 40
1
 40
1
 40
1
 40
1
 10
415.037344
 20
112.190004
 30
0.0
 10
415.037344
 20
110.619604
 30
0.0
 10
416.175336
 20
109.355604
 30
0.0
 10
417.588904
 20
109.355604
 30
0.0
  0
SPLINE
  5
1bb
100
AcDbEntity
  8
Layer_1
 62
1
100
AcDbSpline
 70
8
 71
3
 72
8
 73
4
 74
0
 40
0
 40
0
 40
0
 40
0
 40
1
 40
1
 40
1
 40
1
 10
417.588904
 20
109.355604
 30
0.0
 10
419.002472
 20
109.355604
 30
0.0
 10
420.140464
 20
110.619604
 30
0.0
 10
420.140464
 20
112.190004
 30
0.0
  0
LWPOLYLINE
  5
1bc
100
AcDbEntity
  8
Layer_1
 62
1
100
AcDbPolyline
 90
4
 70
1
 10
411.351408
 20
112.190004
 30
0.0
 10
411.351408
 20
125.129044
 30
0.0
 10
415.037344
 20
125.129044
 30
0.0
 10
415.037344
 20
112.190004
 30
0.0
  0
SPLINE
  5
1bd
100
AcDbEntity
  8
Layer_1
 62
1
100
AcDbSpline
 70
8
 71
3
 72
8
 73
4
 74
0
 40
0
 40
0
 40
0
 40
0
 40
1
 40
1
 40
1
 40
1
 10
423.824840
 20
112.190004
 30
0.0
 10
423.824840
 20
110.619604
 30
0.0
 10
424.962840
 20
109.355604
 30
0.0
 10
426.376408
 20
109.355604
 30
0.0
  0
SPLINE
  5
1be
100
AcDbEntity
  8
Layer_1
 62
1
100
AcDbSpline
 70
8
 71
3
 72
8
 73
4
 74
0
 40
0
 40
0
 40
0
 40
0
 40
1
 40
1
 40
1
 40
1
 10
426.376408
 20
109.355604
 30
0.0
 10
426.465808
 20
109.355604
 30
0.0
 10
426.550360
 20
109.374004
 30
0.0
 10
426.637344
 20
109.383604
 30
0.0
  0
LWPOLYLINE
  5
1bf
100
AcDbEntity
  8
Layer_1
 62
1
100
AcDbPolyline
 90
4
 70
1
 10
420.140464
 20
112.190004
 30
0.0
 10
420.140464
 20
125.129044
 30
0.0
 10
423.824840
 20
125.129044
 30
0.0
 10
423.824840
 20
112.190004
 30
0.0
  0
SPLINE
  5
1c0
100
AcDbEntity
  8
Layer_1
 62
1
100
AcDbSpline
 70
8
 71
3
 72
8
 73
4
 74
0
 40
0
 40
0
 40
0
 40
0
 40
1
 40
1
 40
1
 40
1
 10
489.220152
 20
109.355604
 30
0.0
 10
497.072104
 20
109.355604
 30
0.0
 10
503.393592
 20
115.677044
 30
0.0
 10
503.393592
 20
123.529044
 30
0.0
  0
LWPOLYLINE
  5
1c1
100
AcDbEntity
  8
Layer_1
 62
1
100
AcDbPolyline
 90
3
 70
1
 10
426.637344
 20
109.383604
 30
0.0
 10
426.637344
 20
109.355604
 30
0.0
 10
489.220152
 20
109.355604
 30
0.0
  0
LWPOLYLINE
  5
1c2
100
AcDbEntity
  8
Layer_1
 62
1
100
AcDbPolyline
 90
3
 70
1
 10
503.393592
 20
123.529044
 30
0.0
 10
503.393592
 20
384.254084
 30
0.0
 10
503.393592
 20
644.979076
 30
0.0
  0
SPLINE
  5
1c3
100
AcDbEntity
  8
Layer_1
 62
3
100
AcDbSpline
 70
8
 71
3
 72
8
 73
4
 74
0
 40
0
 40
0
 40
0
 40
0
 40
1
 40
1
 40
1
 40
1
 10
440.810984
 20
596.852508
 30
0.0
 10
448.662960
 20
596.852508
 30
0.0
 10
454.984216
 20
590.531252
 30
0.0
 10
454.984216
 20
582.679276
 30
0.0
  0
LWPOLYLINE
  5
1c4
100
AcDbEntity
  8
Layer_1
 62
3
100
AcDbPolyline
 90
2
 70
1
 10
157.346408
 20
596.852508
 30
0.0
 10
440.810984
 20
596.852508
 30
0.0
  0
SPLINE
  5
1c5
100
AcDbEntity
  8
Layer_1
 62
3
100
AcDbSpline
 70
8
 71
3
 72
8
 73
4
 74
0
 40
0
 40
0
 40
0
 40
0
 40
1
 40
1
 40
1
 40
1
 10
454.984216
 20
185.828908
 30
0.0
 10
454.984216
 20
177.976940
 30
0.0
 10
448.662960
 20
171.655684
 30
0.0
 10
440.810984
 20
171.655684
 30
0.0
  0
LWPOLYLINE
  5
1c6
100
AcDbEntity
  8
Layer_1
 62
3
100
AcDbPolyline
 90
2
 70
1
 10
454.984216
 20
582.679276
 30
0.0
 10
454.984216
 20
185.828908
 30
0.0
  0
SPLINE
  5
1c7
100
AcDbEntity
  8
Layer_1
 62
3
100
AcDbSpline
 70
8
 71
3
 72
8
 73
4
 74
0
 40
0
 40
0
 40
0
 40
0
 40
1
 40
1
 40
1
 40
1
 10
157.346408
 20
171.655684
 30
0.0
 10
149.494440
 20
171.655684
 30
0.0
 10
143.173184
 20
177.976940
 30
0.0
 10
143.173184
 20
185.828908
 30
0.0
  0
LWPOLYLINE
  5
1c8
100
AcDbEntity
  8
Layer_1
 62
3
100
AcDbPolyline
 90
2
 70
1
 10
440.810984
 20
171.655684
 30
0.0
 10
157.346408
 20
171.655684
 30
0.0
  0
SPLINE
  5
1c9
100
AcDbEntity
  8
Layer_1
 62
3
100
AcDbSpline
 70
8
 71
3
 72
8
 73
4
 74
0
 40
0
 40
0
 40
0
 40
0
 40
1
 40
1
 40
1
 40
1
 10
143.173184
 20
582.679276
 30
0.0
 10
143.173184
 20
590.531252
 30
0.0
 10
149.494440
 20
596.852508
 30
0.0
 10
157.346408
 20
596.852508
 30
0.0
  0
LWPOLYLINE
  5
1ca
100
AcDbEntity
  8
Layer_1
 62
3
100
AcDbPolyline
 90
2
 70
1
 10
143.173184
 20
185.828908
 30
0.0
 10
143.173184
 20
582.679276
 30
0.0
  0
LWPOLYLINE
  5
1cb
100
AcDbEntity
  8
Layer_1
 62
3
100
AcDbPolyline
 90
2
 70
1
 10
157.346408
 20
596.852508
 30
0.0
 10
157.346408
 20
596.852508
 30
0.0
  0
SPLINE
  5
1cc
100
AcDbEntity
  8
Layer_1
 62
4
100
AcDbSpline
 70
8
 71
3
 72
8
 73
4
 74
0
 40
0
 40
0
 40
0
 40
0
 40
1
 40
1
 40
1
 40
1
 10
156.548456
 20
211.479204
 30
0.0
 10
153.759008
 20
211.479204
 30
0.0
 10
151.513352
 20
213.957124
 30
0.0
 10
151.513352
 20
217.035124
 30
0.0
  0
LWPOLYLINE
  5
1cd
100
AcDbEntity
  8
Layer_1
 62
4
100
AcDbPolyline
 90
2
 70
1
 10
443.549120
 20
211.479204
 30
0.0
 10
156.548456
 20
211.479204
 30
0.0
  0
SPLINE
  5
1ce
100
AcDbEntity
  8
Layer_1
 62
4
100
AcDbSpline
 70
8
 71
3
 72
8
 73
4
 74
0
 40
0
 40
0
 40
0
 40
0
 40
1
 40
1
 40
1
 40
1
 10
151.513352
 20
233.702804
 30
0.0
 10
151.513352
 20
236.780804
 30
0.0
 10
153.759008
 20
239.258724
 30
0.0
 10
156.548456
 20
239.258724
 30
0.0
  0
LWPOLYLINE
  5
1cf
100
AcDbEntity
  8
Layer_1
 62
4
100
AcDbPolyline
 90
2
 70
1
 10
151.513352
 20
217.035124
 30
0.0
 10
151.513352
 20
233.702804
 30
0.0
  0
SPLINE
  5
1d0
100
AcDbEntity
  8
Layer_1
 62
4
100
AcDbSpline
 70
8
 71
3
 72
8
 73
4
 74
0
 40
0
 40
0
 40
0
 40
0
 40
1
 40
1
 40
1
 40
1
 10
443.549120
 20
239.258724
 30
0.0
 10
446.338568
 20
239.258724
 30
0.0
 10
448.584216
 20
236.780804
 30
0.0
 10
448.584216
 20
233.702804
 30
0.0
  0
LWPOLYLINE
  5
1d1
100
AcDbEntity
  8
Layer_1
 62
4
100
AcDbPolyline
 90
2
 70
1
 10
156.548456
 20
239.258724
 30
0.0
 10
443.549120
 20
239.258724
 30
0.0
  0
SPLINE
  5
1d2
100
AcDbEntity
  8
Layer_1
 62
4
100
AcDbSpline
 70
8
 71
3
 72
8
 73
4
 74
0
 40
0
 40
0
 40
0
 40
0
 40
1
 40
1
 40
1
 40
1
 10
448.584216
 20
217.035124
 30
0.0
 10
448.584216
 20
213.957124
 30
0.0
 10
446.338568
 20
211.479204
 30
0.0
 10
443.549120
 20
211.479204
 30
0.0
  0
LWPOLYLINE
  5
1d3
100
AcDbEntity
  8
Layer_1
 62
4
100
AcDbPolyline
 90
2
 70
1
 10
448.584216
 20
233.702804
 30
0.0
 10
448.584216
 20
217.035124
 30
0.0
  0
LWPOLYLINE
  5
1d4
100
AcDbEntity
  8
Layer_1
 62
4
100
AcDbPolyline
 90
2
 70
1
 10
443.549120
 20
211.479204
 30
0.0
 10
443.549120
 20
211.479204
 30
0.0
  0
SPLINE
  5
1d5
100
AcDbEntity
  8
Layer_1
 62
4
100
AcDbSpline
 70
8
 71
3
 72
8
 73
4
 74
0
 40
0
 40
0
 40
0
 40
0
 40
1
 40
1
 40
1
 40
1
 10
156.548456
 20
178.899684
 30
0.0
 10
153.759008
 20
178.899684
 30
0.0
 10
151.513352
 20
181.377604
 30
0.0
 10
151.513352
 20
184.455604
 30
0.0
  0
LWPOLYLINE
  5
1d6
100
AcDbEntity
  8
Layer_1
 62
4
100
AcDbPolyline
 90
2
 70
1
 10
443.549120
 20
178.899684
 30
0.0
 10
156.548456
 20
178.899684
 30
0.0
  0
SPLINE
  5
1d7
100
AcDbEntity
  8
Layer_1
 62
4
100
AcDbSpline
 70
8
 71
3
 72
8
 73
4
 74
0
 40
0
 40
0
 40
0
 40
0
 40
1
 40
1
 40
1
 40
1
 10
151.513352
 20
201.123284
 30
0.0
 10
151.513352
 20
204.201204
 30
0.0
 10
153.759008
 20
206.679204
 30
0.0
 10
156.548456
 20
206.679204
 30
0.0
  0
LWPOLYLINE
  5
1d8
100
AcDbEntity
  8
Layer_1
 62
4
100
AcDbPolyline
 90
2
 70
1
 10
151.513352
 20
184.455604
 30
0.0
 10
151.513352
 20
201.123284
 30
0.0
  0
SPLINE
  5
1d9
100
AcDbEntity
  8
Layer_1
 62
4
100
AcDbSpline
 70
8
 71
3
 72
8
 73
4
 74
0
 40
0
 40
0
 40
0
 40
0
 40
1
 40
1
 40
1
 40
1
 10
443.549120
 20
206.679204
 30
0.0
 10
446.338568
 20
206.679204
 30
0.0
 10
448.584216
 20
204.201204
 30
0.0
 10
448.584216
 20
201.123284
 30
0.0
  0
LWPOLYLINE
  5
1da
100
AcDbEntity
  8
Layer_1
 62
4
100
AcDbPolyline
 90
2
 70
1
 10
156.548456
 20
206.679204
 30
0.0
 10
443.549120
 20
206.679204
 30
0.0
  0
SPLINE
  5
1db
100
AcDbEntity
  8
Layer_1
 62
4
100
AcDbSpline
 70
8
 71
3
 72
8
 73
4
 74
0
 40
0
 40
0
 40
0
 40
0
 40
1
 40
1
 40
1
 40
1
 10
448.584216
 20
184.455604
 30
0.0
 10
448.584216
 20
181.377604
 30
0.0
 10
446.338568
 20
178.899684
 30
0.0
 10
443.549120
 20
178.899684
 30
0.0
  0
LWPOLYLINE
  5
1dc
100
AcDbEntity
  8
Layer_1
 62
4
100
AcDbPolyline
 90
2
 70
1
 10
448.584216
 20
201.123284
 30
0.0
 10
448.584216
 20
184.455604
 30
0.0
  0
SPLINE
  5
1dd
100
AcDbEntity
  8
Layer_1
 62
4
100
AcDbSpline
 70
8
 71
3
 72
8
 73
4
 74
0
 40
0
 40
0
 40
0
 40
0
 40
1
 40
1
 40
1
 40
1
 10
192.131600
 20
359.817364
 30
0.0
 10
194.987360
 20
346.281284
 30
0.0
 10
211.413920
 20
335.964244
 30
0.0
 10
231.375352
 20
335.964244
 30
0.0
  0
LWPOLYLINE
  5
1de
100
AcDbEntity
  8
Layer_1
 62
4
100
AcDbPolyline
 90
2
 70
1
 10
443.549120
 20
178.899684
 30
0.0
 10
443.549120
 20
178.899684
 30
0.0
  0
SPLINE
  5
1df
100
AcDbEntity
  8
Layer_1
 62
4
100
AcDbSpline
 70
8
 71
3
 72
8
 73
4
 74
0
 40
0
 40
0
 40
0
 40
0
 40
1
 40
1
 40
1
 40
1
 10
407.122224
 20
335.964244
 30
0.0
 10
427.083584
 20
335.964244
 30
0.0
 10
443.509984
 20
346.281444
 30
0.0
 10
446.365912
 20
359.817364
 30
0.0
  0
LWPOLYLINE
  5
1e0
100
AcDbEntity
  8
Layer_1
 62
4
100
AcDbPolyline
 90
2
 70
1
 10
231.375352
 20
335.964244
 30
0.0
 10
407.122224
 20
335.964244
 30
0.0
  0
SPLINE
  5
1e1
100
AcDbEntity
  8
Layer_1
 62
4
100
AcDbSpline
 70
8
 71
3
 72
8
 73
4
 74
0
 40
0
 40
0
 40
0
 40
0
 40
1
 40
1
 40
1
 40
1
 10
417.106552
 20
359.817364
 30
0.0
 10
414.950223
 20
355.739571
 30
0.0
 10
409.894163
 20
353.083054
 30
0.0
 10
404.287824
 20
353.082244
 30
0.0
  0
SPLINE
  5
1e2
100
AcDbEntity
  8
Layer_1
 62
4
100
AcDbSpline
 70
8
 71
3
 72
8
 73
4
 74
0
 40
0
 40
0
 40
0
 40
0
 40
1
 40
1
 40
1
 40
1
 10
404.287824
 20
353.082244
 30
0.0
 10
400.603924
 20
353.082395
 30
0.0
 10
397.070993
 20
354.235706
 30
0.0
 10
394.466275
 20
356.288448
 30
0.0
  0
SPLINE
  5
1e3
100
AcDbEntity
  8
Layer_1
 62
4
100
AcDbSpline
 70
8
 71
3
 72
8
 73
4
 74
0
 40
0
 40
0
 40
0
 40
0
 40
1
 40
1
 40
1
 40
1
 10
394.466275
 20
356.288448
 30
0.0
 10
391.861558
 20
358.341190
 30
0.0
 10
390.398431
 20
361.125203
 30
0.0
 10
390.398784
 20
364.028004
 30
0.0
  0
SPLINE
  5
1e4
100
AcDbEntity
  8
Layer_1
 62
4
100
AcDbSpline
 70
8
 71
3
 72
8
 73
4
 74
0
 40
0
 40
0
 40
0
 40
0
 40
1
 40
1
 40
1
 40
1
 10
390.398784
 20
364.028004
 30
0.0
 10
390.399115
 20
370.072194
 30
0.0
 10
396.617236
 20
374.971928
 30
0.0
 10
404.287824
 20
374.972244
 30
0.0
  0
SPLINE
  5
1e5
100
AcDbEntity
  8
Layer_1
 62
4
100
AcDbSpline
 70
8
 71
3
 72
8
 73
4
 74
0
 40
0
 40
0
 40
0
 40
0
 40
1
 40
1
 40
1
 40
1
 10
404.287824
 20
374.972244
 30
0.0
 10
409.890203
 20
374.967975
 30
0.0
 10
414.940868
 20
372.312039
 30
0.0
 10
417.095672
 20
368.237124
 30
0.0
  0
LWPOLYLINE
  5
1e6
100
AcDbEntity
  8
Layer_1
 62
4
100
AcDbPolyline
 90
2
 70
1
 10
446.365912
 20
359.817364
 30
0.0
 10
417.106552
 20
359.817364
 30
0.0
  0
SPLINE
  5
1e7
100
AcDbEntity
  8
Layer_1
 62
4
100
AcDbSpline
 70
8
 71
3
 72
8
 73
4
 74
0
 40
0
 40
0
 40
0
 40
0
 40
1
 40
1
 40
1
 40
1
 10
446.364392
 20
368.237124
 30
0.0
 10
443.507432
 20
381.772404
 30
0.0
 10
427.082712
 20
392.090244
 30
0.0
 10
407.122232
 20
392.090244
 30
0.0
  0
LWPOLYLINE
  5
1e8
100
AcDbEntity
  8
Layer_1
 62
4
100
AcDbPolyline
 90
2
 70
1
 10
417.095672
 20
368.237124
 30
0.0
 10
446.364392
 20
368.237124
 30
0.0
  0
SPLINE
  5
1e9
100
AcDbEntity
  8
Layer_1
 62
4
100
AcDbSpline
 70
8
 71
3
 72
8
 73
4
 74
0
 40
0
 40
0
 40
0
 40
0
 40
1
 40
1
 40
1
 40
1
 10
231.375352
 20
392.090244
 30
0.0
 10
211.414792
 20
392.090244
 30
0.0
 10
194.989912
 20
381.772324
 30
0.0
 10
192.133120
 20
368.237124
 30
0.0
  0
LWPOLYLINE
  5
1ea
100
AcDbEntity
  8
Layer_1
 62
4
100
AcDbPolyline
 90
2
 70
1
 10
407.122232
 20
392.090244
 30
0.0
 10
231.375352
 20
392.090244
 30
0.0
  0
SPLINE
  5
1eb
100
AcDbEntity
  8
Layer_1
 62
4
100
AcDbSpline
 70
8
 71
3
 72
8
 73
4
 74
0
 40
0
 40
0
 40
0
 40
0
 40
1
 40
1
 40
1
 40
1
 10
221.390960
 20
368.237124
 30
0.0
 10
223.547288
 20
372.314914
 30
0.0
 10
228.603344
 20
374.971431
 30
0.0
 10
234.209680
 20
374.972244
 30
0.0
  0
SPLINE
  5
1ec
100
AcDbEntity
  8
Layer_1
 62
4
100
AcDbSpline
 70
8
 71
3
 72
8
 73
4
 74
0
 40
0
 40
0
 40
0
 40
0
 40
1
 40
1
 40
1
 40
1
 10
234.209680
 20
374.972244
 30
0.0
 10
241.880300
 20
374.971963
 30
0.0
 10
248.098469
 20
370.072219
 30
0.0
 10
248.098800
 20
364.028004
 30
0.0
  0
SPLINE
  5
1ed
100
AcDbEntity
  8
Layer_1
 62
4
100
AcDbSpline
 70
8
 71
3
 72
8
 73
4
 74
0
 40
0
 40
0
 40
0
 40
0
 40
1
 40
1
 40
1
 40
1
 10
248.098800
 20
364.028004
 30
0.0
 10
248.099153
 20
361.125192
 30
0.0
 10
246.636015
 20
358.341170
 30
0.0
 10
244.031280
 20
356.288426
 30
0.0
  0
SPLINE
  5
1ee
100
AcDbEntity
  8
Layer_1
 62
4
100
AcDbSpline
 70
8
 71
3
 72
8
 73
4
 74
0
 40
0
 40
0
 40
0
 40
0
 40
1
 40
1
 40
1
 40
1
 10
244.031280
 20
356.288426
 30
0.0
 10
241.426545
 20
354.235682
 30
0.0
 10
237.893593
 20
353.082379
 30
0.0
 10
234.209680
 20
353.082244
 30
0.0
  0
SPLINE
  5
1ef
100
AcDbEntity
  8
Layer_1
 62
4
100
AcDbSpline
 70
8
 71
3
 72
8
 73
4
 74
0
 40
0
 40
0
 40
0
 40
0
 40
1
 40
1
 40
1
 40
1
 10
234.209680
 20
353.082244
 30
0.0
 10
228.607886
 20
353.087023
 30
0.0
 10
223.558019
 20
355.742873
 30
0.0
 10
221.403440
 20
359.817364
 30
0.0
  0
LWPOLYLINE
  5
1f0
100
AcDbEntity
  8
Layer_1
 62
4
100
AcDbPolyline
 90
2
 70
1
 10
192.133120
 20
368.237124
 30
0.0
 10
221.390960
 20
368.237124
 30
0.0
  0
SPLINE
  5
1f1
100
AcDbEntity
  8
Layer_1
 62
4
100
AcDbSpline
 70
8
 71
3
 72
8
 73
4
 74
0
 40
0
 40
0
 40
0
 40
0
 40
1
 40
1
 40
1
 40
1
 10
446.365976
 20
307.311124
 30
0.0
 10
443.510216
 20
320.847204
 30
0.0
 10
427.083632
 20
331.164244
 30
0.0
 10
407.122224
 20
331.164244
 30
0.0
  0
LWPOLYLINE
  5
1f2
100
AcDbEntity
  8
Layer_1
 62
4
100
AcDbPolyline
 90
3
 70
1
 10
221.403440
 20
359.817364
 30
0.0
 10
192.131600
 20
359.817364
 30
0.0
 10
192.131600
 20
359.817364
 30
0.0
  0
SPLINE
  5
1f3
100
AcDbEntity
  8
Layer_1
 62
4
100
AcDbSpline
 70
8
 71
3
 72
8
 73
4
 74
0
 40
0
 40
0
 40
0
 40
0
 40
1
 40
1
 40
1
 40
1
 10
231.375352
 20
331.164244
 30
0.0
 10
211.413944
 20
331.164244
 30
0.0
 10
194.987536
 20
320.847044
 30
0.0
 10
192.131616
 20
307.311124
 30
0.0
  0
LWPOLYLINE
  5
1f4
100
AcDbEntity
  8
Layer_1
 62
4
100
AcDbPolyline
 90
2
 70
1
 10
407.122224
 20
331.164244
 30
0.0
 10
231.375352
 20
331.164244
 30
0.0
  0
SPLINE
  5
1f5
100
AcDbEntity
  8
Layer_1
 62
4
100
AcDbSpline
 70
8
 71
3
 72
8
 73
4
 74
0
 40
0
 40
0
 40
0
 40
0
 40
1
 40
1
 40
1
 40
1
 10
221.390976
 20
307.311124
 30
0.0
 10
223.547308
 20
311.388923
 30
0.0
 10
228.603380
 20
314.045441
 30
0.0
 10
234.209728
 20
314.046244
 30
0.0
  0
SPLINE
  5
1f6
100
AcDbEntity
  8
Layer_1
 62
4
100
AcDbSpline
 70
8
 71
3
 72
8
 73
4
 74
0
 40
0
 40
0
 40
0
 40
0
 40
1
 40
1
 40
1
 40
1
 10
234.209728
 20
314.046244
 30
0.0
 10
237.893632
 20
314.046097
 30
0.0
 10
241.426569
 20
312.892789
 30
0.0
 10
244.031292
 20
310.840046
 30
0.0
  0
SPLINE
  5
1f7
100
AcDbEntity
  8
Layer_1
 62
4
100
AcDbSpline
 70
8
 71
3
 72
8
 73
4
 74
0
 40
0
 40
0
 40
0
 40
0
 40
1
 40
1
 40
1
 40
1
 10
244.031292
 20
310.840046
 30
0.0
 10
246.636015
 20
308.787304
 30
0.0
 10
248.099145
 20
306.003288
 30
0.0
 10
248.098792
 20
303.100484
 30
0.0
  0
SPLINE
  5
1f8
100
AcDbEntity
  8
Layer_1
 62
4
100
AcDbSpline
 70
8
 71
3
 72
8
 73
4
 74
0
 40
0
 40
0
 40
0
 40
0
 40
1
 40
1
 40
1
 40
1
 10
248.098792
 20
303.100484
 30
0.0
 10
248.098461
 20
297.056286
 30
0.0
 10
241.880326
 20
292.156549
 30
0.0
 10
234.209728
 20
292.156244
 30
0.0
  0
SPLINE
  5
1f9
100
AcDbEntity
  8
Layer_1
 62
4
100
AcDbSpline
 70
8
 71
3
 72
8
 73
4
 74
0
 40
0
 40
0
 40
0
 40
0
 40
1
 40
1
 40
1
 40
1
 10
234.209728
 20
292.156244
 30
0.0
 10
228.607360
 20
292.160522
 30
0.0
 10
223.556712
 20
294.816457
 30
0.0
 10
221.401912
 20
298.891364
 30
0.0
  0
LWPOLYLINE
  5
1fa
100
AcDbEntity
  8
Layer_1
 62
4
100
AcDbPolyline
 90
2
 70
1
 10
192.131616
 20
307.311124
 30
0.0
 10
221.390976
 20
307.311124
 30
0.0
  0
SPLINE
  5
1fb
100
AcDbEntity
  8
Layer_1
 62
4
100
AcDbSpline
 70
8
 71
3
 72
8
 73
4
 74
0
 40
0
 40
0
 40
0
 40
0
 40
1
 40
1
 40
1
 40
1
 10
192.133136
 20
298.891364
 30
0.0
 10
194.990096
 20
285.356084
 30
0.0
 10
211.414808
 20
275.038244
 30
0.0
 10
231.375352
 20
275.038244
 30
0.0
  0
LWPOLYLINE
  5
1fc
100
AcDbEntity
  8
Layer_1
 62
4
100
AcDbPolyline
 90
2
 70
1
 10
221.401912
 20
298.891364
 30
0.0
 10
192.133136
 20
298.891364
 30
0.0
  0
SPLINE
  5
1fd
100
AcDbEntity
  8
Layer_1
 62
4
100
AcDbSpline
 70
8
 71
3
 72
8
 73
4
 74
0
 40
0
 40
0
 40
0
 40
0
 40
1
 40
1
 40
1
 40
1
 10
407.122224
 20
275.038244
 30
0.0
 10
427.082776
 20
275.038244
 30
0.0
 10
443.507608
 20
285.356164
 30
0.0
 10
446.364416
 20
298.891364
 30
0.0
  0
LWPOLYLINE
  5
1fe
100
AcDbEntity
  8
Layer_1
 62
4
100
AcDbPolyline
 90
2
 70
1
 10
231.375352
 20
275.038244
 30
0.0
 10
407.122224
 20
275.038244
 30
0.0
  0
SPLINE
  5
1ff
100
AcDbEntity
  8
Layer_1
 62
4
100
AcDbSpline
 70
8
 71
3
 72
8
 73
4
 74
0
 40
0
 40
0
 40
0
 40
0
 40
1
 40
1
 40
1
 40
1
 10
417.106600
 20
298.891364
 30
0.0
 10
414.950268
 20
294.813565
 30
0.0
 10
409.894196
 20
292.157046
 30
0.0
 10
404.287848
 20
292.156244
 30
0.0
  0
SPLINE
  5
200
100
AcDbEntity
  8
Layer_1
 62
4
100
AcDbSpline
 70
8
 71
3
 72
8
 73
4
 74
0
 40
0
 40
0
 40
0
 40
0
 40
1
 40
1
 40
1
 40
1
 10
404.287848
 20
292.156244
 30
0.0
 10
396.617253
 20
292.156552
 30
0.0
 10
390.399123
 20
297.056289
 30
0.0
 10
390.398792
 20
303.100484
 30
0.0
  0
SPLINE
  5
201
100
AcDbEntity
  8
Layer_1
 62
4
100
AcDbSpline
 70
8
 71
3
 72
8
 73
4
 74
0
 40
0
 40
0
 40
0
 40
0
 40
1
 40
1
 40
1
 40
1
 10
390.398792
 20
303.100484
 30
0.0
 10
390.398439
 20
306.003287
 30
0.0
 10
391.861568
 20
308.787302
 30
0.0
 10
394.466289
 20
310.840044
 30
0.0
  0
SPLINE
  5
202
100
AcDbEntity
  8
Layer_1
 62
4
100
AcDbSpline
 70
8
 71
3
 72
8
 73
4
 74
0
 40
0
 40
0
 40
0
 40
0
 40
1
 40
1
 40
1
 40
1
 10
394.466289
 20
310.840044
 30
0.0
 10
397.071010
 20
312.892786
 30
0.0
 10
400.603946
 20
314.046096
 30
0.0
 10
404.287848
 20
314.046244
 30
0.0
  0
SPLINE
  5
203
100
AcDbEntity
  8
Layer_1
 62
4
100
AcDbSpline
 70
8
 71
3
 72
8
 73
4
 74
0
 40
0
 40
0
 40
0
 40
0
 40
1
 40
1
 40
1
 40
1
 10
404.287848
 20
314.046244
 30
0.0
 10
409.889648
 20
314.041470
 30
0.0
 10
414.939523
 20
311.385618
 30
0.0
 10
417.094104
 20
307.311124
 30
0.0
  0
LWPOLYLINE
  5
204
100
AcDbEntity
  8
Layer_1
 62
4
100
AcDbPolyline
 90
2
 70
1
 10
446.364416
 20
298.891364
 30
0.0
 10
417.106600
 20
298.891364
 30
0.0
  0
SPLINE
  5
205
100
AcDbEntity
  8
Layer_1
 62
4
100
AcDbSpline
 70
8
 71
3
 72
8
 73
4
 74
0
 40
0
 40
0
 40
0
 40
0
 40
1
 40
1
 40
1
 40
1
 10
346.871568
 20
450.232484
 30
0.0
 10
346.871568
 20
449.669284
 30
0.0
 10
346.681808
 20
449.104724
 30
0.0
 10
344.880384
 20
448.673044
 30
0.0
  0
LWPOLYLINE
  5
206
100
AcDbEntity
  8
Layer_1
 62
4
100
AcDbPolyline
 90
3
 70
1
 10
417.094104
 20
307.311124
 30
0.0
 10
446.365976
 20
307.311124
 30
0.0
 10
446.365976
 20
307.311124
 30
0.0
  0
SPLINE
  5
207
100
AcDbEntity
  8
Layer_1
 62
4
100
AcDbSpline
 70
8
 71
3
 72
8
 73
4
 74
0
 40
0
 40
0
 40
0
 40
0
 40
1
 40
1
 40
1
 40
1
 10
203.513496
 20
422.166804
 30
0.0
 10
201.387224
 20
422.166804
 30
0.0
 10
199.676656
 20
424.044084
 30
0.0
 10
199.676656
 20
426.376244
 30
0.0
  0
LWPOLYLINE
  5
208
100
AcDbEntity
  8
Layer_1
 62
4
100
AcDbPolyline
 90
2
 70
1
 10
344.880384
 20
448.673044
 30
0.0
 10
203.513496
 20
422.166804
 30
0.0
  0
SPLINE
  5
209
100
AcDbEntity
  8
Layer_1
 62
4
100
AcDbSpline
 70
8
 71
3
 72
8
 73
4
 74
0
 40
0
 40
0
 40
0
 40
0
 40
1
 40
1
 40
1
 40
1
 10
174.089328
 20
425.534004
 30
0.0
 10
174.089328
 20
423.668324
 30
0.0
 10
172.719176
 20
422.166804
 30
0.0
 10
171.018104
 20
422.166804
 30
0.0
  0
LWPOLYLINE
  5
20a
100
AcDbEntity
  8
Layer_1
 62
4
100
AcDbPolyline
 90
4
 70
1
 10
199.676656
 20
426.376244
 30
0.0
 10
199.676656
 20
436.199604
 30
0.0
 10
174.089328
 20
436.199604
 30
0.0
 10
174.089328
 20
425.534004
 30
0.0
  0
SPLINE
  5
20b
100
AcDbEntity
  8
Layer_1
 62
4
100
AcDbSpline
 70
8
 71
3
 72
8
 73
4
 74
0
 40
0
 40
0
 40
0
 40
0
 40
1
 40
1
 40
1
 40
1
 10
152.084520
 20
422.166804
 30
0.0
 10
150.383456
 20
422.166804
 30
0.0
 10
149.013304
 20
423.668324
 30
0.0
 10
149.013304
 20
425.534004
 30
0.0
  0
LWPOLYLINE
  5
20c
100
AcDbEntity
  8
Layer_1
 62
4
100
AcDbPolyline
 90
2
 70
1
 10
171.018104
 20
422.166804
 30
0.0
 10
152.084520
 20
422.166804
 30
0.0
  0
SPLINE
  5
20d
100
AcDbEntity
  8
Layer_1
 62
4
100
AcDbSpline
 70
8
 71
3
 72
8
 73
4
 74
0
 40
0
 40
0
 40
0
 40
0
 40
1
 40
1
 40
1
 40
1
 10
149.013304
 20
474.926164
 30
0.0
 10
149.013304
 20
476.791844
 30
0.0
 10
150.383456
 20
478.293364
 30
0.0
 10
152.084520
 20
478.293364
 30
0.0
  0
LWPOLYLINE
  5
20e
100
AcDbEntity
  8
Layer_1
 62
4
100
AcDbPolyline
 90
2
 70
1
 10
149.013304
 20
425.534004
 30
0.0
 10
149.013304
 20
474.926164
 30
0.0
  0
SPLINE
  5
20f
100
AcDbEntity
  8
Layer_1
 62
4
100
AcDbSpline
 70
8
 71
3
 72
8
 73
4
 74
0
 40
0
 40
0
 40
0
 40
0
 40
1
 40
1
 40
1
 40
1
 10
171.018104
 20
478.293364
 30
0.0
 10
172.719176
 20
478.293364
 30
0.0
 10
174.089328
 20
476.791764
 30
0.0
 10
174.089328
 20
474.926164
 30
0.0
  0
LWPOLYLINE
  5
210
100
AcDbEntity
  8
Layer_1
 62
4
100
AcDbPolyline
 90
2
 70
1
 10
152.084520
 20
478.293364
 30
0.0
 10
171.018104
 20
478.293364
 30
0.0
  0
SPLINE
  5
211
100
AcDbEntity
  8
Layer_1
 62
4
100
AcDbSpline
 70
8
 71
3
 72
8
 73
4
 74
0
 40
0
 40
0
 40
0
 40
0
 40
1
 40
1
 40
1
 40
1
 10
199.676656
 20
474.085604
 30
0.0
 10
199.676656
 20
476.417684
 30
0.0
 10
201.387224
 20
478.293364
 30
0.0
 10
203.513496
 20
478.293364
 30
0.0
  0
LWPOLYLINE
  5
212
100
AcDbEntity
  8
Layer_1
 62
4
100
AcDbPolyline
 90
4
 70
1
 10
174.089328
 20
474.926164
 30
0.0
 10
174.089328
 20
464.262164
 30
0.0
 10
199.676656
 20
464.262164
 30
0.0
 10
199.676656
 20
474.085604
 30
0.0
  0
SPLINE
  5
213
100
AcDbEntity
  8
Layer_1
 62
4
100
AcDbSpline
 70
8
 71
3
 72
8
 73
4
 74
0
 40
0
 40
0
 40
0
 40
0
 40
1
 40
1
 40
1
 40
1
 10
344.880384
 20
451.790244
 30
0.0
 10
346.681808
 20
451.358724
 30
0.0
 10
346.871568
 20
450.795684
 30
0.0
 10
346.871568
 20
450.232484
 30
0.0
  0
LWPOLYLINE
  5
214
100
AcDbEntity
  8
Layer_1
 62
4
100
AcDbPolyline
 90
2
 70
1
 10
203.513496
 20
478.293364
 30
0.0
 10
344.880384
 20
451.790244
 30
0.0
  0
SPLINE
  5
215
100
AcDbEntity
  8
Layer_1
 62
4
100
AcDbSpline
 70
8
 71
3
 72
8
 73
4
 74
0
 40
0
 40
0
 40
0
 40
0
 40
1
 40
1
 40
1
 40
1
 10
251.413240
 20
424.632484
 30
0.0
 10
251.413240
 20
424.069284
 30
0.0
 10
251.603000
 20
423.504724
 30
0.0
 10
253.404424
 20
423.073044
 30
0.0
  0
LWPOLYLINE
  5
216
100
AcDbEntity
  8
Layer_1
 62
4
100
AcDbPolyline
 90
2
 70
1
 10
346.871568
 20
450.232484
 30
0.0
 10
346.871568
 20
450.232484
 30
0.0
  0
SPLINE
  5
217
100
AcDbEntity
  8
Layer_1
 62
4
100
AcDbSpline
 70
8
 71
3
 72
8
 73
4
 74
0
 40
0
 40
0
 40
0
 40
0
 40
1
 40
1
 40
1
 40
1
 10
394.771312
 20
396.566804
 30
0.0
 10
396.897584
 20
396.566804
 30
0.0
 10
398.608152
 20
398.444084
 30
0.0
 10
398.608152
 20
400.776244
 30
0.0
  0
LWPOLYLINE
  5
218
100
AcDbEntity
  8
Layer_1
 62
4
100
AcDbPolyline
 90
2
 70
1
 10
253.404424
 20
423.073044
 30
0.0
 10
394.771312
 20
396.566804
 30
0.0
  0
SPLINE
  5
219
100
AcDbEntity
  8
Layer_1
 62
4
100
AcDbSpline
 70
8
 71
3
 72
8
 73
4
 74
0
 40
0
 40
0
 40
0
 40
0
 40
1
 40
1
 40
1
 40
1
 10
424.195480
 20
399.934004
 30
0.0
 10
424.195480
 20
398.068324
 30
0.0
 10
425.565632
 20
396.566804
 30
0.0
 10
427.266704
 20
396.566804
 30
0.0
  0
LWPOLYLINE
  5
21a
100
AcDbEntity
  8
Layer_1
 62
4
100
AcDbPolyline
 90
4
 70
1
 10
398.608152
 20
400.776244
 30
0.0
 10
398.608152
 20
410.599604
 30
0.0
 10
424.195480
 20
410.599604
 30
0.0
 10
424.195480
 20
399.934004
 30
0.0
  0
SPLINE
  5
21b
100
AcDbEntity
  8
Layer_1
 62
4
100
AcDbSpline
 70
8
 71
3
 72
8
 73
4
 74
0
 40
0
 40
0
 40
0
 40
0
 40
1
 40
1
 40
1
 40
1
 10
446.200288
 20
396.566804
 30
0.0
 10
447.901352
 20
396.566804
 30
0.0
 10
449.271504
 20
398.068324
 30
0.0
 10
449.271504
 20
399.934004
 30
0.0
  0
LWPOLYLINE
  5
21c
100
AcDbEntity
  8
Layer_1
 62
4
100
AcDbPolyline
 90
2
 70
1
 10
427.266704
 20
396.566804
 30
0.0
 10
446.200288
 20
396.566804
 30
0.0
  0
SPLINE
  5
21d
100
AcDbEntity
  8
Layer_1
 62
4
100
AcDbSpline
 70
8
 71
3
 72
8
 73
4
 74
0
 40
0
 40
0
 40
0
 40
0
 40
1
 40
1
 40
1
 40
1
 10
449.271504
 20
449.326164
 30
0.0
 10
449.271504
 20
451.191844
 30
0.0
 10
447.901352
 20
452.693364
 30
0.0
 10
446.200288
 20
452.693364
 30
0.0
  0
LWPOLYLINE
  5
21e
100
AcDbEntity
  8
Layer_1
 62
4
100
AcDbPolyline
 90
2
 70
1
 10
449.271504
 20
399.934004
 30
0.0
 10
449.271504
 20
449.326164
 30
0.0
  0
SPLINE
  5
21f
100
AcDbEntity
  8
Layer_1
 62
4
100
AcDbSpline
 70
8
 71
3
 72
8
 73
4
 74
0
 40
0
 40
0
 40
0
 40
0
 40
1
 40
1
 40
1
 40
1
 10
427.266704
 20
452.693364
 30
0.0
 10
425.565632
 20
452.693364
 30
0.0
 10
424.195480
 20
451.191764
 30
0.0
 10
424.195480
 20
449.326164
 30
0.0
  0
LWPOLYLINE
  5
220
100
AcDbEntity
  8
Layer_1
 62
4
100
AcDbPolyline
 90
2
 70
1
 10
446.200288
 20
452.693364
 30
0.0
 10
427.266704
 20
452.693364
 30
0.0
  0
SPLINE
  5
221
100
AcDbEntity
  8
Layer_1
 62
4
100
AcDbSpline
 70
8
 71
3
 72
8
 73
4
 74
0
 40
0
 40
0
 40
0
 40
0
 40
1
 40
1
 40
1
 40
1
 10
398.608152
 20
448.485604
 30
0.0
 10
398.608152
 20
450.817684
 30
0.0
 10
396.897584
 20
452.693364
 30
0.0
 10
394.771312
 20
452.693364
 30
0.0
  0
LWPOLYLINE
  5
222
100
AcDbEntity
  8
Layer_1
 62
4
100
AcDbPolyline
 90
4
 70
1
 10
424.195480
 20
449.326164
 30
0.0
 10
424.195480
 20
438.662164
 30
0.0
 10
398.608152
 20
438.662164
 30
0.0
 10
398.608152
 20
448.485604
 30
0.0
  0
SPLINE
  5
223
100
AcDbEntity
  8
Layer_1
 62
4
100
AcDbSpline
 70
8
 71
3
 72
8
 73
4
 74
0
 40
0
 40
0
 40
0
 40
0
 40
1
 40
1
 40
1
 40
1
 10
253.404424
 20
426.190244
 30
0.0
 10
251.603000
 20
425.758724
 30
0.0
 10
251.413240
 20
425.195684
 30
0.0
 10
251.413240
 20
424.632484
 30
0.0
  0
LWPOLYLINE
  5
224
100
AcDbEntity
  8
Layer_1
 62
4
100
AcDbPolyline
 90
2
 70
1
 10
394.771312
 20
452.693364
 30
0.0
 10
253.404424
 20
426.190244
 30
0.0
  0
LWPOLYLINE
  5
225
100
AcDbEntity
  8
Layer_1
 62
4
100
AcDbPolyline
 90
2
 70
1
 10
251.413240
 20
424.632484
 30
0.0
 10
251.413240
 20
424.632484
 30
0.0
  0
LWPOLYLINE
  5
226
100
AcDbEntity
  8
Layer_1
 62
6
100
AcDbPolyline
 90
10
 70
1
 10
485.902472
 20
172.191204
 30
0.0
 10
485.902472
 20
170.750772
 30
0.0
 10
479.872200
 20
170.750772
 30
0.0
 10
479.872200
 20
168.900188
 30
0.0
 10
478.612432
 20
168.900188
 30
0.0
 10
478.612432
 20
174.041788
 30
0.0
 10
479.872200
 20
174.041788
 30
0.0
 10
479.872200
 20
172.191204
 30
0.0
 10
485.902472
 20
172.191204
 30
0.0
 10
485.902472
 20
172.191204
 30
0.0
  0
SPLINE
  5
227
100
AcDbEntity
  8
Layer_1
 62
6
100
AcDbSpline
 70
8
 71
3
 72
8
 73
4
 74
0
 40
0
 40
0
 40
0
 40
0
 40
1
 40
1
 40
1
 40
1
 10
482.572392
 20
178.284956
 30
0.0
 10
482.178515
 20
178.284956
 30
0.0
 10
481.896939
 20
178.227988
 30
0.0
 10
481.727664
 20
178.114052
 30
0.0
  0
SPLINE
  5
228
100
AcDbEntity
  8
Layer_1
 62
6
100
AcDbSpline
 70
8
 71
3
 72
8
 73
4
 74
0
 40
0
 40
0
 40
0
 40
0
 40
1
 40
1
 40
1
 40
1
 10
481.727664
 20
178.114052
 30
0.0
 10
481.558395
 20
178.003374
 30
0.0
 10
481.473760
 20
177.821084
 30
0.0
 10
481.473760
 20
177.567180
 30
0.0
  0
SPLINE
  5
229
100
AcDbEntity
  8
Layer_1
 62
6
100
AcDbSpline
 70
8
 71
3
 72
8
 73
4
 74
0
 40
0
 40
0
 40
0
 40
0
 40
1
 40
1
 40
1
 40
1
 10
481.473760
 20
177.567180
 30
0.0
 10
481.473760
 20
177.306764
 30
0.0
 10
481.589320
 20
177.103313
 30
0.0
 10
481.820440
 20
176.956828
 30
0.0
  0
SPLINE
  5
22a
100
AcDbEntity
  8
Layer_1
 62
6
100
AcDbSpline
 70
8
 71
3
 72
8
 73
4
 74
0
 40
0
 40
0
 40
0
 40
0
 40
1
 40
1
 40
1
 40
1
 10
481.820440
 20
176.956828
 30
0.0
 10
482.048307
 20
176.810342
 30
0.0
 10
482.365691
 20
176.737100
 30
0.0
 10
482.772592
 20
176.737100
 30
0.0
  0
LWPOLYLINE
  5
22b
100
AcDbEntity
  8
Layer_1
 62
6
100
AcDbPolyline
 90
4
 70
1
 10
482.352664
 20
179.705852
 30
0.0
 10
485.902472
 20
179.705852
 30
0.0
 10
485.902472
 20
178.284956
 30
0.0
 10
482.572392
 20
178.284956
 30
0.0
  0
SPLINE
  5
22c
100
AcDbEntity
  8
Layer_1
 62
6
100
AcDbSpline
 70
8
 71
3
 72
8
 73
4
 74
0
 40
0
 40
0
 40
0
 40
0
 40
1
 40
1
 40
1
 40
1
 10
481.254032
 20
176.737100
 30
0.0
 10
480.951301
 20
176.838012
 30
0.0
 10
480.716928
 20
177.010537
 30
0.0
 10
480.550912
 20
177.254676
 30
0.0
  0
SPLINE
  5
22d
100
AcDbEntity
  8
Layer_1
 62
6
100
AcDbSpline
 70
8
 71
3
 72
8
 73
4
 74
0
 40
0
 40
0
 40
0
 40
0
 40
1
 40
1
 40
1
 40
1
 10
480.550912
 20
177.254676
 30
0.0
 10
480.384896
 20
177.498820
 30
0.0
 10
480.301888
 20
177.793417
 30
0.0
 10
480.301888
 20
178.138468
 30
0.0
  0
SPLINE
  5
22e
100
AcDbEntity
  8
Layer_1
 62
6
100
AcDbSpline
 70
8
 71
3
 72
8
 73
4
 74
0
 40
0
 40
0
 40
0
 40
0
 40
1
 40
1
 40
1
 40
1
 10
480.301888
 20
178.138468
 30
0.0
 10
480.301888
 20
178.656046
 30
0.0
 10
480.474413
 20
179.046670
 30
0.0
 10
480.819464
 20
179.310340
 30
0.0
  0
SPLINE
  5
22f
100
AcDbEntity
  8
Layer_1
 62
6
100
AcDbSpline
 70
8
 71
3
 72
8
 73
4
 74
0
 40
0
 40
0
 40
0
 40
0
 40
1
 40
1
 40
1
 40
1
 10
480.819464
 20
179.310340
 30
0.0
 10
481.161261
 20
179.574014
 30
0.0
 10
481.672328
 20
179.705852
 30
0.0
 10
482.352664
 20
179.705852
 30
0.0
  0
LWPOLYLINE
  5
230
100
AcDbEntity
  8
Layer_1
 62
6
100
AcDbPolyline
 90
6
 70
1
 10
482.772592
 20
176.737100
 30
0.0
 10
485.902472
 20
176.737100
 30
0.0
 10
485.902472
 20
175.316204
 30
0.0
 10
478.304816
 20
175.316204
 30
0.0
 10
478.304816
 20
176.737100
 30
0.0
 10
481.254032
 20
176.737100
 30
0.0
  0
SPLINE
  5
231
100
AcDbEntity
  8
Layer_1
 62
6
100
AcDbSpline
 70
8
 71
3
 72
8
 73
4
 74
0
 40
0
 40
0
 40
0
 40
0
 40
1
 40
1
 40
1
 40
1
 10
485.633920
 20
185.872844
 30
0.0
 10
485.770635
 20
185.540812
 30
0.0
 10
485.873173
 20
185.202270
 30
0.0
 10
485.941536
 20
184.857220
 30
0.0
  0
SPLINE
  5
232
100
AcDbEntity
  8
Layer_1
 62
6
100
AcDbSpline
 70
8
 71
3
 72
8
 73
4
 74
0
 40
0
 40
0
 40
0
 40
0
 40
1
 40
1
 40
1
 40
1
 10
485.941536
 20
184.857220
 30
0.0
 10
486.009893
 20
184.512169
 30
0.0
 10
486.044072
 20
184.147585
 30
0.0
 10
486.044072
 20
183.763468
 30
0.0
  0
SPLINE
  5
233
100
AcDbEntity
  8
Layer_1
 62
6
100
AcDbSpline
 70
8
 71
3
 72
8
 73
4
 74
0
 40
0
 40
0
 40
0
 40
0
 40
1
 40
1
 40
1
 40
1
 10
486.044072
 20
183.763468
 30
0.0
 10
486.044072
 20
182.848753
 30
0.0
 10
485.799931
 20
182.148884
 30
0.0
 10
485.311648
 20
181.663860
 30
0.0
  0
SPLINE
  5
234
100
AcDbEntity
  8
Layer_1
 62
6
100
AcDbSpline
 70
8
 71
3
 72
8
 73
4
 74
0
 40
0
 40
0
 40
0
 40
0
 40
1
 40
1
 40
1
 40
1
 10
485.311648
 20
181.663860
 30
0.0
 10
484.820112
 20
181.182089
 30
0.0
 10
484.113733
 20
180.941204
 30
0.0
 10
483.192512
 20
180.941204
 30
0.0
  0
SPLINE
  5
235
100
AcDbEntity
  8
Layer_1
 62
6
100
AcDbSpline
 70
8
 71
3
 72
8
 73
4
 74
0
 40
0
 40
0
 40
0
 40
0
 40
1
 40
1
 40
1
 40
1
 10
483.192512
 20
180.941204
 30
0.0
 10
482.300587
 20
180.941204
 30
0.0
 10
481.595835
 20
181.173950
 30
0.0
 10
481.078256
 20
181.639444
 30
0.0
  0
SPLINE
  5
236
100
AcDbEntity
  8
Layer_1
 62
6
100
AcDbSpline
 70
8
 71
3
 72
8
 73
4
 74
0
 40
0
 40
0
 40
0
 40
0
 40
1
 40
1
 40
1
 40
1
 10
481.078256
 20
181.639444
 30
0.0
 10
480.560677
 20
182.104937
 30
0.0
 10
480.301888
 20
182.739702
 30
0.0
 10
480.301888
 20
183.543740
 30
0.0
  0
SPLINE
  5
237
100
AcDbEntity
  8
Layer_1
 62
6
100
AcDbSpline
 70
8
 71
3
 72
8
 73
4
 74
0
 40
0
 40
0
 40
0
 40
0
 40
1
 40
1
 40
1
 40
1
 10
480.301888
 20
183.543740
 30
0.0
 10
480.301888
 20
184.354289
 30
0.0
 10
480.542773
 20
184.982545
 30
0.0
 10
481.024544
 20
185.428508
 30
0.0
  0
SPLINE
  5
238
100
AcDbEntity
  8
Layer_1
 62
6
100
AcDbSpline
 70
8
 71
3
 72
8
 73
4
 74
0
 40
0
 40
0
 40
0
 40
0
 40
1
 40
1
 40
1
 40
1
 10
481.024544
 20
185.428508
 30
0.0
 10
481.503056
 20
185.877724
 30
0.0
 10
482.178512
 20
186.102332
 30
0.0
 10
483.050912
 20
186.102332
 30
0.0
  0
LWPOLYLINE
  5
239
100
AcDbEntity
  8
Layer_1
 62
6
100
AcDbPolyline
 90
2
 70
1
 10
482.352664
 20
179.705852
 30
0.0
 10
482.352664
 20
179.705852
 30
0.0
  0
SPLINE
  5
23a
100
AcDbEntity
  8
Layer_1
 62
6
100
AcDbSpline
 70
8
 71
3
 72
8
 73
4
 74
0
 40
0
 40
0
 40
0
 40
0
 40
1
 40
1
 40
1
 40
1
 10
483.631968
 20
182.396284
 30
0.0
 10
484.061653
 20
182.399484
 30
0.0
 10
484.382291
 20
182.526436
 30
0.0
 10
484.593880
 20
182.777140
 30
0.0
  0
SPLINE
  5
23b
100
AcDbEntity
  8
Layer_1
 62
6
100
AcDbSpline
 70
8
 71
3
 72
8
 73
4
 74
0
 40
0
 40
0
 40
0
 40
0
 40
1
 40
1
 40
1
 40
1
 10
484.593880
 20
182.777140
 30
0.0
 10
484.805469
 20
183.027790
 30
0.0
 10
484.911264
 20
183.402140
 30
0.0
 10
484.911264
 20
183.900188
 30
0.0
  0
SPLINE
  5
23c
100
AcDbEntity
  8
Layer_1
 62
6
100
AcDbSpline
 70
8
 71
3
 72
8
 73
4
 74
0
 40
0
 40
0
 40
0
 40
0
 40
1
 40
1
 40
1
 40
1
 10
484.911264
 20
183.900188
 30
0.0
 10
484.911264
 20
184.228961
 30
0.0
 10
484.864061
 20
184.552854
 30
0.0
 10
484.769656
 20
184.871868
 30
0.0
  0
SPLINE
  5
23d
100
AcDbEntity
  8
Layer_1
 62
6
100
AcDbSpline
 70
8
 71
3
 72
8
 73
4
 74
0
 40
0
 40
0
 40
0
 40
0
 40
1
 40
1
 40
1
 40
1
 10
484.769656
 20
184.871868
 30
0.0
 10
484.675256
 20
185.190876
 30
0.0
 10
484.525517
 20
185.524534
 30
0.0
 10
484.320440
 20
185.872844
 30
0.0
  0
LWPOLYLINE
  5
23e
100
AcDbEntity
  8
Layer_1
 62
6
100
AcDbPolyline
 90
3
 70
1
 10
483.050912
 20
186.102332
 30
0.0
 10
483.631968
 20
186.102332
 30
0.0
 10
483.631968
 20
182.396284
 30
0.0
  0
SPLINE
  5
23f
100
AcDbEntity
  8
Layer_1
 62
6
100
AcDbSpline
 70
8
 71
3
 72
8
 73
4
 74
0
 40
0
 40
0
 40
0
 40
0
 40
1
 40
1
 40
1
 40
1
 10
482.557744
 20
184.661908
 30
0.0
 10
482.180139
 20
184.655401
 30
0.0
 10
481.895309
 20
184.557745
 30
0.0
 10
481.703256
 20
184.368940
 30
0.0
  0
SPLINE
  5
240
100
AcDbEntity
  8
Layer_1
 62
6
100
AcDbSpline
 70
8
 71
3
 72
8
 73
4
 74
0
 40
0
 40
0
 40
0
 40
0
 40
1
 40
1
 40
1
 40
1
 10
481.703256
 20
184.368940
 30
0.0
 10
481.507944
 20
184.183393
 30
0.0
 10
481.410288
 20
183.908326
 30
0.0
 10
481.410288
 20
183.543740
 30
0.0
  0
SPLINE
  5
241
100
AcDbEntity
  8
Layer_1
 62
6
100
AcDbSpline
 70
8
 71
3
 72
8
 73
4
 74
0
 40
0
 40
0
 40
0
 40
0
 40
1
 40
1
 40
1
 40
1
 10
481.410288
 20
183.543740
 30
0.0
 10
481.410288
 20
183.214966
 30
0.0
 10
481.511197
 20
182.952924
 30
0.0
 10
481.713016
 20
182.757612
 30
0.0
  0
SPLINE
  5
242
100
AcDbEntity
  8
Layer_1
 62
6
100
AcDbSpline
 70
8
 71
3
 72
8
 73
4
 74
0
 40
0
 40
0
 40
0
 40
0
 40
1
 40
1
 40
1
 40
1
 10
481.713016
 20
182.757612
 30
0.0
 10
481.911587
 20
182.562300
 30
0.0
 10
482.194792
 20
182.446740
 30
0.0
 10
482.562632
 20
182.410932
 30
0.0
  0
LWPOLYLINE
  5
243
100
AcDbEntity
  8
Layer_1
 62
6
100
AcDbPolyline
 90
3
 70
1
 10
484.320440
 20
185.872844
 30
0.0
 10
485.633920
 20
185.872844
 30
0.0
 10
485.633920
 20
185.872844
 30
0.0
  0
LWPOLYLINE
  5
244
100
AcDbEntity
  8
Layer_1
 62
6
100
AcDbPolyline
 90
3
 70
1
 10
482.562632
 20
182.410932
 30
0.0
 10
482.557832
 20
184.661908
 30
0.0
 10
482.557744
 20
184.661908
 30
0.0
  0
LWPOLYLINE
  5
245
100
AcDbEntity
  8
Layer_1
 62
6
100
AcDbPolyline
 90
14
 70
1
 10
479.881968
 20
193.363076
 30
0.0
 10
478.612432
 20
193.363076
 30
0.0
 10
478.612432
 20
197.703900
 30
0.0
 10
479.881968
 20
197.703900
 30
0.0
 10
479.881968
 20
196.253700
 30
0.0
 10
484.632944
 20
196.253700
 30
0.0
 10
484.632944
 20
197.703900
 30
0.0
 10
485.902472
 20
197.703900
 30
0.0
 10
485.902472
 20
193.363076
 30
0.0
 10
484.632944
 20
193.363076
 30
0.0
 10
484.632944
 20
194.813276
 30
0.0
 10
479.881968
 20
194.813276
 30
0.0
 10
479.881968
 20
193.363076
 30
0.0
 10
479.881968
 20
193.363076
 30
0.0
  0
LWPOLYLINE
  5
246
100
AcDbEntity
  8
Layer_1
 62
6
100
AcDbPolyline
 90
12
 70
1
 10
478.612432
 20
199.119916
 30
0.0
 10
478.612432
 20
200.667764
 30
0.0
 10
483.910288
 20
202.699012
 30
0.0
 10
478.612432
 20
202.699012
 30
0.0
 10
478.612432
 20
203.968548
 30
0.0
 10
485.902472
 20
203.968548
 30
0.0
 10
485.902472
 20
202.430460
 30
0.0
 10
480.604624
 20
200.389444
 30
0.0
 10
485.902472
 20
200.389444
 30
0.0
 10
485.902472
 20
199.119916
 30
0.0
 10
478.612432
 20
199.119916
 30
0.0
 10
478.612432
 20
199.119916
 30
0.0
  0
LWPOLYLINE
  5
247
100
AcDbEntity
  8
Layer_1
 62
6
100
AcDbPolyline
 90
10
 70
1
 10
485.902472
 20
208.284956
 30
0.0
 10
485.902472
 20
206.844524
 30
0.0
 10
479.872200
 20
206.844524
 30
0.0
 10
479.872200
 20
204.993940
 30
0.0
 10
478.612432
 20
204.993940
 30
0.0
 10
478.612432
 20
210.135540
 30
0.0
 10
479.872200
 20
210.135540
 30
0.0
 10
479.872200
 20
208.284956
 30
0.0
 10
485.902472
 20
208.284956
 30
0.0
 10
485.902472
 20
208.284956
 30
0.0
  0
SPLINE
  5
248
100
AcDbEntity
  8
Layer_1
 62
6
100
AcDbSpline
 70
8
 71
3
 72
8
 73
4
 74
0
 40
0
 40
0
 40
0
 40
0
 40
1
 40
1
 40
1
 40
1
 10
482.460088
 20
220.526164
 30
0.0
 10
482.489368
 20
220.669390
 30
0.0
 10
482.557728
 20
220.793089
 30
0.0
 10
482.665168
 20
220.897260
 30
0.0
  0
SPLINE
  5
249
100
AcDbEntity
  8
Layer_1
 62
6
100
AcDbSpline
 70
8
 71
3
 72
8
 73
4
 74
0
 40
0
 40
0
 40
0
 40
0
 40
1
 40
1
 40
1
 40
1
 10
482.665168
 20
220.897260
 30
0.0
 10
482.769333
 20
221.004678
 30
0.0
 10
482.974411
 20
221.134886
 30
0.0
 10
483.280400
 20
221.287884
 30
0.0
  0
LWPOLYLINE
  5
24a
100
AcDbEntity
  8
Layer_1
 62
6
100
AcDbPolyline
 90
14
 70
1
 10
485.902472
 20
215.931436
 30
0.0
 10
485.902472
 20
211.390420
 30
0.0
 10
478.612432
 20
211.390420
 30
0.0
 10
478.612432
 20
215.931436
 30
0.0
 10
479.881968
 20
215.931436
 30
0.0
 10
479.881968
 20
212.830852
 30
0.0
 10
481.454232
 20
212.830852
 30
0.0
 10
481.454232
 20
215.638468
 30
0.0
 10
482.723760
 20
215.638468
 30
0.0
 10
482.723760
 20
212.830852
 30
0.0
 10
484.632944
 20
212.830852
 30
0.0
 10
484.632944
 20
215.931436
 30
0.0
 10
485.902472
 20
215.931436
 30
0.0
 10
485.902472
 20
215.931436
 30
0.0
  0
SPLINE
  5
24b
100
AcDbEntity
  8
Layer_1
 62
6
100
AcDbSpline
 70
8
 71
3
 72
8
 73
4
 74
0
 40
0
 40
0
 40
0
 40
0
 40
1
 40
1
 40
1
 40
1
 10
484.061648
 20
220.145308
 30
0.0
 10
484.009541
 20
220.119281
 30
0.0
 10
483.937928
 20
220.085100
 30
0.0
 10
483.846808
 20
220.042764
 30
0.0
  0
SPLINE
  5
24c
100
AcDbEntity
  8
Layer_1
 62
6
100
AcDbSpline
 70
8
 71
3
 72
8
 73
4
 74
0
 40
0
 40
0
 40
0
 40
0
 40
1
 40
1
 40
1
 40
1
 10
483.846808
 20
220.042764
 30
0.0
 10
483.296680
 20
219.785601
 30
0.0
 10
483.021616
 20
219.482868
 30
0.0
 10
483.021616
 20
219.134564
 30
0.0
  0
LWPOLYLINE
  5
24d
100
AcDbEntity
  8
Layer_1
 62
6
100
AcDbPolyline
 90
4
 70
1
 10
483.280400
 20
221.287884
 30
0.0
 10
485.902472
 20
222.606244
 30
0.0
 10
485.902472
 20
221.024212
 30
0.0
 10
484.061648
 20
220.145308
 30
0.0
  0
SPLINE
  5
24e
100
AcDbEntity
  8
Layer_1
 62
6
100
AcDbSpline
 70
8
 71
3
 72
8
 73
4
 74
0
 40
0
 40
0
 40
0
 40
0
 40
1
 40
1
 40
1
 40
1
 10
478.612432
 20
219.315228
 30
0.0
 10
478.612432
 20
220.252726
 30
0.0
 10
478.778448
 20
220.924926
 30
0.0
 10
479.110480
 20
221.331828
 30
0.0
  0
SPLINE
  5
24f
100
AcDbEntity
  8
Layer_1
 62
6
100
AcDbSpline
 70
8
 71
3
 72
8
 73
4
 74
0
 40
0
 40
0
 40
0
 40
0
 40
1
 40
1
 40
1
 40
1
 10
479.110480
 20
221.331828
 30
0.0
 10
479.442512
 20
221.741982
 30
0.0
 10
479.982877
 20
221.947060
 30
0.0
 10
480.731576
 20
221.947060
 30
0.0
  0
SPLINE
  5
250
100
AcDbEntity
  8
Layer_1
 62
6
100
AcDbSpline
 70
8
 71
3
 72
8
 73
4
 74
0
 40
0
 40
0
 40
0
 40
0
 40
1
 40
1
 40
1
 40
1
 10
480.731576
 20
221.947060
 30
0.0
 10
481.232877
 20
221.947060
 30
0.0
 10
481.631640
 20
221.824990
 30
0.0
 10
481.927864
 20
221.580852
 30
0.0
  0
SPLINE
  5
251
100
AcDbEntity
  8
Layer_1
 62
6
100
AcDbSpline
 70
8
 71
3
 72
8
 73
4
 74
0
 40
0
 40
0
 40
0
 40
0
 40
1
 40
1
 40
1
 40
1
 10
481.927864
 20
221.580852
 30
0.0
 10
482.224088
 20
221.336713
 30
0.0
 10
482.401496
 20
220.985150
 30
0.0
 10
482.460088
 20
220.526164
 30
0.0
  0
LWPOLYLINE
  5
252
100
AcDbEntity
  8
Layer_1
 62
6
100
AcDbPolyline
 90
6
 70
1
 10
483.021616
 20
219.134564
 30
0.0
 10
483.021616
 20
218.675580
 30
0.0
 10
485.902472
 20
218.675580
 30
0.0
 10
485.902472
 20
217.235148
 30
0.0
 10
478.612432
 20
217.235148
 30
0.0
 10
478.612432
 20
219.315228
 30
0.0
  0
LWPOLYLINE
  5
253
100
AcDbEntity
  8
Layer_1
 62
6
100
AcDbPolyline
 90
2
 70
1
 10
482.460088
 20
220.526164
 30
0.0
 10
482.460088
 20
220.526164
 30
0.0
  0
SPLINE
  5
254
100
AcDbEntity
  8
Layer_1
 62
6
100
AcDbSpline
 70
8
 71
3
 72
8
 73
4
 74
0
 40
0
 40
0
 40
0
 40
0
 40
1
 40
1
 40
1
 40
1
 10
481.810672
 20
219.354292
 30
0.0
 10
481.810672
 20
219.748169
 30
0.0
 10
481.734176
 20
220.029742
 30
0.0
 10
481.581184
 20
220.199012
 30
0.0
  0
SPLINE
  5
255
100
AcDbEntity
  8
Layer_1
 62
6
100
AcDbSpline
 70
8
 71
3
 72
8
 73
4
 74
0
 40
0
 40
0
 40
0
 40
0
 40
1
 40
1
 40
1
 40
1
 10
481.581184
 20
220.199012
 30
0.0
 10
481.424933
 20
220.371540
 30
0.0
 10
481.169400
 20
220.457804
 30
0.0
 10
480.814584
 20
220.457804
 30
0.0
  0
SPLINE
  5
256
100
AcDbEntity
  8
Layer_1
 62
6
100
AcDbSpline
 70
8
 71
3
 72
8
 73
4
 74
0
 40
0
 40
0
 40
0
 40
0
 40
1
 40
1
 40
1
 40
1
 10
480.814584
 20
220.457804
 30
0.0
 10
480.459763
 20
220.457804
 30
0.0
 10
480.205856
 20
220.373169
 30
0.0
 10
480.052864
 20
220.203900
 30
0.0
  0
SPLINE
  5
257
100
AcDbEntity
  8
Layer_1
 62
6
100
AcDbSpline
 70
8
 71
3
 72
8
 73
4
 74
0
 40
0
 40
0
 40
0
 40
0
 40
1
 40
1
 40
1
 40
1
 10
480.052864
 20
220.203900
 30
0.0
 10
479.899867
 20
220.034625
 30
0.0
 10
479.823368
 20
219.751422
 30
0.0
 10
479.823368
 20
219.354292
 30
0.0
  0
LWPOLYLINE
  5
258
100
AcDbEntity
  8
Layer_1
 62
6
100
AcDbPolyline
 90
3
 70
1
 10
479.823368
 20
218.675580
 30
0.0
 10
481.810672
 20
218.675580
 30
0.0
 10
481.810672
 20
219.354292
 30
0.0
  0
LWPOLYLINE
  5
259
100
AcDbEntity
  8
Layer_1
 62
6
100
AcDbPolyline
 90
3
 70
1
 10
479.823368
 20
219.354292
 30
0.0
 10
479.823368
 20
218.675580
 30
0.0
 10
479.823368
 20
218.675580
 30
0.0
  0
LWPOLYLINE
  5
25a
100
AcDbEntity
  8
Layer_1
 62
6
100
AcDbPolyline
 90
8
 70
1
 10
485.902472
 20
223.699988
 30
0.0
 10
478.612432
 20
223.699988
 30
0.0
 10
478.612432
 20
225.140420
 30
0.0
 10
484.632944
 20
225.140420
 30
0.0
 10
484.632944
 20
228.221476
 30
0.0
 10
485.902472
 20
228.221476
 30
0.0
 10
485.902472
 20
223.699988
 30
0.0
 10
485.902472
 20
223.699988
 30
0.0
  0
LWPOLYLINE
  5
25b
100
AcDbEntity
  8
Layer_1
 62
6
100
AcDbPolyline
 90
5
 70
1
 10
479.930792
 20
231.624796
 30
0.0
 10
482.914192
 20
230.946084
 30
0.0
 10
482.914192
 20
232.308388
 30
0.0
 10
479.930792
 20
231.624796
 30
0.0
 10
479.930792
 20
231.624796
 30
0.0
  0
SPLINE
  5
25c
100
AcDbEntity
  8
Layer_1
 62
6
100
AcDbSpline
 70
8
 71
3
 72
8
 73
4
 74
0
 40
0
 40
0
 40
0
 40
0
 40
1
 40
1
 40
1
 40
1
 10
485.692512
 20
239.910932
 30
0.0
 10
485.809701
 20
239.683065
 30
0.0
 10
485.897592
 20
239.443806
 30
0.0
 10
485.956184
 20
239.193156
 30
0.0
  0
SPLINE
  5
25d
100
AcDbEntity
  8
Layer_1
 62
6
100
AcDbSpline
 70
8
 71
3
 72
8
 73
4
 74
0
 40
0
 40
0
 40
0
 40
0
 40
1
 40
1
 40
1
 40
1
 10
485.956184
 20
239.193156
 30
0.0
 10
486.014776
 20
238.942505
 30
0.0
 10
486.044072
 20
238.678833
 30
0.0
 10
486.044072
 20
238.402140
 30
0.0
  0
SPLINE
  5
25e
100
AcDbEntity
  8
Layer_1
 62
6
100
AcDbSpline
 70
8
 71
3
 72
8
 73
4
 74
0
 40
0
 40
0
 40
0
 40
0
 40
1
 40
1
 40
1
 40
1
 10
486.044072
 20
238.402140
 30
0.0
 10
486.044072
 20
237.419068
 30
0.0
 10
485.720179
 20
236.668742
 30
0.0
 10
485.072392
 20
236.151164
 30
0.0
  0
SPLINE
  5
25f
100
AcDbEntity
  8
Layer_1
 62
6
100
AcDbSpline
 70
8
 71
3
 72
8
 73
4
 74
0
 40
0
 40
0
 40
0
 40
0
 40
1
 40
1
 40
1
 40
1
 10
485.072392
 20
236.151164
 30
0.0
 10
484.424605
 20
235.633585
 30
0.0
 10
483.488733
 20
235.374796
 30
0.0
 10
482.264776
 20
235.374796
 30
0.0
  0
SPLINE
  5
260
100
AcDbEntity
  8
Layer_1
 62
6
100
AcDbSpline
 70
8
 71
3
 72
8
 73
4
 74
0
 40
0
 40
0
 40
0
 40
0
 40
1
 40
1
 40
1
 40
1
 10
482.264776
 20
235.374796
 30
0.0
 10
481.037565
 20
235.374796
 30
0.0
 10
480.100067
 20
235.633585
 30
0.0
 10
479.452280
 20
236.151164
 30
0.0
  0
SPLINE
  5
261
100
AcDbEntity
  8
Layer_1
 62
6
100
AcDbSpline
 70
8
 71
3
 72
8
 73
4
 74
0
 40
0
 40
0
 40
0
 40
0
 40
1
 40
1
 40
1
 40
1
 10
479.452280
 20
236.151164
 30
0.0
 10
478.804493
 20
236.668742
 30
0.0
 10
478.480600
 20
237.419068
 30
0.0
 10
478.480600
 20
238.402140
 30
0.0
  0
SPLINE
  5
262
100
AcDbEntity
  8
Layer_1
 62
6
100
AcDbSpline
 70
8
 71
3
 72
8
 73
4
 74
0
 40
0
 40
0
 40
0
 40
0
 40
1
 40
1
 40
1
 40
1
 10
478.480600
 20
238.402140
 30
0.0
 10
478.480600
 20
238.678833
 30
0.0
 10
478.509896
 20
238.944132
 30
0.0
 10
478.568488
 20
239.198036
 30
0.0
  0
SPLINE
  5
263
100
AcDbEntity
  8
Layer_1
 62
6
100
AcDbSpline
 70
8
 71
3
 72
8
 73
4
 74
0
 40
0
 40
0
 40
0
 40
0
 40
1
 40
1
 40
1
 40
1
 10
478.568488
 20
239.198036
 30
0.0
 10
478.627080
 20
239.451945
 30
0.0
 10
478.714971
 20
239.689577
 30
0.0
 10
478.832160
 20
239.910932
 30
0.0
  0
LWPOLYLINE
  5
264
100
AcDbEntity
  8
Layer_1
 62
6
100
AcDbPolyline
 90
10
 70
1
 10
478.612432
 20
230.745892
 30
0.0
 10
478.612432
 20
232.508588
 30
0.0
 10
485.902472
 20
234.476356
 30
0.0
 10
485.902472
 20
233.035932
 30
0.0
 10
484.100712
 20
232.586708
 30
0.0
 10
484.100712
 20
230.657996
 30
0.0
 10
485.902472
 20
230.218548
 30
0.0
 10
485.902472
 20
228.778116
 30
0.0
 10
478.612432
 20
230.745892
 30
0.0
 10
478.612432
 20
230.745892
 30
0.0
  0
SPLINE
  5
265
100
AcDbEntity
  8
Layer_1
 62
6
100
AcDbSpline
 70
8
 71
3
 72
8
 73
4
 74
0
 40
0
 40
0
 40
0
 40
0
 40
1
 40
1
 40
1
 40
1
 10
480.433720
 20
239.910932
 30
0.0
 10
480.205859
 20
239.663534
 30
0.0
 10
480.039843
 20
239.422649
 30
0.0
 10
479.935672
 20
239.188276
 30
0.0
  0
SPLINE
  5
266
100
AcDbEntity
  8
Layer_1
 62
6
100
AcDbSpline
 70
8
 71
3
 72
8
 73
4
 74
0
 40
0
 40
0
 40
0
 40
0
 40
1
 40
1
 40
1
 40
1
 10
479.935672
 20
239.188276
 30
0.0
 10
479.828253
 20
238.957156
 30
0.0
 10
479.774544
 20
238.717897
 30
0.0
 10
479.774544
 20
238.470500
 30
0.0
  0
SPLINE
  5
267
100
AcDbEntity
  8
Layer_1
 62
6
100
AcDbSpline
 70
8
 71
3
 72
8
 73
4
 74
0
 40
0
 40
0
 40
0
 40
0
 40
1
 40
1
 40
1
 40
1
 10
479.774544
 20
238.470500
 30
0.0
 10
479.774544
 20
237.943156
 30
0.0
 10
479.984504
 20
237.544393
 30
0.0
 10
480.404424
 20
237.274212
 30
0.0
  0
SPLINE
  5
268
100
AcDbEntity
  8
Layer_1
 62
6
100
AcDbSpline
 70
8
 71
3
 72
8
 73
4
 74
0
 40
0
 40
0
 40
0
 40
0
 40
1
 40
1
 40
1
 40
1
 10
480.404424
 20
237.274212
 30
0.0
 10
480.821091
 20
237.007284
 30
0.0
 10
481.441208
 20
236.873820
 30
0.0
 10
482.264776
 20
236.873820
 30
0.0
  0
SPLINE
  5
269
100
AcDbEntity
  8
Layer_1
 62
6
100
AcDbSpline
 70
8
 71
3
 72
8
 73
4
 74
0
 40
0
 40
0
 40
0
 40
0
 40
1
 40
1
 40
1
 40
1
 10
482.264776
 20
236.873820
 30
0.0
 10
483.085091
 20
236.873820
 30
0.0
 10
483.705208
 20
237.007284
 30
0.0
 10
484.125128
 20
237.274212
 30
0.0
  0
SPLINE
  5
26a
100
AcDbEntity
  8
Layer_1
 62
6
100
AcDbSpline
 70
8
 71
3
 72
8
 73
4
 74
0
 40
0
 40
0
 40
0
 40
0
 40
1
 40
1
 40
1
 40
1
 10
484.125128
 20
237.274212
 30
0.0
 10
484.541795
 20
237.544393
 30
0.0
 10
484.750128
 20
237.943156
 30
0.0
 10
484.750128
 20
238.470500
 30
0.0
  0
SPLINE
  5
26b
100
AcDbEntity
  8
Layer_1
 62
6
100
AcDbSpline
 70
8
 71
3
 72
8
 73
4
 74
0
 40
0
 40
0
 40
0
 40
0
 40
1
 40
1
 40
1
 40
1
 10
484.750128
 20
238.470500
 30
0.0
 10
484.750128
 20
238.717897
 30
0.0
 10
484.698045
 20
238.957156
 30
0.0
 10
484.593880
 20
239.188276
 30
0.0
  0
SPLINE
  5
26c
100
AcDbEntity
  8
Layer_1
 62
6
100
AcDbSpline
 70
8
 71
3
 72
8
 73
4
 74
0
 40
0
 40
0
 40
0
 40
0
 40
1
 40
1
 40
1
 40
1
 10
484.593880
 20
239.188276
 30
0.0
 10
484.486456
 20
239.422649
 30
0.0
 10
484.318813
 20
239.663534
 30
0.0
 10
484.090952
 20
239.910932
 30
0.0
  0
LWPOLYLINE
  5
26d
100
AcDbEntity
  8
Layer_1
 62
6
100
AcDbPolyline
 90
2
 70
1
 10
478.832160
 20
239.910932
 30
0.0
 10
480.433720
 20
239.910932
 30
0.0
  0
LWPOLYLINE
  5
26e
100
AcDbEntity
  8
Layer_1
 62
6
100
AcDbPolyline
 90
3
 70
1
 10
484.090952
 20
239.910932
 30
0.0
 10
485.692512
 20
239.910932
 30
0.0
 10
485.692512
 20
239.910932
 30
0.0
  0
LWPOLYLINE
  5
26f
100
AcDbEntity
  8
Layer_1
 62
6
100
AcDbPolyline
 90
14
 70
1
 10
485.902472
 20
246.009564
 30
0.0
 10
485.902472
 20
241.468548
 30
0.0
 10
478.612432
 20
241.468548
 30
0.0
 10
478.612432
 20
246.009564
 30
0.0
 10
479.881968
 20
246.009564
 30
0.0
 10
479.881968
 20
242.908980
 30
0.0
 10
481.454232
 20
242.908980
 30
0.0
 10
481.454232
 20
245.716596
 30
0.0
 10
482.723760
 20
245.716596
 30
0.0
 10
482.723760
 20
242.908980
 30
0.0
 10
484.632944
 20
242.908980
 30
0.0
 10
484.632944
 20
246.009564
 30
0.0
 10
485.902472
 20
246.009564
 30
0.0
 10
485.902472
 20
246.009564
 30
0.0
  0
SPLINE
  5
270
100
AcDbEntity
  8
Layer_1
 62
6
100
AcDbSpline
 70
8
 71
3
 72
8
 73
4
 74
0
 40
0
 40
0
 40
0
 40
0
 40
1
 40
1
 40
1
 40
1
 10
481.962040
 20
255.501748
 30
0.0
 10
481.962040
 20
255.973753
 30
0.0
 10
481.882288
 20
256.304158
 30
0.0
 10
481.722784
 20
256.492964
 30
0.0
  0
SPLINE
  5
271
100
AcDbEntity
  8
Layer_1
 62
6
100
AcDbSpline
 70
8
 71
3
 72
8
 73
4
 74
0
 40
0
 40
0
 40
0
 40
0
 40
1
 40
1
 40
1
 40
1
 10
481.722784
 20
256.492964
 30
0.0
 10
481.563280
 20
256.685017
 30
0.0
 10
481.286587
 20
256.781044
 30
0.0
 10
480.892704
 20
256.781044
 30
0.0
  0
SPLINE
  5
272
100
AcDbEntity
  8
Layer_1
 62
6
100
AcDbSpline
 70
8
 71
3
 72
8
 73
4
 74
0
 40
0
 40
0
 40
0
 40
0
 40
1
 40
1
 40
1
 40
1
 10
480.892704
 20
256.781044
 30
0.0
 10
480.498827
 20
256.781044
 30
0.0
 10
480.222136
 20
256.685017
 30
0.0
 10
480.062632
 20
256.492964
 30
0.0
  0
SPLINE
  5
273
100
AcDbEntity
  8
Layer_1
 62
6
100
AcDbSpline
 70
8
 71
3
 72
8
 73
4
 74
0
 40
0
 40
0
 40
0
 40
0
 40
1
 40
1
 40
1
 40
1
 10
480.062632
 20
256.492964
 30
0.0
 10
479.903123
 20
256.304158
 30
0.0
 10
479.823368
 20
255.973753
 30
0.0
 10
479.823368
 20
255.501748
 30
0.0
  0
LWPOLYLINE
  5
274
100
AcDbEntity
  8
Layer_1
 62
6
100
AcDbPolyline
 90
3
 70
1
 10
479.823368
 20
254.910932
 30
0.0
 10
481.962040
 20
254.910932
 30
0.0
 10
481.962040
 20
255.501748
 30
0.0
  0
LWPOLYLINE
  5
275
100
AcDbEntity
  8
Layer_1
 62
6
100
AcDbPolyline
 90
3
 70
1
 10
479.823368
 20
255.501748
 30
0.0
 10
479.823368
 20
254.910932
 30
0.0
 10
479.823368
 20
254.910932
 30
0.0
  0
SPLINE
  5
276
100
AcDbEntity
  8
Layer_1
 62
6
100
AcDbSpline
 70
8
 71
3
 72
8
 73
4
 74
0
 40
0
 40
0
 40
0
 40
0
 40
1
 40
1
 40
1
 40
1
 10
478.612432
 20
255.448036
 30
0.0
 10
478.612432
 20
256.453897
 30
0.0
 10
478.791469
 20
257.176553
 30
0.0
 10
479.149544
 20
257.616004
 30
0.0
  0
SPLINE
  5
277
100
AcDbEntity
  8
Layer_1
 62
6
100
AcDbSpline
 70
8
 71
3
 72
8
 73
4
 74
0
 40
0
 40
0
 40
0
 40
0
 40
1
 40
1
 40
1
 40
1
 10
479.149544
 20
257.616004
 30
0.0
 10
479.507613
 20
258.058713
 30
0.0
 10
480.088667
 20
258.280068
 30
0.0
 10
480.892704
 20
258.280068
 30
0.0
  0
SPLINE
  5
278
100
AcDbEntity
  8
Layer_1
 62
6
100
AcDbSpline
 70
8
 71
3
 72
8
 73
4
 74
0
 40
0
 40
0
 40
0
 40
0
 40
1
 40
1
 40
1
 40
1
 10
480.892704
 20
258.280068
 30
0.0
 10
481.696741
 20
258.280068
 30
0.0
 10
482.277797
 20
258.058713
 30
0.0
 10
482.635872
 20
257.616004
 30
0.0
  0
SPLINE
  5
279
100
AcDbEntity
  8
Layer_1
 62
6
100
AcDbSpline
 70
8
 71
3
 72
8
 73
4
 74
0
 40
0
 40
0
 40
0
 40
0
 40
1
 40
1
 40
1
 40
1
 10
482.635872
 20
257.616004
 30
0.0
 10
482.993947
 20
257.176553
 30
0.0
 10
483.172984
 20
256.453897
 30
0.0
 10
483.172984
 20
255.448036
 30
0.0
  0
LWPOLYLINE
  5
27a
100
AcDbEntity
  8
Layer_1
 62
6
100
AcDbPolyline
 90
2
 70
1
 10
478.612432
 20
253.470500
 30
0.0
 10
478.612432
 20
255.448036
 30
0.0
  0
SPLINE
  5
27b
100
AcDbEntity
  8
Layer_1
 62
6
100
AcDbSpline
 70
8
 71
3
 72
8
 73
4
 74
0
 40
0
 40
0
 40
0
 40
0
 40
1
 40
1
 40
1
 40
1
 10
481.942512
 20
264.315228
 30
0.0
 10
481.799280
 20
264.158977
 30
0.0
 10
481.691859
 20
263.975057
 30
0.0
 10
481.620248
 20
263.763468
 30
0.0
  0
SPLINE
  5
27c
100
AcDbEntity
  8
Layer_1
 62
6
100
AcDbSpline
 70
8
 71
3
 72
8
 73
4
 74
0
 40
0
 40
0
 40
0
 40
0
 40
1
 40
1
 40
1
 40
1
 10
481.620248
 20
263.763468
 30
0.0
 10
481.548632
 20
263.555137
 30
0.0
 10
481.512824
 20
263.325644
 30
0.0
 10
481.512824
 20
263.074988
 30
0.0
  0
SPLINE
  5
27d
100
AcDbEntity
  8
Layer_1
 62
6
100
AcDbSpline
 70
8
 71
3
 72
8
 73
4
 74
0
 40
0
 40
0
 40
0
 40
0
 40
1
 40
1
 40
1
 40
1
 10
481.512824
 20
263.074988
 30
0.0
 10
481.512824
 20
262.772257
 30
0.0
 10
481.566536
 20
262.506958
 30
0.0
 10
481.673960
 20
262.279092
 30
0.0
  0
SPLINE
  5
27e
100
AcDbEntity
  8
Layer_1
 62
6
100
AcDbSpline
 70
8
 71
3
 72
8
 73
4
 74
0
 40
0
 40
0
 40
0
 40
0
 40
1
 40
1
 40
1
 40
1
 10
481.673960
 20
262.279092
 30
0.0
 10
481.778125
 20
262.054484
 30
0.0
 10
481.931120
 20
261.880332
 30
0.0
 10
482.132944
 20
261.756636
 30
0.0
  0
SPLINE
  5
27f
100
AcDbEntity
  8
Layer_1
 62
6
100
AcDbSpline
 70
8
 71
3
 72
8
 73
4
 74
0
 40
0
 40
0
 40
0
 40
0
 40
1
 40
1
 40
1
 40
1
 10
482.132944
 20
261.756636
 30
0.0
 10
482.256640
 20
261.678508
 30
0.0
 10
482.406379
 20
261.623169
 30
0.0
 10
482.582160
 20
261.590620
 30
0.0
  0
SPLINE
  5
280
100
AcDbEntity
  8
Layer_1
 62
6
100
AcDbSpline
 70
8
 71
3
 72
8
 73
4
 74
0
 40
0
 40
0
 40
0
 40
0
 40
1
 40
1
 40
1
 40
1
 10
482.582160
 20
261.590620
 30
0.0
 10
482.757941
 20
261.561340
 30
0.0
 10
483.024869
 20
261.546700
 30
0.0
 10
483.382944
 20
261.546700
 30
0.0
  0
LWPOLYLINE
  5
281
100
AcDbEntity
  8
Layer_1
 62
6
100
AcDbPolyline
 90
6
 70
1
 10
483.172984
 20
255.448036
 30
0.0
 10
483.172984
 20
254.910932
 30
0.0
 10
485.902472
 20
254.910932
 30
0.0
 10
485.902472
 20
253.470500
 30
0.0
 10
478.612432
 20
253.470500
 30
0.0
 10
478.612432
 20
253.470500
 30
0.0
  0
SPLINE
  5
282
100
AcDbEntity
  8
Layer_1
 62
6
100
AcDbSpline
 70
8
 71
3
 72
8
 73
4
 74
0
 40
0
 40
0
 40
0
 40
0
 40
1
 40
1
 40
1
 40
1
 10
481.283328
 20
261.546700
 30
0.0
 10
480.970832
 20
261.686678
 30
0.0
 10
480.729947
 20
261.901524
 30
0.0
 10
480.560672
 20
262.191236
 30
0.0
  0
SPLINE
  5
283
100
AcDbEntity
  8
Layer_1
 62
6
100
AcDbSpline
 70
8
 71
3
 72
8
 73
4
 74
0
 40
0
 40
0
 40
0
 40
0
 40
1
 40
1
 40
1
 40
1
 10
480.560672
 20
262.191236
 30
0.0
 10
480.388149
 20
262.480948
 30
0.0
 10
480.301888
 20
262.819489
 30
0.0
 10
480.301888
 20
263.206860
 30
0.0
  0
SPLINE
  5
284
100
AcDbEntity
  8
Layer_1
 62
6
100
AcDbSpline
 70
8
 71
3
 72
8
 73
4
 74
0
 40
0
 40
0
 40
0
 40
0
 40
1
 40
1
 40
1
 40
1
 10
480.301888
 20
263.206860
 30
0.0
 10
480.301888
 20
263.402172
 30
0.0
 10
480.326288
 20
263.592601
 30
0.0
 10
480.375088
 20
263.778148
 30
0.0
  0
SPLINE
  5
285
100
AcDbEntity
  8
Layer_1
 62
6
100
AcDbSpline
 70
8
 71
3
 72
8
 73
4
 74
0
 40
0
 40
0
 40
0
 40
0
 40
1
 40
1
 40
1
 40
1
 10
480.375088
 20
263.778148
 30
0.0
 10
480.420688
 20
263.966948
 30
0.0
 10
480.489048
 20
264.145985
 30
0.0
 10
480.580168
 20
264.315260
 30
0.0
  0
LWPOLYLINE
  5
286
100
AcDbEntity
  8
Layer_1
 62
6
100
AcDbPolyline
 90
6
 70
1
 10
483.382944
 20
261.546700
 30
0.0
 10
485.902472
 20
261.546700
 30
0.0
 10
485.902472
 20
260.116036
 30
0.0
 10
480.433720
 20
260.116036
 30
0.0
 10
480.433720
 20
261.546700
 30
0.0
 10
481.283328
 20
261.546700
 30
0.0
  0
SPLINE
  5
287
100
AcDbEntity
  8
Layer_1
 62
6
100
AcDbSpline
 70
8
 71
3
 72
8
 73
4
 74
0
 40
0
 40
0
 40
0
 40
0
 40
1
 40
1
 40
1
 40
1
 10
481.463992
 20
267.718548
 30
0.0
 10
481.463992
 20
267.376750
 30
0.0
 10
481.615360
 20
267.108196
 30
0.0
 10
481.918096
 20
266.912884
 30
0.0
  0
SPLINE
  5
288
100
AcDbEntity
  8
Layer_1
 62
6
100
AcDbSpline
 70
8
 71
3
 72
8
 73
4
 74
0
 40
0
 40
0
 40
0
 40
0
 40
1
 40
1
 40
1
 40
1
 10
481.918096
 20
266.912884
 30
0.0
 10
482.217573
 20
266.717572
 30
0.0
 10
482.635869
 20
266.619916
 30
0.0
 10
483.172984
 20
266.619916
 30
0.0
  0
SPLINE
  5
289
100
AcDbEntity
  8
Layer_1
 62
6
100
AcDbSpline
 70
8
 71
3
 72
8
 73
4
 74
0
 40
0
 40
0
 40
0
 40
0
 40
1
 40
1
 40
1
 40
1
 10
483.172984
 20
266.619916
 30
0.0
 10
483.710093
 20
266.619916
 30
0.0
 10
484.130013
 20
266.717572
 30
0.0
 10
484.432744
 20
266.912884
 30
0.0
  0
SPLINE
  5
28a
100
AcDbEntity
  8
Layer_1
 62
6
100
AcDbSpline
 70
8
 71
3
 72
8
 73
4
 74
0
 40
0
 40
0
 40
0
 40
0
 40
1
 40
1
 40
1
 40
1
 10
484.432744
 20
266.912884
 30
0.0
 10
484.732227
 20
267.108196
 30
0.0
 10
484.881968
 20
267.376750
 30
0.0
 10
484.881968
 20
267.718548
 30
0.0
  0
SPLINE
  5
28b
100
AcDbEntity
  8
Layer_1
 62
6
100
AcDbSpline
 70
8
 71
3
 72
8
 73
4
 74
0
 40
0
 40
0
 40
0
 40
0
 40
1
 40
1
 40
1
 40
1
 10
484.881968
 20
267.718548
 30
0.0
 10
484.881968
 20
268.063598
 30
0.0
 10
484.732227
 20
268.333780
 30
0.0
 10
484.432744
 20
268.529092
 30
0.0
  0
SPLINE
  5
28c
100
AcDbEntity
  8
Layer_1
 62
6
100
AcDbSpline
 70
8
 71
3
 72
8
 73
4
 74
0
 40
0
 40
0
 40
0
 40
0
 40
1
 40
1
 40
1
 40
1
 10
484.432744
 20
268.529092
 30
0.0
 10
484.130013
 20
268.724404
 30
0.0
 10
483.710093
 20
268.822060
 30
0.0
 10
483.172984
 20
268.822060
 30
0.0
  0
SPLINE
  5
28d
100
AcDbEntity
  8
Layer_1
 62
6
100
AcDbSpline
 70
8
 71
3
 72
8
 73
4
 74
0
 40
0
 40
0
 40
0
 40
0
 40
1
 40
1
 40
1
 40
1
 10
483.172984
 20
268.822060
 30
0.0
 10
482.635869
 20
268.822060
 30
0.0
 10
482.217573
 20
268.724404
 30
0.0
 10
481.918096
 20
268.529092
 30
0.0
  0
SPLINE
  5
28e
100
AcDbEntity
  8
Layer_1
 62
6
100
AcDbSpline
 70
8
 71
3
 72
8
 73
4
 74
0
 40
0
 40
0
 40
0
 40
0
 40
1
 40
1
 40
1
 40
1
 10
481.918096
 20
268.529092
 30
0.0
 10
481.615360
 20
268.333780
 30
0.0
 10
481.463992
 20
268.063598
 30
0.0
 10
481.463992
 20
267.718548
 30
0.0
  0
LWPOLYLINE
  5
28f
100
AcDbEntity
  8
Layer_1
 62
6
100
AcDbPolyline
 90
3
 70
1
 10
480.580168
 20
264.315260
 30
0.0
 10
481.942472
 20
264.315260
 30
0.0
 10
481.942512
 20
264.315228
 30
0.0
  0
SPLINE
  5
290
100
AcDbEntity
  8
Layer_1
 62
6
100
AcDbSpline
 70
8
 71
3
 72
8
 73
4
 74
0
 40
0
 40
0
 40
0
 40
0
 40
1
 40
1
 40
1
 40
1
 10
483.172984
 20
265.189252
 30
0.0
 10
482.290819
 20
265.189252
 30
0.0
 10
481.592576
 20
265.417116
 30
0.0
 10
481.078256
 20
265.872844
 30
0.0
  0
SPLINE
  5
291
100
AcDbEntity
  8
Layer_1
 62
6
100
AcDbSpline
 70
8
 71
3
 72
8
 73
4
 74
0
 40
0
 40
0
 40
0
 40
0
 40
1
 40
1
 40
1
 40
1
 10
481.078256
 20
265.872844
 30
0.0
 10
480.560677
 20
266.331825
 30
0.0
 10
480.301888
 20
266.947060
 30
0.0
 10
480.301888
 20
267.718548
 30
0.0
  0
SPLINE
  5
292
100
AcDbEntity
  8
Layer_1
 62
6
100
AcDbSpline
 70
8
 71
3
 72
8
 73
4
 74
0
 40
0
 40
0
 40
0
 40
0
 40
1
 40
1
 40
1
 40
1
 10
480.301888
 20
267.718548
 30
0.0
 10
480.301888
 20
268.493284
 30
0.0
 10
480.560677
 20
269.108518
 30
0.0
 10
481.078256
 20
269.564252
 30
0.0
  0
SPLINE
  5
293
100
AcDbEntity
  8
Layer_1
 62
6
100
AcDbSpline
 70
8
 71
3
 72
8
 73
4
 74
0
 40
0
 40
0
 40
0
 40
0
 40
1
 40
1
 40
1
 40
1
 10
481.078256
 20
269.564252
 30
0.0
 10
481.592576
 20
270.023233
 30
0.0
 10
482.290819
 20
270.252724
 30
0.0
 10
483.172984
 20
270.252724
 30
0.0
  0
SPLINE
  5
294
100
AcDbEntity
  8
Layer_1
 62
6
100
AcDbSpline
 70
8
 71
3
 72
8
 73
4
 74
0
 40
0
 40
0
 40
0
 40
0
 40
1
 40
1
 40
1
 40
1
 10
483.172984
 20
270.252724
 30
0.0
 10
484.055144
 20
270.252724
 30
0.0
 10
484.755013
 20
270.023233
 30
0.0
 10
485.272592
 20
269.564252
 30
0.0
  0
SPLINE
  5
295
100
AcDbEntity
  8
Layer_1
 62
6
100
AcDbSpline
 70
8
 71
3
 72
8
 73
4
 74
0
 40
0
 40
0
 40
0
 40
0
 40
1
 40
1
 40
1
 40
1
 10
485.272592
 20
269.564252
 30
0.0
 10
485.786912
 20
269.108518
 30
0.0
 10
486.044072
 20
268.493284
 30
0.0
 10
486.044072
 20
267.718548
 30
0.0
  0
SPLINE
  5
296
100
AcDbEntity
  8
Layer_1
 62
6
100
AcDbSpline
 70
8
 71
3
 72
8
 73
4
 74
0
 40
0
 40
0
 40
0
 40
0
 40
1
 40
1
 40
1
 40
1
 10
486.044072
 20
267.718548
 30
0.0
 10
486.044072
 20
266.947060
 30
0.0
 10
485.786912
 20
266.331825
 30
0.0
 10
485.272592
 20
265.872844
 30
0.0
  0
SPLINE
  5
297
100
AcDbEntity
  8
Layer_1
 62
6
100
AcDbSpline
 70
8
 71
3
 72
8
 73
4
 74
0
 40
0
 40
0
 40
0
 40
0
 40
1
 40
1
 40
1
 40
1
 10
485.272592
 20
265.872844
 30
0.0
 10
484.755013
 20
265.417116
 30
0.0
 10
484.055144
 20
265.189252
 30
0.0
 10
483.172984
 20
265.189252
 30
0.0
  0
LWPOLYLINE
  5
298
100
AcDbEntity
  8
Layer_1
 62
6
100
AcDbPolyline
 90
2
 70
1
 10
481.463992
 20
267.718548
 30
0.0
 10
481.463992
 20
267.718548
 30
0.0
  0
SPLINE
  5
299
100
AcDbEntity
  8
Layer_1
 62
6
100
AcDbSpline
 70
8
 71
3
 72
8
 73
4
 74
0
 40
0
 40
0
 40
0
 40
0
 40
1
 40
1
 40
1
 40
1
 10
485.692512
 20
274.876748
 30
0.0
 10
486.512827
 20
274.876748
 30
0.0
 10
487.097136
 20
274.728636
 30
0.0
 10
487.445440
 20
274.432412
 30
0.0
  0
SPLINE
  5
29a
100
AcDbEntity
  8
Layer_1
 62
6
100
AcDbSpline
 70
8
 71
3
 72
8
 73
4
 74
0
 40
0
 40
0
 40
0
 40
0
 40
1
 40
1
 40
1
 40
1
 10
487.445440
 20
274.432412
 30
0.0
 10
487.797003
 20
274.139446
 30
0.0
 10
487.972784
 20
273.651166
 30
0.0
 10
487.972784
 20
272.967572
 30
0.0
  0
LWPOLYLINE
  5
29b
100
AcDbEntity
  8
Layer_1
 62
6
100
AcDbPolyline
 90
2
 70
1
 10
483.172984
 20
265.189252
 30
0.0
 10
483.172984
 20
265.189252
 30
0.0
  0
SPLINE
  5
29c
100
AcDbEntity
  8
Layer_1
 62
6
100
AcDbSpline
 70
8
 71
3
 72
8
 73
4
 74
0
 40
0
 40
0
 40
0
 40
0
 40
1
 40
1
 40
1
 40
1
 10
486.874152
 20
272.567180
 30
0.0
 10
486.874152
 20
272.886188
 30
0.0
 10
486.784635
 20
273.112425
 30
0.0
 10
486.605600
 20
273.245892
 30
0.0
  0
SPLINE
  5
29d
100
AcDbEntity
  8
Layer_1
 62
6
100
AcDbSpline
 70
8
 71
3
 72
8
 73
4
 74
0
 40
0
 40
0
 40
0
 40
0
 40
1
 40
1
 40
1
 40
1
 10
486.605600
 20
273.245892
 30
0.0
 10
486.426560
 20
273.379353
 30
0.0
 10
486.122197
 20
273.446084
 30
0.0
 10
485.692512
 20
273.446084
 30
0.0
  0
LWPOLYLINE
  5
29e
100
AcDbEntity
  8
Layer_1
 62
6
100
AcDbPolyline
 90
4
 70
1
 10
487.972784
 20
272.967572
 30
0.0
 10
487.972784
 20
271.424604
 30
0.0
 10
486.874152
 20
271.424604
 30
0.0
 10
486.874152
 20
272.567180
 30
0.0
  0
LWPOLYLINE
  5
29f
100
AcDbEntity
  8
Layer_1
 62
6
100
AcDbPolyline
 90
7
 70
1
 10
485.692512
 20
273.446084
 30
0.0
 10
481.532352
 20
273.446084
 30
0.0
 10
481.532352
 20
271.995892
 30
0.0
 10
480.433720
 20
271.995892
 30
0.0
 10
480.433720
 20
274.876748
 30
0.0
 10
485.692512
 20
274.876748
 30
0.0
 10
485.692512
 20
274.876748
 30
0.0
  0
SPLINE
  5
2a0
100
AcDbEntity
  8
Layer_1
 62
6
100
AcDbSpline
 70
8
 71
3
 72
8
 73
4
 74
0
 40
0
 40
0
 40
0
 40
0
 40
1
 40
1
 40
1
 40
1
 10
485.633920
 20
282.122844
 30
0.0
 10
485.770635
 20
281.790812
 30
0.0
 10
485.873173
 20
281.452270
 30
0.0
 10
485.941536
 20
281.107220
 30
0.0
  0
SPLINE
  5
2a1
100
AcDbEntity
  8
Layer_1
 62
6
100
AcDbSpline
 70
8
 71
3
 72
8
 73
4
 74
0
 40
0
 40
0
 40
0
 40
0
 40
1
 40
1
 40
1
 40
1
 10
485.941536
 20
281.107220
 30
0.0
 10
486.009893
 20
280.762169
 30
0.0
 10
486.044072
 20
280.397585
 30
0.0
 10
486.044072
 20
280.013468
 30
0.0
  0
SPLINE
  5
2a2
100
AcDbEntity
  8
Layer_1
 62
6
100
AcDbSpline
 70
8
 71
3
 72
8
 73
4
 74
0
 40
0
 40
0
 40
0
 40
0
 40
1
 40
1
 40
1
 40
1
 10
486.044072
 20
280.013468
 30
0.0
 10
486.044072
 20
279.098753
 30
0.0
 10
485.799931
 20
278.398884
 30
0.0
 10
485.311648
 20
277.913860
 30
0.0
  0
SPLINE
  5
2a3
100
AcDbEntity
  8
Layer_1
 62
6
100
AcDbSpline
 70
8
 71
3
 72
8
 73
4
 74
0
 40
0
 40
0
 40
0
 40
0
 40
1
 40
1
 40
1
 40
1
 10
485.311648
 20
277.913860
 30
0.0
 10
484.820112
 20
277.432089
 30
0.0
 10
484.113733
 20
277.191204
 30
0.0
 10
483.192512
 20
277.191204
 30
0.0
  0
SPLINE
  5
2a4
100
AcDbEntity
  8
Layer_1
 62
6
100
AcDbSpline
 70
8
 71
3
 72
8
 73
4
 74
0
 40
0
 40
0
 40
0
 40
0
 40
1
 40
1
 40
1
 40
1
 10
483.192512
 20
277.191204
 30
0.0
 10
482.300587
 20
277.191204
 30
0.0
 10
481.595835
 20
277.423950
 30
0.0
 10
481.078256
 20
277.889444
 30
0.0
  0
SPLINE
  5
2a5
100
AcDbEntity
  8
Layer_1
 62
6
100
AcDbSpline
 70
8
 71
3
 72
8
 73
4
 74
0
 40
0
 40
0
 40
0
 40
0
 40
1
 40
1
 40
1
 40
1
 10
481.078256
 20
277.889444
 30
0.0
 10
480.560677
 20
278.354937
 30
0.0
 10
480.301888
 20
278.989702
 30
0.0
 10
480.301888
 20
279.793740
 30
0.0
  0
SPLINE
  5
2a6
100
AcDbEntity
  8
Layer_1
 62
6
100
AcDbSpline
 70
8
 71
3
 72
8
 73
4
 74
0
 40
0
 40
0
 40
0
 40
0
 40
1
 40
1
 40
1
 40
1
 10
480.301888
 20
279.793740
 30
0.0
 10
480.301888
 20
280.604289
 30
0.0
 10
480.542773
 20
281.232545
 30
0.0
 10
481.024544
 20
281.678508
 30
0.0
  0
SPLINE
  5
2a7
100
AcDbEntity
  8
Layer_1
 62
6
100
AcDbSpline
 70
8
 71
3
 72
8
 73
4
 74
0
 40
0
 40
0
 40
0
 40
0
 40
1
 40
1
 40
1
 40
1
 10
481.024544
 20
281.678508
 30
0.0
 10
481.503056
 20
282.127724
 30
0.0
 10
482.178512
 20
282.352332
 30
0.0
 10
483.050912
 20
282.352332
 30
0.0
  0
LWPOLYLINE
  5
2a8
100
AcDbEntity
  8
Layer_1
 62
6
100
AcDbPolyline
 90
6
 70
1
 10
479.442512
 20
274.876748
 30
0.0
 10
479.442512
 20
273.446084
 30
0.0
 10
477.772592
 20
273.446084
 30
0.0
 10
477.772592
 20
274.876748
 30
0.0
 10
479.442512
 20
274.876748
 30
0.0
 10
479.442512
 20
274.876748
 30
0.0
  0
SPLINE
  5
2a9
100
AcDbEntity
  8
Layer_1
 62
6
100
AcDbSpline
 70
8
 71
3
 72
8
 73
4
 74
0
 40
0
 40
0
 40
0
 40
0
 40
1
 40
1
 40
1
 40
1
 10
483.631968
 20
278.646284
 30
0.0
 10
484.061653
 20
278.649484
 30
0.0
 10
484.382291
 20
278.776436
 30
0.0
 10
484.593880
 20
279.027140
 30
0.0
  0
SPLINE
  5
2aa
100
AcDbEntity
  8
Layer_1
 62
6
100
AcDbSpline
 70
8
 71
3
 72
8
 73
4
 74
0
 40
0
 40
0
 40
0
 40
0
 40
1
 40
1
 40
1
 40
1
 10
484.593880
 20
279.027140
 30
0.0
 10
484.805469
 20
279.277790
 30
0.0
 10
484.911264
 20
279.652140
 30
0.0
 10
484.911264
 20
280.150188
 30
0.0
  0
SPLINE
  5
2ab
100
AcDbEntity
  8
Layer_1
 62
6
100
AcDbSpline
 70
8
 71
3
 72
8
 73
4
 74
0
 40
0
 40
0
 40
0
 40
0
 40
1
 40
1
 40
1
 40
1
 10
484.911264
 20
280.150188
 30
0.0
 10
484.911264
 20
280.478961
 30
0.0
 10
484.864061
 20
280.802854
 30
0.0
 10
484.769656
 20
281.121868
 30
0.0
  0
SPLINE
  5
2ac
100
AcDbEntity
  8
Layer_1
 62
6
100
AcDbSpline
 70
8
 71
3
 72
8
 73
4
 74
0
 40
0
 40
0
 40
0
 40
0
 40
1
 40
1
 40
1
 40
1
 10
484.769656
 20
281.121868
 30
0.0
 10
484.675256
 20
281.440876
 30
0.0
 10
484.525517
 20
281.774534
 30
0.0
 10
484.320440
 20
282.122844
 30
0.0
  0
LWPOLYLINE
  5
2ad
100
AcDbEntity
  8
Layer_1
 62
6
100
AcDbPolyline
 90
3
 70
1
 10
483.050912
 20
282.352332
 30
0.0
 10
483.631968
 20
282.352332
 30
0.0
 10
483.631968
 20
278.646284
 30
0.0
  0
SPLINE
  5
2ae
100
AcDbEntity
  8
Layer_1
 62
6
100
AcDbSpline
 70
8
 71
3
 72
8
 73
4
 74
0
 40
0
 40
0
 40
0
 40
0
 40
1
 40
1
 40
1
 40
1
 10
482.557744
 20
280.911908
 30
0.0
 10
482.180139
 20
280.905401
 30
0.0
 10
481.895309
 20
280.807745
 30
0.0
 10
481.703256
 20
280.618940
 30
0.0
  0
SPLINE
  5
2af
100
AcDbEntity
  8
Layer_1
 62
6
100
AcDbSpline
 70
8
 71
3
 72
8
 73
4
 74
0
 40
0
 40
0
 40
0
 40
0
 40
1
 40
1
 40
1
 40
1
 10
481.703256
 20
280.618940
 30
0.0
 10
481.507944
 20
280.433393
 30
0.0
 10
481.410288
 20
280.158326
 30
0.0
 10
481.410288
 20
279.793740
 30
0.0
  0
SPLINE
  5
2b0
100
AcDbEntity
  8
Layer_1
 62
6
100
AcDbSpline
 70
8
 71
3
 72
8
 73
4
 74
0
 40
0
 40
0
 40
0
 40
0
 40
1
 40
1
 40
1
 40
1
 10
481.410288
 20
279.793740
 30
0.0
 10
481.410288
 20
279.464966
 30
0.0
 10
481.511197
 20
279.202924
 30
0.0
 10
481.713016
 20
279.007612
 30
0.0
  0
SPLINE
  5
2b1
100
AcDbEntity
  8
Layer_1
 62
6
100
AcDbSpline
 70
8
 71
3
 72
8
 73
4
 74
0
 40
0
 40
0
 40
0
 40
0
 40
1
 40
1
 40
1
 40
1
 10
481.713016
 20
279.007612
 30
0.0
 10
481.911587
 20
278.812300
 30
0.0
 10
482.194792
 20
278.696740
 30
0.0
 10
482.562632
 20
278.660932
 30
0.0
  0
LWPOLYLINE
  5
2b2
100
AcDbEntity
  8
Layer_1
 62
6
100
AcDbPolyline
 90
3
 70
1
 10
484.320440
 20
282.122844
 30
0.0
 10
485.633920
 20
282.122844
 30
0.0
 10
485.633920
 20
282.122844
 30
0.0
  0
SPLINE
  5
2b3
100
AcDbEntity
  8
Layer_1
 62
6
100
AcDbSpline
 70
8
 71
3
 72
8
 73
4
 74
0
 40
0
 40
0
 40
0
 40
0
 40
1
 40
1
 40
1
 40
1
 10
485.624152
 20
287.938276
 30
0.0
 10
485.764125
 20
287.697390
 30
0.0
 10
485.868291
 20
287.438601
 30
0.0
 10
485.936648
 20
287.161908
 30
0.0
  0
SPLINE
  5
2b4
100
AcDbEntity
  8
Layer_1
 62
6
100
AcDbSpline
 70
8
 71
3
 72
8
 73
4
 74
0
 40
0
 40
0
 40
0
 40
0
 40
1
 40
1
 40
1
 40
1
 10
485.936648
 20
287.161908
 30
0.0
 10
486.008264
 20
286.885214
 30
0.0
 10
486.044072
 20
286.587361
 30
0.0
 10
486.044072
 20
286.268348
 30
0.0
  0
SPLINE
  5
2b5
100
AcDbEntity
  8
Layer_1
 62
6
100
AcDbSpline
 70
8
 71
3
 72
8
 73
4
 74
0
 40
0
 40
0
 40
0
 40
0
 40
1
 40
1
 40
1
 40
1
 10
486.044072
 20
286.268348
 30
0.0
 10
486.044072
 20
285.425249
 30
0.0
 10
485.790165
 20
284.766070
 30
0.0
 10
485.282352
 20
284.290812
 30
0.0
  0
SPLINE
  5
2b6
100
AcDbEntity
  8
Layer_1
 62
6
100
AcDbSpline
 70
8
 71
3
 72
8
 73
4
 74
0
 40
0
 40
0
 40
0
 40
0
 40
1
 40
1
 40
1
 40
1
 10
485.282352
 20
284.290812
 30
0.0
 10
484.774544
 20
283.815553
 30
0.0
 10
484.071421
 20
283.577924
 30
0.0
 10
483.172984
 20
283.577924
 30
0.0
  0
SPLINE
  5
2b7
100
AcDbEntity
  8
Layer_1
 62
6
100
AcDbSpline
 70
8
 71
3
 72
8
 73
4
 74
0
 40
0
 40
0
 40
0
 40
0
 40
1
 40
1
 40
1
 40
1
 10
483.172984
 20
283.577924
 30
0.0
 10
482.271288
 20
283.577924
 30
0.0
 10
481.566533
 20
283.817180
 30
0.0
 10
481.058720
 20
284.295692
 30
0.0
  0
SPLINE
  5
2b8
100
AcDbEntity
  8
Layer_1
 62
6
100
AcDbSpline
 70
8
 71
3
 72
8
 73
4
 74
0
 40
0
 40
0
 40
0
 40
0
 40
1
 40
1
 40
1
 40
1
 10
481.058720
 20
284.295692
 30
0.0
 10
480.547653
 20
284.774209
 30
0.0
 10
480.292120
 20
285.435017
 30
0.0
 10
480.292120
 20
286.278116
 30
0.0
  0
SPLINE
  5
2b9
100
AcDbEntity
  8
Layer_1
 62
6
100
AcDbSpline
 70
8
 71
3
 72
8
 73
4
 74
0
 40
0
 40
0
 40
0
 40
0
 40
1
 40
1
 40
1
 40
1
 10
480.292120
 20
286.278116
 30
0.0
 10
480.292120
 20
286.571086
 30
0.0
 10
480.326299
 20
286.852662
 30
0.0
 10
480.394656
 20
287.122844
 30
0.0
  0
SPLINE
  5
2ba
100
AcDbEntity
  8
Layer_1
 62
6
100
AcDbSpline
 70
8
 71
3
 72
8
 73
4
 74
0
 40
0
 40
0
 40
0
 40
0
 40
1
 40
1
 40
1
 40
1
 10
480.394656
 20
287.122844
 30
0.0
 10
480.463019
 20
287.396278
 30
0.0
 10
480.568813
 20
287.668089
 30
0.0
 10
480.712040
 20
287.938276
 30
0.0
  0
LWPOLYLINE
  5
2bb
100
AcDbEntity
  8
Layer_1
 62
6
100
AcDbPolyline
 90
3
 70
1
 10
482.562632
 20
278.660932
 30
0.0
 10
482.557832
 20
280.911908
 30
0.0
 10
482.557744
 20
280.911908
 30
0.0
  0
SPLINE
  5
2bc
100
AcDbEntity
  8
Layer_1
 62
6
100
AcDbSpline
 70
8
 71
3
 72
8
 73
4
 74
0
 40
0
 40
0
 40
0
 40
0
 40
1
 40
1
 40
1
 40
1
 10
482.020640
 20
287.938276
 30
0.0
 10
481.841600
 20
287.729940
 30
0.0
 10
481.704880
 20
287.500446
 30
0.0
 10
481.610480
 20
287.249796
 30
0.0
  0
SPLINE
  5
2bd
100
AcDbEntity
  8
Layer_1
 62
6
100
AcDbSpline
 70
8
 71
3
 72
8
 73
4
 74
0
 40
0
 40
0
 40
0
 40
0
 40
1
 40
1
 40
1
 40
1
 10
481.610480
 20
287.249796
 30
0.0
 10
481.512821
 20
287.002398
 30
0.0
 10
481.463992
 20
286.745238
 30
0.0
 10
481.463992
 20
286.478316
 30
0.0
  0
SPLINE
  5
2be
100
AcDbEntity
  8
Layer_1
 62
6
100
AcDbSpline
 70
8
 71
3
 72
8
 73
4
 74
0
 40
0
 40
0
 40
0
 40
0
 40
1
 40
1
 40
1
 40
1
 10
481.463992
 20
286.478316
 30
0.0
 10
481.463992
 20
286.012817
 30
0.0
 10
481.612104
 20
285.654742
 30
0.0
 10
481.908328
 20
285.404092
 30
0.0
  0
SPLINE
  5
2bf
100
AcDbEntity
  8
Layer_1
 62
6
100
AcDbSpline
 70
8
 71
3
 72
8
 73
4
 74
0
 40
0
 40
0
 40
0
 40
0
 40
1
 40
1
 40
1
 40
1
 10
481.908328
 20
285.404092
 30
0.0
 10
482.204552
 20
285.153441
 30
0.0
 10
482.626104
 20
285.028116
 30
0.0
 10
483.172984
 20
285.028116
 30
0.0
  0
SPLINE
  5
2c0
100
AcDbEntity
  8
Layer_1
 62
6
100
AcDbSpline
 70
8
 71
3
 72
8
 73
4
 74
0
 40
0
 40
0
 40
0
 40
0
 40
1
 40
1
 40
1
 40
1
 10
483.172984
 20
285.028116
 30
0.0
 10
483.719859
 20
285.028116
 30
0.0
 10
484.139779
 20
285.153441
 30
0.0
 10
484.432744
 20
285.404092
 30
0.0
  0
SPLINE
  5
2c1
100
AcDbEntity
  8
Layer_1
 62
6
100
AcDbSpline
 70
8
 71
3
 72
8
 73
4
 74
0
 40
0
 40
0
 40
0
 40
0
 40
1
 40
1
 40
1
 40
1
 10
484.432744
 20
285.404092
 30
0.0
 10
484.725715
 20
285.654742
 30
0.0
 10
484.872200
 20
286.012817
 30
0.0
 10
484.872200
 20
286.478316
 30
0.0
  0
SPLINE
  5
2c2
100
AcDbEntity
  8
Layer_1
 62
6
100
AcDbSpline
 70
8
 71
3
 72
8
 73
4
 74
0
 40
0
 40
0
 40
0
 40
0
 40
1
 40
1
 40
1
 40
1
 10
484.872200
 20
286.478316
 30
0.0
 10
484.872200
 20
286.755004
 30
0.0
 10
484.826627
 20
287.013790
 30
0.0
 10
484.735480
 20
287.254676
 30
0.0
  0
SPLINE
  5
2c3
100
AcDbEntity
  8
Layer_1
 62
6
100
AcDbSpline
 70
8
 71
3
 72
8
 73
4
 74
0
 40
0
 40
0
 40
0
 40
0
 40
1
 40
1
 40
1
 40
1
 10
484.735480
 20
287.254676
 30
0.0
 10
484.641080
 20
287.495561
 30
0.0
 10
484.499477
 20
287.723428
 30
0.0
 10
484.310672
 20
287.938276
 30
0.0
  0
LWPOLYLINE
  5
2c4
100
AcDbEntity
  8
Layer_1
 62
6
100
AcDbPolyline
 90
2
 70
1
 10
480.712040
 20
287.938276
 30
0.0
 10
482.020640
 20
287.938276
 30
0.0
  0
LWPOLYLINE
  5
2c5
100
AcDbEntity
  8
Layer_1
 62
6
100
AcDbPolyline
 90
3
 70
1
 10
484.310672
 20
287.938276
 30
0.0
 10
485.624152
 20
287.938276
 30
0.0
 10
485.624152
 20
287.938276
 30
0.0
  0
SPLINE
  5
2c6
100
AcDbEntity
  8
Layer_1
 62
6
100
AcDbSpline
 70
8
 71
3
 72
8
 73
4
 74
0
 40
0
 40
0
 40
0
 40
0
 40
1
 40
1
 40
1
 40
1
 10
484.120248
 20
292.142372
 30
0.0
 10
484.364387
 20
292.142372
 30
0.0
 10
484.540168
 20
292.200966
 30
0.0
 10
484.647592
 20
292.318156
 30
0.0
  0
SPLINE
  5
2c7
100
AcDbEntity
  8
Layer_1
 62
6
100
AcDbSpline
 70
8
 71
3
 72
8
 73
4
 74
0
 40
0
 40
0
 40
0
 40
0
 40
1
 40
1
 40
1
 40
1
 10
484.647592
 20
292.318156
 30
0.0
 10
484.751757
 20
292.438598
 30
0.0
 10
484.803840
 20
292.637166
 30
0.0
 10
484.803840
 20
292.913860
 30
0.0
  0
LWPOLYLINE
  5
2c8
100
AcDbEntity
  8
Layer_1
 62
6
100
AcDbPolyline
 90
6
 70
1
 10
478.880984
 20
292.142372
 30
0.0
 10
480.433720
 20
292.142372
 30
0.0
 10
480.433720
 20
294.012492
 30
0.0
 10
481.532352
 20
294.012492
 30
0.0
 10
481.532352
 20
292.142372
 30
0.0
 10
484.120248
 20
292.142372
 30
0.0
  0
SPLINE
  5
2c9
100
AcDbEntity
  8
Layer_1
 62
6
100
AcDbSpline
 70
8
 71
3
 72
8
 73
4
 74
0
 40
0
 40
0
 40
0
 40
0
 40
1
 40
1
 40
1
 40
1
 10
485.902472
 20
292.811316
 30
0.0
 10
485.902472
 20
291.991006
 30
0.0
 10
485.772264
 20
291.435996
 30
0.0
 10
485.511848
 20
291.146284
 30
0.0
  0
SPLINE
  5
2ca
100
AcDbEntity
  8
Layer_1
 62
6
100
AcDbSpline
 70
8
 71
3
 72
8
 73
4
 74
0
 40
0
 40
0
 40
0
 40
0
 40
1
 40
1
 40
1
 40
1
 10
485.511848
 20
291.146284
 30
0.0
 10
485.248173
 20
290.856566
 30
0.0
 10
484.761520
 20
290.711708
 30
0.0
 10
484.051888
 20
290.711708
 30
0.0
  0
LWPOLYLINE
  5
2cb
100
AcDbEntity
  8
Layer_1
 62
6
100
AcDbPolyline
 90
4
 70
1
 10
484.803840
 20
292.913860
 30
0.0
 10
484.803840
 20
294.012492
 30
0.0
 10
485.902472
 20
294.012492
 30
0.0
 10
485.902472
 20
292.811316
 30
0.0
  0
LWPOLYLINE
  5
2cc
100
AcDbEntity
  8
Layer_1
 62
6
100
AcDbPolyline
 90
8
 70
1
 10
484.051888
 20
290.711708
 30
0.0
 10
481.532352
 20
290.711708
 30
0.0
 10
481.532352
 20
289.315228
 30
0.0
 10
480.433720
 20
289.315228
 30
0.0
 10
480.433720
 20
290.711708
 30
0.0
 10
478.880984
 20
290.711708
 30
0.0
 10
478.880984
 20
292.142372
 30
0.0
 10
478.880984
 20
292.142372
 30
0.0
  0
LWPOLYLINE
  5
2cd
100
AcDbEntity
  8
Layer_1
 62
6
100
AcDbPolyline
 90
6
 70
1
 10
480.712040
 20
296.981244
 30
0.0
 10
480.712040
 20
298.607220
 30
0.0
 10
482.494272
 20
298.607220
 30
0.0
 10
482.494272
 20
296.981244
 30
0.0
 10
480.712040
 20
296.981244
 30
0.0
 10
480.712040
 20
296.981244
 30
0.0
  0
LWPOLYLINE
  5
2ce
100
AcDbEntity
  8
Layer_1
 62
6
100
AcDbPolyline
 90
6
 70
1
 10
484.110480
 20
296.981244
 30
0.0
 10
484.110480
 20
298.607220
 30
0.0
 10
485.902472
 20
298.607220
 30
0.0
 10
485.902472
 20
296.981244
 30
0.0
 10
484.110480
 20
296.981244
 30
0.0
 10
484.110480
 20
296.981244
 30
0.0
  0
SPLINE
  5
2cf
100
AcDbEntity
  8
Layer_1
 62
6
100
AcDbSpline
 70
8
 71
3
 72
8
 73
4
 74
0
 40
0
 40
0
 40
0
 40
0
 40
1
 40
1
 40
1
 40
1
 10
481.942512
 20
318.455852
 30
0.0
 10
481.799280
 20
318.299601
 30
0.0
 10
481.691859
 20
318.115681
 30
0.0
 10
481.620248
 20
317.904092
 30
0.0
  0
SPLINE
  5
2d0
100
AcDbEntity
  8
Layer_1
 62
6
100
AcDbSpline
 70
8
 71
3
 72
8
 73
4
 74
0
 40
0
 40
0
 40
0
 40
0
 40
1
 40
1
 40
1
 40
1
 10
481.620248
 20
317.904092
 30
0.0
 10
481.548632
 20
317.695761
 30
0.0
 10
481.512824
 20
317.466270
 30
0.0
 10
481.512824
 20
317.215620
 30
0.0
  0
SPLINE
  5
2d1
100
AcDbEntity
  8
Layer_1
 62
6
100
AcDbSpline
 70
8
 71
3
 72
8
 73
4
 74
0
 40
0
 40
0
 40
0
 40
0
 40
1
 40
1
 40
1
 40
1
 10
481.512824
 20
317.215620
 30
0.0
 10
481.512824
 20
316.912884
 30
0.0
 10
481.566536
 20
316.647582
 30
0.0
 10
481.673960
 20
316.419716
 30
0.0
  0
SPLINE
  5
2d2
100
AcDbEntity
  8
Layer_1
 62
6
100
AcDbSpline
 70
8
 71
3
 72
8
 73
4
 74
0
 40
0
 40
0
 40
0
 40
0
 40
1
 40
1
 40
1
 40
1
 10
481.673960
 20
316.419716
 30
0.0
 10
481.778125
 20
316.195108
 30
0.0
 10
481.931120
 20
316.020956
 30
0.0
 10
482.132944
 20
315.897260
 30
0.0
  0
SPLINE
  5
2d3
100
AcDbEntity
  8
Layer_1
 62
6
100
AcDbSpline
 70
8
 71
3
 72
8
 73
4
 74
0
 40
0
 40
0
 40
0
 40
0
 40
1
 40
1
 40
1
 40
1
 10
482.132944
 20
315.897260
 30
0.0
 10
482.256640
 20
315.819132
 30
0.0
 10
482.406379
 20
315.763793
 30
0.0
 10
482.582160
 20
315.731244
 30
0.0
  0
SPLINE
  5
2d4
100
AcDbEntity
  8
Layer_1
 62
6
100
AcDbSpline
 70
8
 71
3
 72
8
 73
4
 74
0
 40
0
 40
0
 40
0
 40
0
 40
1
 40
1
 40
1
 40
1
 10
482.582160
 20
315.731244
 30
0.0
 10
482.757941
 20
315.701964
 30
0.0
 10
483.024869
 20
315.687324
 30
0.0
 10
483.382944
 20
315.687324
 30
0.0
  0
LWPOLYLINE
  5
2d5
100
AcDbEntity
  8
Layer_1
 62
6
100
AcDbPolyline
 90
12
 70
1
 10
479.881968
 20
312.249796
 30
0.0
 10
479.881968
 20
309.149212
 30
0.0
 10
481.454232
 20
309.149212
 30
0.0
 10
481.454232
 20
311.971476
 30
0.0
 10
482.723760
 20
311.971476
 30
0.0
 10
482.723760
 20
309.149212
 30
0.0
 10
485.902472
 20
309.149212
 30
0.0
 10
485.902472
 20
307.708780
 30
0.0
 10
478.612432
 20
307.708780
 30
0.0
 10
478.612432
 20
312.249796
 30
0.0
 10
479.881968
 20
312.249796
 30
0.0
 10
479.881968
 20
312.249796
 30
0.0
  0
SPLINE
  5
2d6
100
AcDbEntity
  8
Layer_1
 62
6
100
AcDbSpline
 70
8
 71
3
 72
8
 73
4
 74
0
 40
0
 40
0
 40
0
 40
0
 40
1
 40
1
 40
1
 40
1
 10
481.283328
 20
315.687324
 30
0.0
 10
480.970832
 20
315.827297
 30
0.0
 10
480.729947
 20
316.042140
 30
0.0
 10
480.560672
 20
316.331852
 30
0.0
  0
SPLINE
  5
2d7
100
AcDbEntity
  8
Layer_1
 62
6
100
AcDbSpline
 70
8
 71
3
 72
8
 73
4
 74
0
 40
0
 40
0
 40
0
 40
0
 40
1
 40
1
 40
1
 40
1
 10
480.560672
 20
316.331852
 30
0.0
 10
480.388149
 20
316.621564
 30
0.0
 10
480.301888
 20
316.960105
 30
0.0
 10
480.301888
 20
317.347476
 30
0.0
  0
SPLINE
  5
2d8
100
AcDbEntity
  8
Layer_1
 62
6
100
AcDbSpline
 70
8
 71
3
 72
8
 73
4
 74
0
 40
0
 40
0
 40
0
 40
0
 40
1
 40
1
 40
1
 40
1
 10
480.301888
 20
317.347476
 30
0.0
 10
480.301888
 20
317.542788
 30
0.0
 10
480.326288
 20
317.733217
 30
0.0
 10
480.375088
 20
317.918764
 30
0.0
  0
SPLINE
  5
2d9
100
AcDbEntity
  8
Layer_1
 62
6
100
AcDbSpline
 70
8
 71
3
 72
8
 73
4
 74
0
 40
0
 40
0
 40
0
 40
0
 40
1
 40
1
 40
1
 40
1
 10
480.375088
 20
317.918764
 30
0.0
 10
480.420688
 20
318.107569
 30
0.0
 10
480.489048
 20
318.286606
 30
0.0
 10
480.580168
 20
318.455876
 30
0.0
  0
LWPOLYLINE
  5
2da
100
AcDbEntity
  8
Layer_1
 62
6
100
AcDbPolyline
 90
6
 70
1
 10
483.382944
 20
315.687324
 30
0.0
 10
485.902472
 20
315.687324
 30
0.0
 10
485.902472
 20
314.256660
 30
0.0
 10
480.433720
 20
314.256660
 30
0.0
 10
480.433720
 20
315.687324
 30
0.0
 10
481.283328
 20
315.687324
 30
0.0
  0
SPLINE
  5
2db
100
AcDbEntity
  8
Layer_1
 62
6
100
AcDbSpline
 70
8
 71
3
 72
8
 73
4
 74
0
 40
0
 40
0
 40
0
 40
0
 40
1
 40
1
 40
1
 40
1
 10
483.334112
 20
322.269324
 30
0.0
 10
483.334112
 20
321.735473
 30
0.0
 10
483.402472
 20
321.362753
 30
0.0
 10
483.539192
 20
321.151164
 30
0.0
  0
SPLINE
  5
2dc
100
AcDbEntity
  8
Layer_1
 62
6
100
AcDbSpline
 70
8
 71
3
 72
8
 73
4
 74
0
 40
0
 40
0
 40
0
 40
0
 40
1
 40
1
 40
1
 40
1
 10
483.539192
 20
321.151164
 30
0.0
 10
483.675912
 20
320.939574
 30
0.0
 10
483.910285
 20
320.833780
 30
0.0
 10
484.242312
 20
320.833780
 30
0.0
  0
SPLINE
  5
2dd
100
AcDbEntity
  8
Layer_1
 62
6
100
AcDbSpline
 70
8
 71
3
 72
8
 73
4
 74
0
 40
0
 40
0
 40
0
 40
0
 40
1
 40
1
 40
1
 40
1
 10
484.242312
 20
320.833780
 30
0.0
 10
484.489709
 20
320.833780
 30
0.0
 10
484.686651
 20
320.907022
 30
0.0
 10
484.833136
 20
321.053508
 30
0.0
  0
SPLINE
  5
2de
100
AcDbEntity
  8
Layer_1
 62
6
100
AcDbSpline
 70
8
 71
3
 72
8
 73
4
 74
0
 40
0
 40
0
 40
0
 40
0
 40
1
 40
1
 40
1
 40
1
 10
484.833136
 20
321.053508
 30
0.0
 10
484.979621
 20
321.199993
 30
0.0
 10
485.052864
 20
321.398561
 30
0.0
 10
485.052864
 20
321.649212
 30
0.0
  0
SPLINE
  5
2df
100
AcDbEntity
  8
Layer_1
 62
6
100
AcDbSpline
 70
8
 71
3
 72
8
 73
4
 74
0
 40
0
 40
0
 40
0
 40
0
 40
1
 40
1
 40
1
 40
1
 10
485.052864
 20
321.649212
 30
0.0
 10
485.052864
 20
322.026817
 30
0.0
 10
484.911261
 20
322.319785
 30
0.0
 10
484.628056
 20
322.528116
 30
0.0
  0
SPLINE
  5
2e0
100
AcDbEntity
  8
Layer_1
 62
6
100
AcDbSpline
 70
8
 71
3
 72
8
 73
4
 74
0
 40
0
 40
0
 40
0
 40
0
 40
1
 40
1
 40
1
 40
1
 10
484.628056
 20
322.528116
 30
0.0
 10
484.341597
 20
322.736452
 30
0.0
 10
483.942835
 20
322.840620
 30
0.0
 10
483.431768
 20
322.840620
 30
0.0
  0
LWPOLYLINE
  5
2e1
100
AcDbEntity
  8
Layer_1
 62
6
100
AcDbPolyline
 90
3
 70
1
 10
480.580168
 20
318.455876
 30
0.0
 10
481.942472
 20
318.455876
 30
0.0
 10
481.942512
 20
318.455852
 30
0.0
  0
LWPOLYLINE
  5
2e2
100
AcDbEntity
  8
Layer_1
 62
6
100
AcDbPolyline
 90
4
 70
1
 10
483.431768
 20
322.840620
 30
0.0
 10
483.334112
 20
322.840620
 30
0.0
 10
483.334112
 20
322.269324
 30
0.0
 10
483.334112
 20
322.269324
 30
0.0
  0
SPLINE
  5
2e3
100
AcDbEntity
  8
Layer_1
 62
6
100
AcDbSpline
 70
8
 71
3
 72
8
 73
4
 74
0
 40
0
 40
0
 40
0
 40
0
 40
1
 40
1
 40
1
 40
1
 10
485.292120
 20
322.840620
 30
0.0
 10
485.533005
 20
322.668092
 30
0.0
 10
485.718552
 20
322.446737
 30
0.0
 10
485.848760
 20
322.176556
 30
0.0
  0
SPLINE
  5
2e4
100
AcDbEntity
  8
Layer_1
 62
6
100
AcDbSpline
 70
8
 71
3
 72
8
 73
4
 74
0
 40
0
 40
0
 40
0
 40
0
 40
1
 40
1
 40
1
 40
1
 10
485.848760
 20
322.176556
 30
0.0
 10
485.978968
 20
321.906374
 30
0.0
 10
486.044072
 20
321.608521
 30
0.0
 10
486.044072
 20
321.282996
 30
0.0
  0
SPLINE
  5
2e5
100
AcDbEntity
  8
Layer_1
 62
6
100
AcDbSpline
 70
8
 71
3
 72
8
 73
4
 74
0
 40
0
 40
0
 40
0
 40
0
 40
1
 40
1
 40
1
 40
1
 10
486.044072
 20
321.282996
 30
0.0
 10
486.044072
 20
320.661252
 30
0.0
 10
485.879685
 20
320.176228
 30
0.0
 10
485.550912
 20
319.827924
 30
0.0
  0
SPLINE
  5
2e6
100
AcDbEntity
  8
Layer_1
 62
6
100
AcDbSpline
 70
8
 71
3
 72
8
 73
4
 74
0
 40
0
 40
0
 40
0
 40
0
 40
1
 40
1
 40
1
 40
1
 10
485.550912
 20
319.827924
 30
0.0
 10
485.222133
 20
319.482868
 30
0.0
 10
484.763149
 20
319.310340
 30
0.0
 10
484.173960
 20
319.310340
 30
0.0
  0
SPLINE
  5
2e7
100
AcDbEntity
  8
Layer_1
 62
6
100
AcDbSpline
 70
8
 71
3
 72
8
 73
4
 74
0
 40
0
 40
0
 40
0
 40
0
 40
1
 40
1
 40
1
 40
1
 10
484.173960
 20
319.310340
 30
0.0
 10
483.535939
 20
319.310340
 30
0.0
 10
483.065560
 20
319.517046
 30
0.0
 10
482.762824
 20
319.930460
 30
0.0
  0
SPLINE
  5
2e8
100
AcDbEntity
  8
Layer_1
 62
6
100
AcDbSpline
 70
8
 71
3
 72
8
 73
4
 74
0
 40
0
 40
0
 40
0
 40
0
 40
1
 40
1
 40
1
 40
1
 10
482.762824
 20
319.930460
 30
0.0
 10
482.456835
 20
320.343873
 30
0.0
 10
482.303840
 20
320.983521
 30
0.0
 10
482.303840
 20
321.849404
 30
0.0
  0
LWPOLYLINE
  5
2e9
100
AcDbEntity
  8
Layer_1
 62
6
100
AcDbPolyline
 90
4
 70
1
 10
482.782352
 20
324.261516
 30
0.0
 10
485.902472
 20
324.261516
 30
0.0
 10
485.902472
 20
322.840620
 30
0.0
 10
485.292120
 20
322.840620
 30
0.0
  0
SPLINE
  5
2ea
100
AcDbEntity
  8
Layer_1
 62
6
100
AcDbSpline
 70
8
 71
3
 72
8
 73
4
 74
0
 40
0
 40
0
 40
0
 40
0
 40
1
 40
1
 40
1
 40
1
 10
482.064584
 20
322.840620
 30
0.0
 10
481.833464
 20
322.840620
 30
0.0
 10
481.659309
 20
322.755982
 30
0.0
 10
481.542120
 20
322.586708
 30
0.0
  0
SPLINE
  5
2eb
100
AcDbEntity
  8
Layer_1
 62
6
100
AcDbSpline
 70
8
 71
3
 72
8
 73
4
 74
0
 40
0
 40
0
 40
0
 40
0
 40
1
 40
1
 40
1
 40
1
 10
481.542120
 20
322.586708
 30
0.0
 10
481.421677
 20
322.420692
 30
0.0
 10
481.361456
 20
322.174924
 30
0.0
 10
481.361456
 20
321.849404
 30
0.0
  0
SPLINE
  5
2ec
100
AcDbEntity
  8
Layer_1
 62
6
100
AcDbSpline
 70
8
 71
3
 72
8
 73
4
 74
0
 40
0
 40
0
 40
0
 40
0
 40
1
 40
1
 40
1
 40
1
 10
481.361456
 20
321.849404
 30
0.0
 10
481.361456
 20
321.507606
 30
0.0
 10
481.405403
 20
321.175577
 30
0.0
 10
481.493296
 20
320.853316
 30
0.0
  0
SPLINE
  5
2ed
100
AcDbEntity
  8
Layer_1
 62
6
100
AcDbSpline
 70
8
 71
3
 72
8
 73
4
 74
0
 40
0
 40
0
 40
0
 40
0
 40
1
 40
1
 40
1
 40
1
 10
481.493296
 20
320.853316
 30
0.0
 10
481.577931
 20
320.534302
 30
0.0
 10
481.714648
 20
320.200641
 30
0.0
 10
481.903448
 20
319.852332
 30
0.0
  0
LWPOLYLINE
  5
2ee
100
AcDbEntity
  8
Layer_1
 62
6
100
AcDbPolyline
 90
3
 70
1
 10
482.303840
 20
321.849404
 30
0.0
 10
482.303840
 20
322.840620
 30
0.0
 10
482.064584
 20
322.840620
 30
0.0
  0
SPLINE
  5
2ef
100
AcDbEntity
  8
Layer_1
 62
6
100
AcDbSpline
 70
8
 71
3
 72
8
 73
4
 74
0
 40
0
 40
0
 40
0
 40
0
 40
1
 40
1
 40
1
 40
1
 10
480.682744
 20
319.852332
 30
0.0
 10
480.552536
 20
320.168092
 30
0.0
 10
480.456507
 20
320.488732
 30
0.0
 10
480.394656
 20
320.814252
 30
0.0
  0
SPLINE
  5
2f0
100
AcDbEntity
  8
Layer_1
 62
6
100
AcDbSpline
 70
8
 71
3
 72
8
 73
4
 74
0
 40
0
 40
0
 40
0
 40
0
 40
1
 40
1
 40
1
 40
1
 10
480.394656
 20
320.814252
 30
0.0
 10
480.332811
 20
321.139772
 30
0.0
 10
480.301888
 20
321.484822
 30
0.0
 10
480.301888
 20
321.849404
 30
0.0
  0
SPLINE
  5
2f1
100
AcDbEntity
  8
Layer_1
 62
6
100
AcDbSpline
 70
8
 71
3
 72
8
 73
4
 74
0
 40
0
 40
0
 40
0
 40
0
 40
1
 40
1
 40
1
 40
1
 10
480.301888
 20
321.849404
 30
0.0
 10
480.301888
 20
322.738076
 30
0.0
 10
480.482552
 20
323.361449
 30
0.0
 10
480.843880
 20
323.719524
 30
0.0
  0
SPLINE
  5
2f2
100
AcDbEntity
  8
Layer_1
 62
6
100
AcDbSpline
 70
8
 71
3
 72
8
 73
4
 74
0
 40
0
 40
0
 40
0
 40
0
 40
1
 40
1
 40
1
 40
1
 10
480.843880
 20
323.719524
 30
0.0
 10
481.205208
 20
324.080852
 30
0.0
 10
481.851365
 20
324.261516
 30
0.0
 10
482.782352
 20
324.261516
 30
0.0
  0
LWPOLYLINE
  5
2f3
100
AcDbEntity
  8
Layer_1
 62
6
100
AcDbPolyline
 90
2
 70
1
 10
481.903448
 20
319.852332
 30
0.0
 10
480.682744
 20
319.852332
 30
0.0
  0
SPLINE
  5
2f4
100
AcDbEntity
  8
Layer_1
 62
6
100
AcDbSpline
 70
8
 71
3
 72
8
 73
4
 74
0
 40
0
 40
0
 40
0
 40
0
 40
1
 40
1
 40
1
 40
1
 10
480.980600
 20
328.236124
 30
0.0
 10
480.749480
 20
328.343548
 30
0.0
 10
480.578581
 20
328.480268
 30
0.0
 10
480.467904
 20
328.646284
 30
0.0
  0
SPLINE
  5
2f5
100
AcDbEntity
  8
Layer_1
 62
6
100
AcDbSpline
 70
8
 71
3
 72
8
 73
4
 74
0
 40
0
 40
0
 40
0
 40
0
 40
1
 40
1
 40
1
 40
1
 10
480.467904
 20
328.646284
 30
0.0
 10
480.357227
 20
328.812300
 30
0.0
 10
480.301888
 20
329.015750
 30
0.0
 10
480.301888
 20
329.256636
 30
0.0
  0
SPLINE
  5
2f6
100
AcDbEntity
  8
Layer_1
 62
6
100
AcDbSpline
 70
8
 71
3
 72
8
 73
4
 74
0
 40
0
 40
0
 40
0
 40
0
 40
1
 40
1
 40
1
 40
1
 10
480.301888
 20
329.256636
 30
0.0
 10
480.301888
 20
329.728641
 30
0.0
 10
480.464648
 20
330.054161
 30
0.0
 10
480.790168
 20
330.233196
 30
0.0
  0
SPLINE
  5
2f7
100
AcDbEntity
  8
Layer_1
 62
6
100
AcDbSpline
 70
8
 71
3
 72
8
 73
4
 74
0
 40
0
 40
0
 40
0
 40
0
 40
1
 40
1
 40
1
 40
1
 10
480.790168
 20
330.233196
 30
0.0
 10
481.115688
 20
330.415489
 30
0.0
 10
481.792771
 20
330.506636
 30
0.0
 10
482.821416
 20
330.506636
 30
0.0
  0
LWPOLYLINE
  5
2f8
100
AcDbEntity
  8
Layer_1
 62
6
100
AcDbPolyline
 90
2
 70
1
 10
482.782352
 20
324.261516
 30
0.0
 10
482.782352
 20
324.261516
 30
0.0
  0
SPLINE
  5
2f9
100
AcDbEntity
  8
Layer_1
 62
6
100
AcDbSpline
 70
8
 71
3
 72
8
 73
4
 74
0
 40
0
 40
0
 40
0
 40
0
 40
1
 40
1
 40
1
 40
1
 10
482.391728
 20
329.334756
 30
0.0
 10
481.984827
 20
329.334756
 30
0.0
 10
481.713019
 20
329.303830
 30
0.0
 10
481.576304
 20
329.241980
 30
0.0
  0
SPLINE
  5
2fa
100
AcDbEntity
  8
Layer_1
 62
6
100
AcDbSpline
 70
8
 71
3
 72
8
 73
4
 74
0
 40
0
 40
0
 40
0
 40
0
 40
1
 40
1
 40
1
 40
1
 10
481.576304
 20
329.241980
 30
0.0
 10
481.439584
 20
329.180134
 30
0.0
 10
481.371224
 20
329.067830
 30
0.0
 10
481.371224
 20
328.905068
 30
0.0
  0
SPLINE
  5
2fb
100
AcDbEntity
  8
Layer_1
 62
6
100
AcDbSpline
 70
8
 71
3
 72
8
 73
4
 74
0
 40
0
 40
0
 40
0
 40
0
 40
1
 40
1
 40
1
 40
1
 10
481.371224
 20
328.905068
 30
0.0
 10
481.371224
 20
328.742310
 30
0.0
 10
481.441211
 20
328.628380
 30
0.0
 10
481.581184
 20
328.563276
 30
0.0
  0
SPLINE
  5
2fc
100
AcDbEntity
  8
Layer_1
 62
6
100
AcDbSpline
 70
8
 71
3
 72
8
 73
4
 74
0
 40
0
 40
0
 40
0
 40
0
 40
1
 40
1
 40
1
 40
1
 10
481.581184
 20
328.563276
 30
0.0
 10
481.721157
 20
328.498172
 30
0.0
 10
481.991339
 20
328.465620
 30
0.0
 10
482.391728
 20
328.465620
 30
0.0
  0
LWPOLYLINE
  5
2fd
100
AcDbEntity
  8
Layer_1
 62
6
100
AcDbPolyline
 90
4
 70
1
 10
482.821416
 20
330.506636
 30
0.0
 10
485.902472
 20
330.506636
 30
0.0
 10
485.902472
 20
329.334756
 30
0.0
 10
482.391728
 20
329.334756
 30
0.0
  0
SPLINE
  5
2fe
100
AcDbEntity
  8
Layer_1
 62
6
100
AcDbSpline
 70
8
 71
3
 72
8
 73
4
 74
0
 40
0
 40
0
 40
0
 40
0
 40
1
 40
1
 40
1
 40
1
 10
482.391728
 20
327.308388
 30
0.0
 10
481.991339
 20
327.308388
 30
0.0
 10
481.721157
 20
327.275836
 30
0.0
 10
481.581184
 20
327.210732
 30
0.0
  0
SPLINE
  5
2ff
100
AcDbEntity
  8
Layer_1
 62
6
100
AcDbSpline
 70
8
 71
3
 72
8
 73
4
 74
0
 40
0
 40
0
 40
0
 40
0
 40
1
 40
1
 40
1
 40
1
 10
481.581184
 20
327.210732
 30
0.0
 10
481.441211
 20
327.145628
 30
0.0
 10
481.371224
 20
327.031697
 30
0.0
 10
481.371224
 20
326.868940
 30
0.0
  0
SPLINE
  5
300
100
AcDbEntity
  8
Layer_1
 62
6
100
AcDbSpline
 70
8
 71
3
 72
8
 73
4
 74
0
 40
0
 40
0
 40
0
 40
0
 40
1
 40
1
 40
1
 40
1
 10
481.371224
 20
326.868940
 30
0.0
 10
481.371224
 20
326.706177
 30
0.0
 10
481.439584
 20
326.593870
 30
0.0
 10
481.576304
 20
326.532020
 30
0.0
  0
SPLINE
  5
301
100
AcDbEntity
  8
Layer_1
 62
6
100
AcDbSpline
 70
8
 71
3
 72
8
 73
4
 74
0
 40
0
 40
0
 40
0
 40
0
 40
1
 40
1
 40
1
 40
1
 10
481.576304
 20
326.532020
 30
0.0
 10
481.713019
 20
326.470174
 30
0.0
 10
481.984827
 20
326.439252
 30
0.0
 10
482.391728
 20
326.439252
 30
0.0
  0
LWPOLYLINE
  5
302
100
AcDbEntity
  8
Layer_1
 62
6
100
AcDbPolyline
 90
4
 70
1
 10
482.391728
 20
328.465620
 30
0.0
 10
485.902472
 20
328.465620
 30
0.0
 10
485.902472
 20
327.308388
 30
0.0
 10
482.391728
 20
327.308388
 30
0.0
  0
SPLINE
  5
303
100
AcDbEntity
  8
Layer_1
 62
6
100
AcDbSpline
 70
8
 71
3
 72
8
 73
4
 74
0
 40
0
 40
0
 40
0
 40
0
 40
1
 40
1
 40
1
 40
1
 10
481.000128
 20
326.307412
 30
0.0
 10
480.785285
 20
326.388793
 30
0.0
 10
480.616013
 20
326.519001
 30
0.0
 10
480.492312
 20
326.698036
 30
0.0
  0
SPLINE
  5
304
100
AcDbEntity
  8
Layer_1
 62
6
100
AcDbSpline
 70
8
 71
3
 72
8
 73
4
 74
0
 40
0
 40
0
 40
0
 40
0
 40
1
 40
1
 40
1
 40
1
 10
480.492312
 20
326.698036
 30
0.0
 10
480.365363
 20
326.877076
 30
0.0
 10
480.301888
 20
327.077273
 30
0.0
 10
480.301888
 20
327.298628
 30
0.0
  0
SPLINE
  5
305
100
AcDbEntity
  8
Layer_1
 62
6
100
AcDbSpline
 70
8
 71
3
 72
8
 73
4
 74
0
 40
0
 40
0
 40
0
 40
0
 40
1
 40
1
 40
1
 40
1
 10
480.301888
 20
327.298628
 30
0.0
 10
480.301888
 20
327.519977
 30
0.0
 10
480.368619
 20
327.721798
 30
0.0
 10
480.502080
 20
327.904092
 30
0.0
  0
SPLINE
  5
306
100
AcDbEntity
  8
Layer_1
 62
6
100
AcDbSpline
 70
8
 71
3
 72
8
 73
4
 74
0
 40
0
 40
0
 40
0
 40
0
 40
1
 40
1
 40
1
 40
1
 10
480.502080
 20
327.904092
 30
0.0
 10
480.632288
 20
328.086385
 30
0.0
 10
480.791795
 20
328.197062
 30
0.0
 10
480.980600
 20
328.236124
 30
0.0
  0
LWPOLYLINE
  5
307
100
AcDbEntity
  8
Layer_1
 62
6
100
AcDbPolyline
 90
6
 70
1
 10
482.391728
 20
326.439252
 30
0.0
 10
485.902472
 20
326.439252
 30
0.0
 10
485.902472
 20
325.267372
 30
0.0
 10
480.433720
 20
325.267372
 30
0.0
 10
480.433720
 20
326.307412
 30
0.0
 10
481.000128
 20
326.307412
 30
0.0
  0
SPLINE
  5
308
100
AcDbEntity
  8
Layer_1
 62
6
100
AcDbSpline
 70
8
 71
3
 72
8
 73
4
 74
0
 40
0
 40
0
 40
0
 40
0
 40
1
 40
1
 40
1
 40
1
 10
485.633920
 20
336.263468
 30
0.0
 10
485.770635
 20
335.931436
 30
0.0
 10
485.873173
 20
335.592894
 30
0.0
 10
485.941536
 20
335.247844
 30
0.0
  0
SPLINE
  5
309
100
AcDbEntity
  8
Layer_1
 62
6
100
AcDbSpline
 70
8
 71
3
 72
8
 73
4
 74
0
 40
0
 40
0
 40
0
 40
0
 40
1
 40
1
 40
1
 40
1
 10
485.941536
 20
335.247844
 30
0.0
 10
486.009893
 20
334.902793
 30
0.0
 10
486.044072
 20
334.538209
 30
0.0
 10
486.044072
 20
334.154092
 30
0.0
  0
SPLINE
  5
30a
100
AcDbEntity
  8
Layer_1
 62
6
100
AcDbSpline
 70
8
 71
3
 72
8
 73
4
 74
0
 40
0
 40
0
 40
0
 40
0
 40
1
 40
1
 40
1
 40
1
 10
486.044072
 20
334.154092
 30
0.0
 10
486.044072
 20
333.239377
 30
0.0
 10
485.799931
 20
332.539508
 30
0.0
 10
485.311648
 20
332.054484
 30
0.0
  0
SPLINE
  5
30b
100
AcDbEntity
  8
Layer_1
 62
6
100
AcDbSpline
 70
8
 71
3
 72
8
 73
4
 74
0
 40
0
 40
0
 40
0
 40
0
 40
1
 40
1
 40
1
 40
1
 10
485.311648
 20
332.054484
 30
0.0
 10
484.820112
 20
331.572713
 30
0.0
 10
484.113733
 20
331.331828
 30
0.0
 10
483.192512
 20
331.331828
 30
0.0
  0
SPLINE
  5
30c
100
AcDbEntity
  8
Layer_1
 62
6
100
AcDbSpline
 70
8
 71
3
 72
8
 73
4
 74
0
 40
0
 40
0
 40
0
 40
0
 40
1
 40
1
 40
1
 40
1
 10
483.192512
 20
331.331828
 30
0.0
 10
482.300587
 20
331.331828
 30
0.0
 10
481.595835
 20
331.564574
 30
0.0
 10
481.078256
 20
332.030068
 30
0.0
  0
SPLINE
  5
30d
100
AcDbEntity
  8
Layer_1
 62
6
100
AcDbSpline
 70
8
 71
3
 72
8
 73
4
 74
0
 40
0
 40
0
 40
0
 40
0
 40
1
 40
1
 40
1
 40
1
 10
481.078256
 20
332.030068
 30
0.0
 10
480.560677
 20
332.495566
 30
0.0
 10
480.301888
 20
333.130332
 30
0.0
 10
480.301888
 20
333.934364
 30
0.0
  0
SPLINE
  5
30e
100
AcDbEntity
  8
Layer_1
 62
6
100
AcDbSpline
 70
8
 71
3
 72
8
 73
4
 74
0
 40
0
 40
0
 40
0
 40
0
 40
1
 40
1
 40
1
 40
1
 10
480.301888
 20
333.934364
 30
0.0
 10
480.301888
 20
334.744913
 30
0.0
 10
480.542773
 20
335.373169
 30
0.0
 10
481.024544
 20
335.819132
 30
0.0
  0
SPLINE
  5
30f
100
AcDbEntity
  8
Layer_1
 62
6
100
AcDbSpline
 70
8
 71
3
 72
8
 73
4
 74
0
 40
0
 40
0
 40
0
 40
0
 40
1
 40
1
 40
1
 40
1
 10
481.024544
 20
335.819132
 30
0.0
 10
481.503056
 20
336.268353
 30
0.0
 10
482.178512
 20
336.492964
 30
0.0
 10
483.050912
 20
336.492964
 30
0.0
  0
LWPOLYLINE
  5
310
100
AcDbEntity
  8
Layer_1
 62
6
100
AcDbPolyline
 90
2
 70
1
 10
480.980600
 20
328.236124
 30
0.0
 10
480.980600
 20
328.236124
 30
0.0
  0
SPLINE
  5
311
100
AcDbEntity
  8
Layer_1
 62
6
100
AcDbSpline
 70
8
 71
3
 72
8
 73
4
 74
0
 40
0
 40
0
 40
0
 40
0
 40
1
 40
1
 40
1
 40
1
 10
483.631968
 20
332.786908
 30
0.0
 10
484.061653
 20
332.790108
 30
0.0
 10
484.382291
 20
332.917060
 30
0.0
 10
484.593880
 20
333.167764
 30
0.0
  0
SPLINE
  5
312
100
AcDbEntity
  8
Layer_1
 62
6
100
AcDbSpline
 70
8
 71
3
 72
8
 73
4
 74
0
 40
0
 40
0
 40
0
 40
0
 40
1
 40
1
 40
1
 40
1
 10
484.593880
 20
333.167764
 30
0.0
 10
484.805469
 20
333.418414
 30
0.0
 10
484.911264
 20
333.792764
 30
0.0
 10
484.911264
 20
334.290812
 30
0.0
  0
SPLINE
  5
313
100
AcDbEntity
  8
Layer_1
 62
6
100
AcDbSpline
 70
8
 71
3
 72
8
 73
4
 74
0
 40
0
 40
0
 40
0
 40
0
 40
1
 40
1
 40
1
 40
1
 10
484.911264
 20
334.290812
 30
0.0
 10
484.911264
 20
334.619590
 30
0.0
 10
484.864061
 20
334.943484
 30
0.0
 10
484.769656
 20
335.262492
 30
0.0
  0
SPLINE
  5
314
100
AcDbEntity
  8
Layer_1
 62
6
100
AcDbSpline
 70
8
 71
3
 72
8
 73
4
 74
0
 40
0
 40
0
 40
0
 40
0
 40
1
 40
1
 40
1
 40
1
 10
484.769656
 20
335.262492
 30
0.0
 10
484.675256
 20
335.581500
 30
0.0
 10
484.525517
 20
335.915158
 30
0.0
 10
484.320440
 20
336.263468
 30
0.0
  0
LWPOLYLINE
  5
315
100
AcDbEntity
  8
Layer_1
 62
6
100
AcDbPolyline
 90
3
 70
1
 10
483.050912
 20
336.492964
 30
0.0
 10
483.631968
 20
336.492964
 30
0.0
 10
483.631968
 20
332.786908
 30
0.0
  0
SPLINE
  5
316
100
AcDbEntity
  8
Layer_1
 62
6
100
AcDbSpline
 70
8
 71
3
 72
8
 73
4
 74
0
 40
0
 40
0
 40
0
 40
0
 40
1
 40
1
 40
1
 40
1
 10
482.557744
 20
335.052532
 30
0.0
 10
482.180139
 20
335.046025
 30
0.0
 10
481.895309
 20
334.948369
 30
0.0
 10
481.703256
 20
334.759564
 30
0.0
  0
SPLINE
  5
317
100
AcDbEntity
  8
Layer_1
 62
6
100
AcDbSpline
 70
8
 71
3
 72
8
 73
4
 74
0
 40
0
 40
0
 40
0
 40
0
 40
1
 40
1
 40
1
 40
1
 10
481.703256
 20
334.759564
 30
0.0
 10
481.507944
 20
334.574017
 30
0.0
 10
481.410288
 20
334.298950
 30
0.0
 10
481.410288
 20
333.934364
 30
0.0
  0
SPLINE
  5
318
100
AcDbEntity
  8
Layer_1
 62
6
100
AcDbSpline
 70
8
 71
3
 72
8
 73
4
 74
0
 40
0
 40
0
 40
0
 40
0
 40
1
 40
1
 40
1
 40
1
 10
481.410288
 20
333.934364
 30
0.0
 10
481.410288
 20
333.605590
 30
0.0
 10
481.511197
 20
333.343548
 30
0.0
 10
481.713016
 20
333.148236
 30
0.0
  0
SPLINE
  5
319
100
AcDbEntity
  8
Layer_1
 62
6
100
AcDbSpline
 70
8
 71
3
 72
8
 73
4
 74
0
 40
0
 40
0
 40
0
 40
0
 40
1
 40
1
 40
1
 40
1
 10
481.713016
 20
333.148236
 30
0.0
 10
481.911587
 20
332.952924
 30
0.0
 10
482.194792
 20
332.837364
 30
0.0
 10
482.562632
 20
332.801556
 30
0.0
  0
LWPOLYLINE
  5
31a
100
AcDbEntity
  8
Layer_1
 62
6
100
AcDbPolyline
 90
3
 70
1
 10
484.320440
 20
336.263468
 30
0.0
 10
485.633920
 20
336.263468
 30
0.0
 10
485.633920
 20
336.263468
 30
0.0
  0
LWPOLYLINE
  5
31b
100
AcDbEntity
  8
Layer_1
 62
6
100
AcDbPolyline
 90
3
 70
1
 10
482.562632
 20
332.801556
 30
0.0
 10
482.557832
 20
335.052532
 30
0.0
 10
482.557744
 20
335.052532
 30
0.0
  0
SPLINE
  5
31c
100
AcDbEntity
  8
Layer_1
 62
6
100
AcDbSpline
 70
8
 71
3
 72
8
 73
4
 74
0
 40
0
 40
0
 40
0
 40
0
 40
1
 40
1
 40
1
 40
1
 10
481.463992
 20
351.937300
 30
0.0
 10
481.463992
 20
351.595502
 30
0.0
 10
481.615360
 20
351.326948
 30
0.0
 10
481.918096
 20
351.131636
 30
0.0
  0
SPLINE
  5
31d
100
AcDbEntity
  8
Layer_1
 62
6
100
AcDbSpline
 70
8
 71
3
 72
8
 73
4
 74
0
 40
0
 40
0
 40
0
 40
0
 40
1
 40
1
 40
1
 40
1
 10
481.918096
 20
351.131636
 30
0.0
 10
482.217573
 20
350.936318
 30
0.0
 10
482.635869
 20
350.838660
 30
0.0
 10
483.172984
 20
350.838660
 30
0.0
  0
SPLINE
  5
31e
100
AcDbEntity
  8
Layer_1
 62
6
100
AcDbSpline
 70
8
 71
3
 72
8
 73
4
 74
0
 40
0
 40
0
 40
0
 40
0
 40
1
 40
1
 40
1
 40
1
 10
483.172984
 20
350.838660
 30
0.0
 10
483.710093
 20
350.838660
 30
0.0
 10
484.130013
 20
350.936318
 30
0.0
 10
484.432744
 20
351.131636
 30
0.0
  0
SPLINE
  5
31f
100
AcDbEntity
  8
Layer_1
 62
6
100
AcDbSpline
 70
8
 71
3
 72
8
 73
4
 74
0
 40
0
 40
0
 40
0
 40
0
 40
1
 40
1
 40
1
 40
1
 10
484.432744
 20
351.131636
 30
0.0
 10
484.732227
 20
351.326948
 30
0.0
 10
484.881968
 20
351.595502
 30
0.0
 10
484.881968
 20
351.937300
 30
0.0
  0
SPLINE
  5
320
100
AcDbEntity
  8
Layer_1
 62
6
100
AcDbSpline
 70
8
 71
3
 72
8
 73
4
 74
0
 40
0
 40
0
 40
0
 40
0
 40
1
 40
1
 40
1
 40
1
 10
484.881968
 20
351.937300
 30
0.0
 10
484.881968
 20
352.282350
 30
0.0
 10
484.732227
 20
352.552532
 30
0.0
 10
484.432744
 20
352.747844
 30
0.0
  0
SPLINE
  5
321
100
AcDbEntity
  8
Layer_1
 62
6
100
AcDbSpline
 70
8
 71
3
 72
8
 73
4
 74
0
 40
0
 40
0
 40
0
 40
0
 40
1
 40
1
 40
1
 40
1
 10
484.432744
 20
352.747844
 30
0.0
 10
484.130013
 20
352.943156
 30
0.0
 10
483.710093
 20
353.040812
 30
0.0
 10
483.172984
 20
353.040812
 30
0.0
  0
SPLINE
  5
322
100
AcDbEntity
  8
Layer_1
 62
6
100
AcDbSpline
 70
8
 71
3
 72
8
 73
4
 74
0
 40
0
 40
0
 40
0
 40
0
 40
1
 40
1
 40
1
 40
1
 10
483.172984
 20
353.040812
 30
0.0
 10
482.635869
 20
353.040812
 30
0.0
 10
482.217573
 20
352.943156
 30
0.0
 10
481.918096
 20
352.747844
 30
0.0
  0
SPLINE
  5
323
100
AcDbEntity
  8
Layer_1
 62
6
100
AcDbSpline
 70
8
 71
3
 72
8
 73
4
 74
0
 40
0
 40
0
 40
0
 40
0
 40
1
 40
1
 40
1
 40
1
 10
481.918096
 20
352.747844
 30
0.0
 10
481.615360
 20
352.552532
 30
0.0
 10
481.463992
 20
352.282350
 30
0.0
 10
481.463992
 20
351.937300
 30
0.0
  0
LWPOLYLINE
  5
324
100
AcDbEntity
  8
Layer_1
 62
6
100
AcDbPolyline
 90
8
 70
1
 10
485.902472
 20
344.012492
 30
0.0
 10
478.612432
 20
344.012492
 30
0.0
 10
478.612432
 20
345.452924
 30
0.0
 10
484.632944
 20
345.452924
 30
0.0
 10
484.632944
 20
348.533980
 30
0.0
 10
485.902472
 20
348.533980
 30
0.0
 10
485.902472
 20
344.012492
 30
0.0
 10
485.902472
 20
344.012492
 30
0.0
  0
SPLINE
  5
325
100
AcDbEntity
  8
Layer_1
 62
6
100
AcDbSpline
 70
8
 71
3
 72
8
 73
4
 74
0
 40
0
 40
0
 40
0
 40
0
 40
1
 40
1
 40
1
 40
1
 10
483.172984
 20
349.407996
 30
0.0
 10
482.290819
 20
349.407996
 30
0.0
 10
481.592576
 20
349.635862
 30
0.0
 10
481.078256
 20
350.091596
 30
0.0
  0
SPLINE
  5
326
100
AcDbEntity
  8
Layer_1
 62
6
100
AcDbSpline
 70
8
 71
3
 72
8
 73
4
 74
0
 40
0
 40
0
 40
0
 40
0
 40
1
 40
1
 40
1
 40
1
 10
481.078256
 20
350.091596
 30
0.0
 10
480.560677
 20
350.550577
 30
0.0
 10
480.301888
 20
351.165812
 30
0.0
 10
480.301888
 20
351.937300
 30
0.0
  0
SPLINE
  5
327
100
AcDbEntity
  8
Layer_1
 62
6
100
AcDbSpline
 70
8
 71
3
 72
8
 73
4
 74
0
 40
0
 40
0
 40
0
 40
0
 40
1
 40
1
 40
1
 40
1
 10
480.301888
 20
351.937300
 30
0.0
 10
480.301888
 20
352.712036
 30
0.0
 10
480.560677
 20
353.327268
 30
0.0
 10
481.078256
 20
353.782996
 30
0.0
  0
SPLINE
  5
328
100
AcDbEntity
  8
Layer_1
 62
6
100
AcDbSpline
 70
8
 71
3
 72
8
 73
4
 74
0
 40
0
 40
0
 40
0
 40
0
 40
1
 40
1
 40
1
 40
1
 10
481.078256
 20
353.782996
 30
0.0
 10
481.592576
 20
354.241982
 30
0.0
 10
482.290819
 20
354.471476
 30
0.0
 10
483.172984
 20
354.471476
 30
0.0
  0
SPLINE
  5
329
100
AcDbEntity
  8
Layer_1
 62
6
100
AcDbSpline
 70
8
 71
3
 72
8
 73
4
 74
0
 40
0
 40
0
 40
0
 40
0
 40
1
 40
1
 40
1
 40
1
 10
483.172984
 20
354.471476
 30
0.0
 10
484.055144
 20
354.471476
 30
0.0
 10
484.755013
 20
354.241982
 30
0.0
 10
485.272592
 20
353.782996
 30
0.0
  0
SPLINE
  5
32a
100
AcDbEntity
  8
Layer_1
 62
6
100
AcDbSpline
 70
8
 71
3
 72
8
 73
4
 74
0
 40
0
 40
0
 40
0
 40
0
 40
1
 40
1
 40
1
 40
1
 10
485.272592
 20
353.782996
 30
0.0
 10
485.786912
 20
353.327268
 30
0.0
 10
486.044072
 20
352.712036
 30
0.0
 10
486.044072
 20
351.937300
 30
0.0
  0
SPLINE
  5
32b
100
AcDbEntity
  8
Layer_1
 62
6
100
AcDbSpline
 70
8
 71
3
 72
8
 73
4
 74
0
 40
0
 40
0
 40
0
 40
0
 40
1
 40
1
 40
1
 40
1
 10
486.044072
 20
351.937300
 30
0.0
 10
486.044072
 20
351.165812
 30
0.0
 10
485.786912
 20
350.550577
 30
0.0
 10
485.272592
 20
350.091596
 30
0.0
  0
SPLINE
  5
32c
100
AcDbEntity
  8
Layer_1
 62
6
100
AcDbSpline
 70
8
 71
3
 72
8
 73
4
 74
0
 40
0
 40
0
 40
0
 40
0
 40
1
 40
1
 40
1
 40
1
 10
485.272592
 20
350.091596
 30
0.0
 10
484.755013
 20
349.635862
 30
0.0
 10
484.055144
 20
349.407996
 30
0.0
 10
483.172984
 20
349.407996
 30
0.0
  0
LWPOLYLINE
  5
32d
100
AcDbEntity
  8
Layer_1
 62
6
100
AcDbPolyline
 90
2
 70
1
 10
481.463992
 20
351.937300
 30
0.0
 10
481.463992
 20
351.937300
 30
0.0
  0
SPLINE
  5
32e
100
AcDbEntity
  8
Layer_1
 62
6
100
AcDbSpline
 70
8
 71
3
 72
8
 73
4
 74
0
 40
0
 40
0
 40
0
 40
0
 40
1
 40
1
 40
1
 40
1
 10
481.463992
 20
357.952924
 30
0.0
 10
481.463992
 20
357.611126
 30
0.0
 10
481.615360
 20
357.342572
 30
0.0
 10
481.918096
 20
357.147260
 30
0.0
  0
SPLINE
  5
32f
100
AcDbEntity
  8
Layer_1
 62
6
100
AcDbSpline
 70
8
 71
3
 72
8
 73
4
 74
0
 40
0
 40
0
 40
0
 40
0
 40
1
 40
1
 40
1
 40
1
 10
481.918096
 20
357.147260
 30
0.0
 10
482.217573
 20
356.951948
 30
0.0
 10
482.635869
 20
356.854292
 30
0.0
 10
483.172984
 20
356.854292
 30
0.0
  0
SPLINE
  5
330
100
AcDbEntity
  8
Layer_1
 62
6
100
AcDbSpline
 70
8
 71
3
 72
8
 73
4
 74
0
 40
0
 40
0
 40
0
 40
0
 40
1
 40
1
 40
1
 40
1
 10
483.172984
 20
356.854292
 30
0.0
 10
483.710093
 20
356.854292
 30
0.0
 10
484.130013
 20
356.951948
 30
0.0
 10
484.432744
 20
357.147260
 30
0.0
  0
SPLINE
  5
331
100
AcDbEntity
  8
Layer_1
 62
6
100
AcDbSpline
 70
8
 71
3
 72
8
 73
4
 74
0
 40
0
 40
0
 40
0
 40
0
 40
1
 40
1
 40
1
 40
1
 10
484.432744
 20
357.147260
 30
0.0
 10
484.732227
 20
357.342572
 30
0.0
 10
484.881968
 20
357.611126
 30
0.0
 10
484.881968
 20
357.952924
 30
0.0
  0
SPLINE
  5
332
100
AcDbEntity
  8
Layer_1
 62
6
100
AcDbSpline
 70
8
 71
3
 72
8
 73
4
 74
0
 40
0
 40
0
 40
0
 40
0
 40
1
 40
1
 40
1
 40
1
 10
484.881968
 20
357.952924
 30
0.0
 10
484.881968
 20
358.297974
 30
0.0
 10
484.732227
 20
358.568156
 30
0.0
 10
484.432744
 20
358.763468
 30
0.0
  0
SPLINE
  5
333
100
AcDbEntity
  8
Layer_1
 62
6
100
AcDbSpline
 70
8
 71
3
 72
8
 73
4
 74
0
 40
0
 40
0
 40
0
 40
0
 40
1
 40
1
 40
1
 40
1
 10
484.432744
 20
358.763468
 30
0.0
 10
484.130013
 20
358.958780
 30
0.0
 10
483.710093
 20
359.056436
 30
0.0
 10
483.172984
 20
359.056436
 30
0.0
  0
SPLINE
  5
334
100
AcDbEntity
  8
Layer_1
 62
6
100
AcDbSpline
 70
8
 71
3
 72
8
 73
4
 74
0
 40
0
 40
0
 40
0
 40
0
 40
1
 40
1
 40
1
 40
1
 10
483.172984
 20
359.056436
 30
0.0
 10
482.635869
 20
359.056436
 30
0.0
 10
482.217573
 20
358.958780
 30
0.0
 10
481.918096
 20
358.763468
 30
0.0
  0
SPLINE
  5
335
100
AcDbEntity
  8
Layer_1
 62
6
100
AcDbSpline
 70
8
 71
3
 72
8
 73
4
 74
0
 40
0
 40
0
 40
0
 40
0
 40
1
 40
1
 40
1
 40
1
 10
481.918096
 20
358.763468
 30
0.0
 10
481.615360
 20
358.568156
 30
0.0
 10
481.463992
 20
358.297974
 30
0.0
 10
481.463992
 20
357.952924
 30
0.0
  0
LWPOLYLINE
  5
336
100
AcDbEntity
  8
Layer_1
 62
6
100
AcDbPolyline
 90
2
 70
1
 10
483.172984
 20
349.407996
 30
0.0
 10
483.172984
 20
349.407996
 30
0.0
  0
SPLINE
  5
337
100
AcDbEntity
  8
Layer_1
 62
6
100
AcDbSpline
 70
8
 71
3
 72
8
 73
4
 74
0
 40
0
 40
0
 40
0
 40
0
 40
1
 40
1
 40
1
 40
1
 10
483.172984
 20
355.423628
 30
0.0
 10
482.290819
 20
355.423628
 30
0.0
 10
481.592576
 20
355.651492
 30
0.0
 10
481.078256
 20
356.107220
 30
0.0
  0
SPLINE
  5
338
100
AcDbEntity
  8
Layer_1
 62
6
100
AcDbSpline
 70
8
 71
3
 72
8
 73
4
 74
0
 40
0
 40
0
 40
0
 40
0
 40
1
 40
1
 40
1
 40
1
 10
481.078256
 20
356.107220
 30
0.0
 10
480.560677
 20
356.566201
 30
0.0
 10
480.301888
 20
357.181436
 30
0.0
 10
480.301888
 20
357.952924
 30
0.0
  0
SPLINE
  5
339
100
AcDbEntity
  8
Layer_1
 62
6
100
AcDbSpline
 70
8
 71
3
 72
8
 73
4
 74
0
 40
0
 40
0
 40
0
 40
0
 40
1
 40
1
 40
1
 40
1
 10
480.301888
 20
357.952924
 30
0.0
 10
480.301888
 20
358.727660
 30
0.0
 10
480.560677
 20
359.342894
 30
0.0
 10
481.078256
 20
359.798628
 30
0.0
  0
SPLINE
  5
33a
100
AcDbEntity
  8
Layer_1
 62
6
100
AcDbSpline
 70
8
 71
3
 72
8
 73
4
 74
0
 40
0
 40
0
 40
0
 40
0
 40
1
 40
1
 40
1
 40
1
 10
481.078256
 20
359.798628
 30
0.0
 10
481.592576
 20
360.257609
 30
0.0
 10
482.290819
 20
360.487100
 30
0.0
 10
483.172984
 20
360.487100
 30
0.0
  0
SPLINE
  5
33b
100
AcDbEntity
  8
Layer_1
 62
6
100
AcDbSpline
 70
8
 71
3
 72
8
 73
4
 74
0
 40
0
 40
0
 40
0
 40
0
 40
1
 40
1
 40
1
 40
1
 10
483.172984
 20
360.487100
 30
0.0
 10
484.055144
 20
360.487100
 30
0.0
 10
484.755013
 20
360.257609
 30
0.0
 10
485.272592
 20
359.798628
 30
0.0
  0
SPLINE
  5
33c
100
AcDbEntity
  8
Layer_1
 62
6
100
AcDbSpline
 70
8
 71
3
 72
8
 73
4
 74
0
 40
0
 40
0
 40
0
 40
0
 40
1
 40
1
 40
1
 40
1
 10
485.272592
 20
359.798628
 30
0.0
 10
485.786912
 20
359.342894
 30
0.0
 10
486.044072
 20
358.727660
 30
0.0
 10
486.044072
 20
357.952924
 30
0.0
  0
SPLINE
  5
33d
100
AcDbEntity
  8
Layer_1
 62
6
100
AcDbSpline
 70
8
 71
3
 72
8
 73
4
 74
0
 40
0
 40
0
 40
0
 40
0
 40
1
 40
1
 40
1
 40
1
 10
486.044072
 20
357.952924
 30
0.0
 10
486.044072
 20
357.181436
 30
0.0
 10
485.786912
 20
356.566201
 30
0.0
 10
485.272592
 20
356.107220
 30
0.0
  0
SPLINE
  5
33e
100
AcDbEntity
  8
Layer_1
 62
6
100
AcDbSpline
 70
8
 71
3
 72
8
 73
4
 74
0
 40
0
 40
0
 40
0
 40
0
 40
1
 40
1
 40
1
 40
1
 10
485.272592
 20
356.107220
 30
0.0
 10
484.755013
 20
355.651492
 30
0.0
 10
484.055144
 20
355.423628
 30
0.0
 10
483.172984
 20
355.423628
 30
0.0
  0
LWPOLYLINE
  5
33f
100
AcDbEntity
  8
Layer_1
 62
6
100
AcDbPolyline
 90
2
 70
1
 10
481.463992
 20
357.952924
 30
0.0
 10
481.463992
 20
357.952924
 30
0.0
  0
SPLINE
  5
340
100
AcDbEntity
  8
Layer_1
 62
6
100
AcDbSpline
 70
8
 71
3
 72
8
 73
4
 74
0
 40
0
 40
0
 40
0
 40
0
 40
1
 40
1
 40
1
 40
1
 10
480.980600
 20
364.329876
 30
0.0
 10
480.749480
 20
364.437294
 30
0.0
 10
480.578581
 20
364.574012
 30
0.0
 10
480.467904
 20
364.740028
 30
0.0
  0
SPLINE
  5
341
100
AcDbEntity
  8
Layer_1
 62
6
100
AcDbSpline
 70
8
 71
3
 72
8
 73
4
 74
0
 40
0
 40
0
 40
0
 40
0
 40
1
 40
1
 40
1
 40
1
 10
480.467904
 20
364.740028
 30
0.0
 10
480.357227
 20
364.906044
 30
0.0
 10
480.301888
 20
365.109494
 30
0.0
 10
480.301888
 20
365.350380
 30
0.0
  0
SPLINE
  5
342
100
AcDbEntity
  8
Layer_1
 62
6
100
AcDbSpline
 70
8
 71
3
 72
8
 73
4
 74
0
 40
0
 40
0
 40
0
 40
0
 40
1
 40
1
 40
1
 40
1
 10
480.301888
 20
365.350380
 30
0.0
 10
480.301888
 20
365.822385
 30
0.0
 10
480.464648
 20
366.147908
 30
0.0
 10
480.790168
 20
366.326948
 30
0.0
  0
SPLINE
  5
343
100
AcDbEntity
  8
Layer_1
 62
6
100
AcDbSpline
 70
8
 71
3
 72
8
 73
4
 74
0
 40
0
 40
0
 40
0
 40
0
 40
1
 40
1
 40
1
 40
1
 10
480.790168
 20
366.326948
 30
0.0
 10
481.115688
 20
366.509236
 30
0.0
 10
481.792771
 20
366.600380
 30
0.0
 10
482.821416
 20
366.600380
 30
0.0
  0
LWPOLYLINE
  5
344
100
AcDbEntity
  8
Layer_1
 62
6
100
AcDbPolyline
 90
2
 70
1
 10
483.172984
 20
355.423628
 30
0.0
 10
483.172984
 20
355.423628
 30
0.0
  0
SPLINE
  5
345
100
AcDbEntity
  8
Layer_1
 62
6
100
AcDbSpline
 70
8
 71
3
 72
8
 73
4
 74
0
 40
0
 40
0
 40
0
 40
0
 40
1
 40
1
 40
1
 40
1
 10
482.391728
 20
365.428508
 30
0.0
 10
481.984827
 20
365.428508
 30
0.0
 10
481.713019
 20
365.397582
 30
0.0
 10
481.576304
 20
365.335732
 30
0.0
  0
SPLINE
  5
346
100
AcDbEntity
  8
Layer_1
 62
6
100
AcDbSpline
 70
8
 71
3
 72
8
 73
4
 74
0
 40
0
 40
0
 40
0
 40
0
 40
1
 40
1
 40
1
 40
1
 10
481.576304
 20
365.335732
 30
0.0
 10
481.439584
 20
365.273886
 30
0.0
 10
481.371224
 20
365.161582
 30
0.0
 10
481.371224
 20
364.998820
 30
0.0
  0
SPLINE
  5
347
100
AcDbEntity
  8
Layer_1
 62
6
100
AcDbSpline
 70
8
 71
3
 72
8
 73
4
 74
0
 40
0
 40
0
 40
0
 40
0
 40
1
 40
1
 40
1
 40
1
 10
481.371224
 20
364.998820
 30
0.0
 10
481.371224
 20
364.836057
 30
0.0
 10
481.441211
 20
364.722124
 30
0.0
 10
481.581184
 20
364.657020
 30
0.0
  0
SPLINE
  5
348
100
AcDbEntity
  8
Layer_1
 62
6
100
AcDbSpline
 70
8
 71
3
 72
8
 73
4
 74
0
 40
0
 40
0
 40
0
 40
0
 40
1
 40
1
 40
1
 40
1
 10
481.581184
 20
364.657020
 30
0.0
 10
481.721157
 20
364.591916
 30
0.0
 10
481.991339
 20
364.559364
 30
0.0
 10
482.391728
 20
364.559364
 30
0.0
  0
LWPOLYLINE
  5
349
100
AcDbEntity
  8
Layer_1
 62
6
100
AcDbPolyline
 90
4
 70
1
 10
482.821416
 20
366.600380
 30
0.0
 10
485.902472
 20
366.600380
 30
0.0
 10
485.902472
 20
365.428508
 30
0.0
 10
482.391728
 20
365.428508
 30
0.0
  0
SPLINE
  5
34a
100
AcDbEntity
  8
Layer_1
 62
6
100
AcDbSpline
 70
8
 71
3
 72
8
 73
4
 74
0
 40
0
 40
0
 40
0
 40
0
 40
1
 40
1
 40
1
 40
1
 10
482.391728
 20
363.402140
 30
0.0
 10
481.991339
 20
363.402140
 30
0.0
 10
481.721157
 20
363.369588
 30
0.0
 10
481.581184
 20
363.304484
 30
0.0
  0
SPLINE
  5
34b
100
AcDbEntity
  8
Layer_1
 62
6
100
AcDbSpline
 70
8
 71
3
 72
8
 73
4
 74
0
 40
0
 40
0
 40
0
 40
0
 40
1
 40
1
 40
1
 40
1
 10
481.581184
 20
363.304484
 30
0.0
 10
481.441211
 20
363.239380
 30
0.0
 10
481.371224
 20
363.125446
 30
0.0
 10
481.371224
 20
362.962684
 30
0.0
  0
SPLINE
  5
34c
100
AcDbEntity
  8
Layer_1
 62
6
100
AcDbSpline
 70
8
 71
3
 72
8
 73
4
 74
0
 40
0
 40
0
 40
0
 40
0
 40
1
 40
1
 40
1
 40
1
 10
481.371224
 20
362.962684
 30
0.0
 10
481.371224
 20
362.799926
 30
0.0
 10
481.439584
 20
362.687622
 30
0.0
 10
481.576304
 20
362.625772
 30
0.0
  0
SPLINE
  5
34d
100
AcDbEntity
  8
Layer_1
 62
6
100
AcDbSpline
 70
8
 71
3
 72
8
 73
4
 74
0
 40
0
 40
0
 40
0
 40
0
 40
1
 40
1
 40
1
 40
1
 10
481.576304
 20
362.625772
 30
0.0
 10
481.713019
 20
362.563921
 30
0.0
 10
481.984827
 20
362.532996
 30
0.0
 10
482.391728
 20
362.532996
 30
0.0
  0
LWPOLYLINE
  5
34e
100
AcDbEntity
  8
Layer_1
 62
6
100
AcDbPolyline
 90
4
 70
1
 10
482.391728
 20
364.559364
 30
0.0
 10
485.902472
 20
364.559364
 30
0.0
 10
485.902472
 20
363.402140
 30
0.0
 10
482.391728
 20
363.402140
 30
0.0
  0
SPLINE
  5
34f
100
AcDbEntity
  8
Layer_1
 62
6
100
AcDbSpline
 70
8
 71
3
 72
8
 73
4
 74
0
 40
0
 40
0
 40
0
 40
0
 40
1
 40
1
 40
1
 40
1
 10
481.000128
 20
362.401164
 30
0.0
 10
480.785285
 20
362.482545
 30
0.0
 10
480.616013
 20
362.612753
 30
0.0
 10
480.492312
 20
362.791788
 30
0.0
  0
SPLINE
  5
350
100
AcDbEntity
  8
Layer_1
 62
6
100
AcDbSpline
 70
8
 71
3
 72
8
 73
4
 74
0
 40
0
 40
0
 40
0
 40
0
 40
1
 40
1
 40
1
 40
1
 10
480.492312
 20
362.791788
 30
0.0
 10
480.365363
 20
362.970822
 30
0.0
 10
480.301888
 20
363.171017
 30
0.0
 10
480.301888
 20
363.392372
 30
0.0
  0
SPLINE
  5
351
100
AcDbEntity
  8
Layer_1
 62
6
100
AcDbSpline
 70
8
 71
3
 72
8
 73
4
 74
0
 40
0
 40
0
 40
0
 40
0
 40
1
 40
1
 40
1
 40
1
 10
480.301888
 20
363.392372
 30
0.0
 10
480.301888
 20
363.613726
 30
0.0
 10
480.368619
 20
363.815550
 30
0.0
 10
480.502080
 20
363.997844
 30
0.0
  0
SPLINE
  5
352
100
AcDbEntity
  8
Layer_1
 62
6
100
AcDbSpline
 70
8
 71
3
 72
8
 73
4
 74
0
 40
0
 40
0
 40
0
 40
0
 40
1
 40
1
 40
1
 40
1
 10
480.502080
 20
363.997844
 30
0.0
 10
480.632288
 20
364.180137
 30
0.0
 10
480.791795
 20
364.290814
 30
0.0
 10
480.980600
 20
364.329876
 30
0.0
  0
LWPOLYLINE
  5
353
100
AcDbEntity
  8
Layer_1
 62
6
100
AcDbPolyline
 90
6
 70
1
 10
482.391728
 20
362.532996
 30
0.0
 10
485.902472
 20
362.532996
 30
0.0
 10
485.902472
 20
361.361124
 30
0.0
 10
480.433720
 20
361.361124
 30
0.0
 10
480.433720
 20
362.401164
 30
0.0
 10
481.000128
 20
362.401164
 30
0.0
  0
LWPOLYLINE
  5
354
100
AcDbEntity
  8
Layer_1
 62
6
100
AcDbPolyline
 90
2
 70
1
 10
480.980600
 20
364.329876
 30
0.0
 10
480.980600
 20
364.329876
 30
0.0
  0
SPLINE
  5
355
100
AcDbEntity
  8
Layer_1
 62
4
100
AcDbSpline
 70
8
 71
3
 72
8
 73
4
 74
0
 40
0
 40
0
 40
0
 40
0
 40
1
 40
1
 40
1
 40
1
 10
426.637344
 20
583.924348
 30
0.0
 10
426.550360
 20
583.934188
 30
0.0
 10
426.465808
 20
583.952508
 30
0.0
 10
426.376408
 20
583.952508
 30
0.0
  0
SPLINE
  5
356
100
AcDbEntity
  8
Layer_1
 62
4
100
AcDbSpline
 70
8
 71
3
 72
8
 73
4
 74
0
 40
0
 40
0
 40
0
 40
0
 40
1
 40
1
 40
1
 40
1
 10
426.376408
 20
583.952508
 30
0.0
 10
424.962840
 20
583.952508
 30
0.0
 10
423.824840
 20
582.688532
 30
0.0
 10
423.824840
 20
581.118140
 30
0.0
  0
LWPOLYLINE
  5
357
100
AcDbEntity
  8
Layer_1
 62
4
100
AcDbPolyline
 90
2
 70
0
 10
426.637344
 20
583.952508
 30
0.0
 10
426.637344
 20
583.924348
 30
0.0
  0
SPLINE
  5
358
100
AcDbEntity
  8
Layer_1
 62
4
100
AcDbSpline
 70
8
 71
3
 72
8
 73
4
 74
0
 40
0
 40
0
 40
0
 40
0
 40
1
 40
1
 40
1
 40
1
 10
420.140464
 20
581.118140
 30
0.0
 10
420.140464
 20
582.688532
 30
0.0
 10
419.002472
 20
583.952508
 30
0.0
 10
417.588904
 20
583.952508
 30
0.0
  0
SPLINE
  5
359
100
AcDbEntity
  8
Layer_1
 62
4
100
AcDbSpline
 70
8
 71
3
 72
8
 73
4
 74
0
 40
0
 40
0
 40
0
 40
0
 40
1
 40
1
 40
1
 40
1
 10
417.588904
 20
583.952508
 30
0.0
 10
416.175336
 20
583.952508
 30
0.0
 10
415.037344
 20
582.688532
 30
0.0
 10
415.037344
 20
581.118140
 30
0.0
  0
LWPOLYLINE
  5
35a
100
AcDbEntity
  8
Layer_1
 62
4
100
AcDbPolyline
 90
4
 70
0
 10
423.824840
 20
581.118140
 30
0.0
 10
423.824840
 20
564.979076
 30
0.0
 10
420.140464
 20
564.979076
 30
0.0
 10
420.140464
 20
581.118140
 30
0.0
  0
SPLINE
  5
35b
100
AcDbEntity
  8
Layer_1
 62
4
100
AcDbSpline
 70
8
 71
3
 72
8
 73
4
 74
0
 40
0
 40
0
 40
0
 40
0
 40
1
 40
1
 40
1
 40
1
 10
411.351408
 20
581.118140
 30
0.0
 10
411.351408
 20
582.688532
 30
0.0
 10
410.213408
 20
583.952508
 30
0.0
 10
408.799840
 20
583.952508
 30
0.0
  0
SPLINE
  5
35c
100
AcDbEntity
  8
Layer_1
 62
4
100
AcDbSpline
 70
8
 71
3
 72
8
 73
4
 74
0
 40
0
 40
0
 40
0
 40
0
 40
1
 40
1
 40
1
 40
1
 10
408.799840
 20
583.952508
 30
0.0
 10
407.386280
 20
583.952508
 30
0.0
 10
406.248280
 20
582.688532
 30
0.0
 10
406.248280
 20
581.118140
 30
0.0
  0
LWPOLYLINE
  5
35d
100
AcDbEntity
  8
Layer_1
 62
4
100
AcDbPolyline
 90
4
 70
0
 10
415.037344
 20
581.118140
 30
0.0
 10
415.037344
 20
564.979076
 30
0.0
 10
411.351408
 20
564.979076
 30
0.0
 10
411.351408
 20
581.118140
 30
0.0
  0
SPLINE
  5
35e
100
AcDbEntity
  8
Layer_1
 62
4
100
AcDbSpline
 70
8
 71
3
 72
8
 73
4
 74
0
 40
0
 40
0
 40
0
 40
0
 40
1
 40
1
 40
1
 40
1
 10
402.563904
 20
581.118140
 30
0.0
 10
402.563904
 20
582.688532
 30
0.0
 10
401.425912
 20
583.952508
 30
0.0
 10
400.012344
 20
583.952508
 30
0.0
  0
SPLINE
  5
35f
100
AcDbEntity
  8
Layer_1
 62
4
100
AcDbSpline
 70
8
 71
3
 72
8
 73
4
 74
0
 40
0
 40
0
 40
0
 40
0
 40
1
 40
1
 40
1
 40
1
 10
400.012344
 20
583.952508
 30
0.0
 10
398.598776
 20
583.952508
 30
0.0
 10
397.460784
 20
582.688532
 30
0.0
 10
397.460784
 20
581.118140
 30
0.0
  0
LWPOLYLINE
  5
360
100
AcDbEntity
  8
Layer_1
 62
4
100
AcDbPolyline
 90
4
 70
0
 10
406.248280
 20
581.118140
 30
0.0
 10
406.248280
 20
564.979076
 30
0.0
 10
402.563904
 20
564.979076
 30
0.0
 10
402.563904
 20
581.118140
 30
0.0
  0
SPLINE
  5
361
100
AcDbEntity
  8
Layer_1
 62
4
100
AcDbSpline
 70
8
 71
3
 72
8
 73
4
 74
0
 40
0
 40
0
 40
0
 40
0
 40
1
 40
1
 40
1
 40
1
 10
393.774840
 20
581.118140
 30
0.0
 10
393.774840
 20
582.688532
 30
0.0
 10
392.636848
 20
583.952508
 30
0.0
 10
391.223280
 20
583.952508
 30
0.0
  0
SPLINE
  5
362
100
AcDbEntity
  8
Layer_1
 62
4
100
AcDbSpline
 70
8
 71
3
 72
8
 73
4
 74
0
 40
0
 40
0
 40
0
 40
0
 40
1
 40
1
 40
1
 40
1
 10
391.223280
 20
583.952508
 30
0.0
 10
389.809712
 20
583.952508
 30
0.0
 10
388.671720
 20
582.688532
 30
0.0
 10
388.671720
 20
581.118140
 30
0.0
  0
LWPOLYLINE
  5
363
100
AcDbEntity
  8
Layer_1
 62
4
100
AcDbPolyline
 90
4
 70
0
 10
397.460784
 20
581.118140
 30
0.0
 10
397.460784
 20
564.979076
 30
0.0
 10
393.774840
 20
564.979076
 30
0.0
 10
393.774840
 20
581.118140
 30
0.0
  0
SPLINE
  5
364
100
AcDbEntity
  8
Layer_1
 62
4
100
AcDbSpline
 70
8
 71
3
 72
8
 73
4
 74
0
 40
0
 40
0
 40
0
 40
0
 40
1
 40
1
 40
1
 40
1
 10
384.987344
 20
581.118140
 30
0.0
 10
384.987344
 20
582.688532
 30
0.0
 10
383.849352
 20
583.952508
 30
0.0
 10
382.435776
 20
583.952508
 30
0.0
  0
SPLINE
  5
365
100
AcDbEntity
  8
Layer_1
 62
4
100
AcDbSpline
 70
8
 71
3
 72
8
 73
4
 74
0
 40
0
 40
0
 40
0
 40
0
 40
1
 40
1
 40
1
 40
1
 10
382.435776
 20
583.952508
 30
0.0
 10
381.022216
 20
583.952508
 30
0.0
 10
379.884216
 20
582.688532
 30
0.0
 10
379.884216
 20
581.118140
 30
0.0
  0
LWPOLYLINE
  5
366
100
AcDbEntity
  8
Layer_1
 62
4
100
AcDbPolyline
 90
4
 70
0
 10
388.671720
 20
581.118140
 30
0.0
 10
388.671720
 20
564.979076
 30
0.0
 10
384.987344
 20
564.979076
 30
0.0
 10
384.987344
 20
581.118140
 30
0.0
  0
SPLINE
  5
367
100
AcDbEntity
  8
Layer_1
 62
4
100
AcDbSpline
 70
8
 71
3
 72
8
 73
4
 74
0
 40
0
 40
0
 40
0
 40
0
 40
1
 40
1
 40
1
 40
1
 10
376.199840
 20
581.118140
 30
0.0
 10
376.199840
 20
582.688532
 30
0.0
 10
375.061848
 20
583.952508
 30
0.0
 10
373.648280
 20
583.952508
 30
0.0
  0
SPLINE
  5
368
100
AcDbEntity
  8
Layer_1
 62
4
100
AcDbSpline
 70
8
 71
3
 72
8
 73
4
 74
0
 40
0
 40
0
 40
0
 40
0
 40
1
 40
1
 40
1
 40
1
 10
373.648280
 20
583.952508
 30
0.0
 10
372.234712
 20
583.952508
 30
0.0
 10
371.096720
 20
582.688532
 30
0.0
 10
371.096720
 20
581.118140
 30
0.0
  0
LWPOLYLINE
  5
369
100
AcDbEntity
  8
Layer_1
 62
4
100
AcDbPolyline
 90
4
 70
0
 10
379.884216
 20
581.118140
 30
0.0
 10
379.884216
 20
564.979076
 30
0.0
 10
376.199840
 20
564.979076
 30
0.0
 10
376.199840
 20
581.118140
 30
0.0
  0
SPLINE
  5
36a
100
AcDbEntity
  8
Layer_1
 62
4
100
AcDbSpline
 70
8
 71
3
 72
8
 73
4
 74
0
 40
0
 40
0
 40
0
 40
0
 40
1
 40
1
 40
1
 40
1
 10
367.410784
 20
581.118140
 30
0.0
 10
367.410784
 20
582.688532
 30
0.0
 10
366.272784
 20
583.952508
 30
0.0
 10
364.859216
 20
583.952508
 30
0.0
  0
SPLINE
  5
36b
100
AcDbEntity
  8
Layer_1
 62
4
100
AcDbSpline
 70
8
 71
3
 72
8
 73
4
 74
0
 40
0
 40
0
 40
0
 40
0
 40
1
 40
1
 40
1
 40
1
 10
364.859216
 20
583.952508
 30
0.0
 10
363.445648
 20
583.952508
 30
0.0
 10
362.307656
 20
582.688532
 30
0.0
 10
362.307656
 20
581.118140
 30
0.0
  0
LWPOLYLINE
  5
36c
100
AcDbEntity
  8
Layer_1
 62
4
100
AcDbPolyline
 90
4
 70
0
 10
371.096720
 20
581.118140
 30
0.0
 10
371.096720
 20
564.979076
 30
0.0
 10
367.410784
 20
564.979076
 30
0.0
 10
367.410784
 20
581.118140
 30
0.0
  0
SPLINE
  5
36d
100
AcDbEntity
  8
Layer_1
 62
4
100
AcDbSpline
 70
8
 71
3
 72
8
 73
4
 74
0
 40
0
 40
0
 40
0
 40
0
 40
1
 40
1
 40
1
 40
1
 10
358.623280
 20
581.118140
 30
0.0
 10
358.623280
 20
582.688532
 30
0.0
 10
357.485280
 20
583.952508
 30
0.0
 10
356.071720
 20
583.952508
 30
0.0
  0
SPLINE
  5
36e
100
AcDbEntity
  8
Layer_1
 62
4
100
AcDbSpline
 70
8
 71
3
 72
8
 73
4
 74
0
 40
0
 40
0
 40
0
 40
0
 40
1
 40
1
 40
1
 40
1
 10
356.071720
 20
583.952508
 30
0.0
 10
354.658152
 20
583.952508
 30
0.0
 10
353.520152
 20
582.688532
 30
0.0
 10
353.520152
 20
581.118140
 30
0.0
  0
LWPOLYLINE
  5
36f
100
AcDbEntity
  8
Layer_1
 62
4
100
AcDbPolyline
 90
4
 70
0
 10
362.307656
 20
581.118140
 30
0.0
 10
362.307656
 20
564.979076
 30
0.0
 10
358.623280
 20
564.979076
 30
0.0
 10
358.623280
 20
581.118140
 30
0.0
  0
SPLINE
  5
370
100
AcDbEntity
  8
Layer_1
 62
4
100
AcDbSpline
 70
8
 71
3
 72
8
 73
4
 74
0
 40
0
 40
0
 40
0
 40
0
 40
1
 40
1
 40
1
 40
1
 10
349.834216
 20
581.118140
 30
0.0
 10
349.834216
 20
582.688532
 30
0.0
 10
348.696224
 20
583.952508
 30
0.0
 10
347.282656
 20
583.952508
 30
0.0
  0
SPLINE
  5
371
100
AcDbEntity
  8
Layer_1
 62
4
100
AcDbSpline
 70
8
 71
3
 72
8
 73
4
 74
0
 40
0
 40
0
 40
0
 40
0
 40
1
 40
1
 40
1
 40
1
 10
347.282656
 20
583.952508
 30
0.0
 10
345.869088
 20
583.952508
 30
0.0
 10
344.731096
 20
582.688532
 30
0.0
 10
344.731096
 20
581.118140
 30
0.0
  0
LWPOLYLINE
  5
372
100
AcDbEntity
  8
Layer_1
 62
4
100
AcDbPolyline
 90
4
 70
0
 10
353.520152
 20
581.118140
 30
0.0
 10
353.520152
 20
564.979076
 30
0.0
 10
349.834216
 20
564.979076
 30
0.0
 10
349.834216
 20
581.118140
 30
0.0
  0
SPLINE
  5
373
100
AcDbEntity
  8
Layer_1
 62
4
100
AcDbSpline
 70
8
 71
3
 72
8
 73
4
 74
0
 40
0
 40
0
 40
0
 40
0
 40
1
 40
1
 40
1
 40
1
 10
341.046720
 20
581.118140
 30
0.0
 10
341.046720
 20
582.688532
 30
0.0
 10
339.908720
 20
583.952508
 30
0.0
 10
338.495152
 20
583.952508
 30
0.0
  0
SPLINE
  5
374
100
AcDbEntity
  8
Layer_1
 62
4
100
AcDbSpline
 70
8
 71
3
 72
8
 73
4
 74
0
 40
0
 40
0
 40
0
 40
0
 40
1
 40
1
 40
1
 40
1
 10
338.495152
 20
583.952508
 30
0.0
 10
337.081592
 20
583.952508
 30
0.0
 10
335.943592
 20
582.688532
 30
0.0
 10
335.943592
 20
581.118140
 30
0.0
  0
LWPOLYLINE
  5
375
100
AcDbEntity
  8
Layer_1
 62
4
100
AcDbPolyline
 90
4
 70
0
 10
344.731096
 20
581.118140
 30
0.0
 10
344.731096
 20
564.979076
 30
0.0
 10
341.046720
 20
564.979076
 30
0.0
 10
341.046720
 20
581.118140
 30
0.0
  0
SPLINE
  5
376
100
AcDbEntity
  8
Layer_1
 62
4
100
AcDbSpline
 70
8
 71
3
 72
8
 73
4
 74
0
 40
0
 40
0
 40
0
 40
0
 40
1
 40
1
 40
1
 40
1
 10
332.257656
 20
581.118140
 30
0.0
 10
332.257656
 20
582.688532
 30
0.0
 10
331.119656
 20
583.952508
 30
0.0
 10
329.706096
 20
583.952508
 30
0.0
  0
SPLINE
  5
377
100
AcDbEntity
  8
Layer_1
 62
4
100
AcDbSpline
 70
8
 71
3
 72
8
 73
4
 74
0
 40
0
 40
0
 40
0
 40
0
 40
1
 40
1
 40
1
 40
1
 10
329.706096
 20
583.952508
 30
0.0
 10
328.292528
 20
583.952508
 30
0.0
 10
327.154528
 20
582.688532
 30
0.0
 10
327.154528
 20
581.118140
 30
0.0
  0
LWPOLYLINE
  5
378
100
AcDbEntity
  8
Layer_1
 62
4
100
AcDbPolyline
 90
4
 70
0
 10
335.943592
 20
581.118140
 30
0.0
 10
335.943592
 20
564.979076
 30
0.0
 10
332.257656
 20
564.979076
 30
0.0
 10
332.257656
 20
581.118140
 30
0.0
  0
SPLINE
  5
379
100
AcDbEntity
  8
Layer_1
 62
4
100
AcDbSpline
 70
8
 71
3
 72
8
 73
4
 74
0
 40
0
 40
0
 40
0
 40
0
 40
1
 40
1
 40
1
 40
1
 10
323.470152
 20
581.118140
 30
0.0
 10
323.470152
 20
582.688532
 30
0.0
 10
322.332160
 20
583.952508
 30
0.0
 10
320.918592
 20
583.952508
 30
0.0
  0
SPLINE
  5
37a
100
AcDbEntity
  8
Layer_1
 62
4
100
AcDbSpline
 70
8
 71
3
 72
8
 73
4
 74
0
 40
0
 40
0
 40
0
 40
0
 40
1
 40
1
 40
1
 40
1
 10
320.918592
 20
583.952508
 30
0.0
 10
319.505024
 20
583.952508
 30
0.0
 10
318.367032
 20
582.688532
 30
0.0
 10
318.367032
 20
581.118140
 30
0.0
  0
LWPOLYLINE
  5
37b
100
AcDbEntity
  8
Layer_1
 62
4
100
AcDbPolyline
 90
4
 70
0
 10
327.154528
 20
581.118140
 30
0.0
 10
327.154528
 20
564.979076
 30
0.0
 10
323.470152
 20
564.979076
 30
0.0
 10
323.470152
 20
581.118140
 30
0.0
  0
SPLINE
  5
37c
100
AcDbEntity
  8
Layer_1
 62
4
100
AcDbSpline
 70
8
 71
3
 72
8
 73
4
 74
0
 40
0
 40
0
 40
0
 40
0
 40
1
 40
1
 40
1
 40
1
 10
314.682656
 20
581.118140
 30
0.0
 10
314.682656
 20
582.688532
 30
0.0
 10
313.544656
 20
583.952508
 30
0.0
 10
312.131096
 20
583.952508
 30
0.0
  0
SPLINE
  5
37d
100
AcDbEntity
  8
Layer_1
 62
4
100
AcDbSpline
 70
8
 71
3
 72
8
 73
4
 74
0
 40
0
 40
0
 40
0
 40
0
 40
1
 40
1
 40
1
 40
1
 10
312.131096
 20
583.952508
 30
0.0
 10
310.717528
 20
583.952508
 30
0.0
 10
309.579528
 20
582.688532
 30
0.0
 10
309.579528
 20
581.118140
 30
0.0
  0
LWPOLYLINE
  5
37e
100
AcDbEntity
  8
Layer_1
 62
4
100
AcDbPolyline
 90
4
 70
0
 10
318.367032
 20
581.118140
 30
0.0
 10
318.367032
 20
564.979076
 30
0.0
 10
314.682656
 20
564.979076
 30
0.0
 10
314.682656
 20
581.118140
 30
0.0
  0
SPLINE
  5
37f
100
AcDbEntity
  8
Layer_1
 62
4
100
AcDbSpline
 70
8
 71
3
 72
8
 73
4
 74
0
 40
0
 40
0
 40
0
 40
0
 40
1
 40
1
 40
1
 40
1
 10
305.893592
 20
581.118140
 30
0.0
 10
305.893592
 20
582.688532
 30
0.0
 10
304.755600
 20
583.952508
 30
0.0
 10
303.342032
 20
583.952508
 30
0.0
  0
SPLINE
  5
380
100
AcDbEntity
  8
Layer_1
 62
4
100
AcDbSpline
 70
8
 71
3
 72
8
 73
4
 74
0
 40
0
 40
0
 40
0
 40
0
 40
1
 40
1
 40
1
 40
1
 10
303.342032
 20
583.952508
 30
0.0
 10
301.928464
 20
583.952508
 30
0.0
 10
300.790464
 20
582.688532
 30
0.0
 10
300.790464
 20
581.118140
 30
0.0
  0
LWPOLYLINE
  5
381
100
AcDbEntity
  8
Layer_1
 62
4
100
AcDbPolyline
 90
4
 70
0
 10
309.579528
 20
581.118140
 30
0.0
 10
309.579528
 20
564.979076
 30
0.0
 10
305.893592
 20
564.979076
 30
0.0
 10
305.893592
 20
581.118140
 30
0.0
  0
SPLINE
  5
382
100
AcDbEntity
  8
Layer_1
 62
4
100
AcDbSpline
 70
8
 71
3
 72
8
 73
4
 74
0
 40
0
 40
0
 40
0
 40
0
 40
1
 40
1
 40
1
 40
1
 10
297.106096
 20
581.118140
 30
0.0
 10
297.106096
 20
582.688532
 30
0.0
 10
295.968096
 20
583.952508
 30
0.0
 10
294.554528
 20
583.952508
 30
0.0
  0
SPLINE
  5
383
100
AcDbEntity
  8
Layer_1
 62
4
100
AcDbSpline
 70
8
 71
3
 72
8
 73
4
 74
0
 40
0
 40
0
 40
0
 40
0
 40
1
 40
1
 40
1
 40
1
 10
294.554528
 20
583.952508
 30
0.0
 10
293.140960
 20
583.952508
 30
0.0
 10
292.002968
 20
582.688532
 30
0.0
 10
292.002968
 20
581.118140
 30
0.0
  0
LWPOLYLINE
  5
384
100
AcDbEntity
  8
Layer_1
 62
4
100
AcDbPolyline
 90
4
 70
0
 10
300.790464
 20
581.118140
 30
0.0
 10
300.790464
 20
564.979076
 30
0.0
 10
297.106096
 20
564.979076
 30
0.0
 10
297.106096
 20
581.118140
 30
0.0
  0
SPLINE
  5
385
100
AcDbEntity
  8
Layer_1
 62
4
100
AcDbSpline
 70
8
 71
3
 72
8
 73
4
 74
0
 40
0
 40
0
 40
0
 40
0
 40
1
 40
1
 40
1
 40
1
 10
288.317032
 20
581.118140
 30
0.0
 10
288.317032
 20
582.688532
 30
0.0
 10
287.179032
 20
583.952508
 30
0.0
 10
285.765464
 20
583.952508
 30
0.0
  0
SPLINE
  5
386
100
AcDbEntity
  8
Layer_1
 62
4
100
AcDbSpline
 70
8
 71
3
 72
8
 73
4
 74
0
 40
0
 40
0
 40
0
 40
0
 40
1
 40
1
 40
1
 40
1
 10
285.765464
 20
583.952508
 30
0.0
 10
284.351904
 20
583.952508
 30
0.0
 10
283.213904
 20
582.688532
 30
0.0
 10
283.213904
 20
581.118140
 30
0.0
  0
LWPOLYLINE
  5
387
100
AcDbEntity
  8
Layer_1
 62
4
100
AcDbPolyline
 90
4
 70
0
 10
292.002968
 20
581.118140
 30
0.0
 10
292.002968
 20
564.979076
 30
0.0
 10
288.317032
 20
564.979076
 30
0.0
 10
288.317032
 20
581.118140
 30
0.0
  0
SPLINE
  5
388
100
AcDbEntity
  8
Layer_1
 62
4
100
AcDbSpline
 70
8
 71
3
 72
8
 73
4
 74
0
 40
0
 40
0
 40
0
 40
0
 40
1
 40
1
 40
1
 40
1
 10
279.529528
 20
581.118140
 30
0.0
 10
279.529528
 20
582.688532
 30
0.0
 10
278.391536
 20
583.952508
 30
0.0
 10
276.977968
 20
583.952508
 30
0.0
  0
SPLINE
  5
389
100
AcDbEntity
  8
Layer_1
 62
4
100
AcDbSpline
 70
8
 71
3
 72
8
 73
4
 74
0
 40
0
 40
0
 40
0
 40
0
 40
1
 40
1
 40
1
 40
1
 10
276.977968
 20
583.952508
 30
0.0
 10
275.564400
 20
583.952508
 30
0.0
 10
274.426408
 20
582.688532
 30
0.0
 10
274.426408
 20
581.118140
 30
0.0
  0
LWPOLYLINE
  5
38a
100
AcDbEntity
  8
Layer_1
 62
4
100
AcDbPolyline
 90
4
 70
0
 10
283.213904
 20
581.118140
 30
0.0
 10
283.213904
 20
564.979076
 30
0.0
 10
279.529528
 20
564.979076
 30
0.0
 10
279.529528
 20
581.118140
 30
0.0
  0
SPLINE
  5
38b
100
AcDbEntity
  8
Layer_1
 62
4
100
AcDbSpline
 70
8
 71
3
 72
8
 73
4
 74
0
 40
0
 40
0
 40
0
 40
0
 40
1
 40
1
 40
1
 40
1
 10
270.740464
 20
581.118140
 30
0.0
 10
270.740464
 20
582.688532
 30
0.0
 10
269.602472
 20
583.952508
 30
0.0
 10
268.188904
 20
583.952508
 30
0.0
  0
SPLINE
  5
38c
100
AcDbEntity
  8
Layer_1
 62
4
100
AcDbSpline
 70
8
 71
3
 72
8
 73
4
 74
0
 40
0
 40
0
 40
0
 40
0
 40
1
 40
1
 40
1
 40
1
 10
268.188904
 20
583.952508
 30
0.0
 10
266.775336
 20
583.952508
 30
0.0
 10
265.637344
 20
582.688532
 30
0.0
 10
265.637344
 20
581.118140
 30
0.0
  0
LWPOLYLINE
  5
38d
100
AcDbEntity
  8
Layer_1
 62
4
100
AcDbPolyline
 90
4
 70
0
 10
274.426408
 20
581.118140
 30
0.0
 10
274.426408
 20
564.979076
 30
0.0
 10
270.740464
 20
564.979076
 30
0.0
 10
270.740464
 20
581.118140
 30
0.0
  0
SPLINE
  5
38e
100
AcDbEntity
  8
Layer_1
 62
4
100
AcDbSpline
 70
8
 71
3
 72
8
 73
4
 74
0
 40
0
 40
0
 40
0
 40
0
 40
1
 40
1
 40
1
 40
1
 10
261.952968
 20
581.118140
 30
0.0
 10
261.952968
 20
582.688532
 30
0.0
 10
260.814968
 20
583.952508
 30
0.0
 10
259.401408
 20
583.952508
 30
0.0
  0
SPLINE
  5
38f
100
AcDbEntity
  8
Layer_1
 62
4
100
AcDbSpline
 70
8
 71
3
 72
8
 73
4
 74
0
 40
0
 40
0
 40
0
 40
0
 40
1
 40
1
 40
1
 40
1
 10
259.401408
 20
583.952508
 30
0.0
 10
257.987840
 20
583.952508
 30
0.0
 10
256.849840
 20
582.688532
 30
0.0
 10
256.849840
 20
581.118140
 30
0.0
  0
LWPOLYLINE
  5
390
100
AcDbEntity
  8
Layer_1
 62
4
100
AcDbPolyline
 90
4
 70
0
 10
265.637344
 20
581.118140
 30
0.0
 10
265.637344
 20
564.979076
 30
0.0
 10
261.952968
 20
564.979076
 30
0.0
 10
261.952968
 20
581.118140
 30
0.0
  0
SPLINE
  5
391
100
AcDbEntity
  8
Layer_1
 62
4
100
AcDbSpline
 70
8
 71
3
 72
8
 73
4
 74
0
 40
0
 40
0
 40
0
 40
0
 40
1
 40
1
 40
1
 40
1
 10
253.163904
 20
581.118140
 30
0.0
 10
253.163904
 20
582.688532
 30
0.0
 10
252.025912
 20
583.952508
 30
0.0
 10
250.612344
 20
583.952508
 30
0.0
  0
SPLINE
  5
392
100
AcDbEntity
  8
Layer_1
 62
4
100
AcDbSpline
 70
8
 71
3
 72
8
 73
4
 74
0
 40
0
 40
0
 40
0
 40
0
 40
1
 40
1
 40
1
 40
1
 10
250.612344
 20
583.952508
 30
0.0
 10
249.198776
 20
583.952508
 30
0.0
 10
248.060784
 20
582.688532
 30
0.0
 10
248.060784
 20
581.118140
 30
0.0
  0
LWPOLYLINE
  5
393
100
AcDbEntity
  8
Layer_1
 62
4
100
AcDbPolyline
 90
4
 70
0
 10
256.849840
 20
581.118140
 30
0.0
 10
256.849840
 20
564.979076
 30
0.0
 10
253.163904
 20
564.979076
 30
0.0
 10
253.163904
 20
581.118140
 30
0.0
  0
SPLINE
  5
394
100
AcDbEntity
  8
Layer_1
 62
4
100
AcDbSpline
 70
8
 71
3
 72
8
 73
4
 74
0
 40
0
 40
0
 40
0
 40
0
 40
1
 40
1
 40
1
 40
1
 10
244.376408
 20
581.118140
 30
0.0
 10
244.376408
 20
582.688532
 30
0.0
 10
243.238408
 20
583.952508
 30
0.0
 10
241.824840
 20
583.952508
 30
0.0
  0
SPLINE
  5
395
100
AcDbEntity
  8
Layer_1
 62
4
100
AcDbSpline
 70
8
 71
3
 72
8
 73
4
 74
0
 40
0
 40
0
 40
0
 40
0
 40
1
 40
1
 40
1
 40
1
 10
241.824840
 20
583.952508
 30
0.0
 10
240.411280
 20
583.952508
 30
0.0
 10
239.273280
 20
582.688532
 30
0.0
 10
239.273280
 20
581.118140
 30
0.0
  0
LWPOLYLINE
  5
396
100
AcDbEntity
  8
Layer_1
 62
4
100
AcDbPolyline
 90
4
 70
0
 10
248.060784
 20
581.118140
 30
0.0
 10
248.060784
 20
564.979076
 30
0.0
 10
244.376408
 20
564.979076
 30
0.0
 10
244.376408
 20
581.118140
 30
0.0
  0
SPLINE
  5
397
100
AcDbEntity
  8
Layer_1
 62
4
100
AcDbSpline
 70
8
 71
3
 72
8
 73
4
 74
0
 40
0
 40
0
 40
0
 40
0
 40
1
 40
1
 40
1
 40
1
 10
235.588904
 20
581.118140
 30
0.0
 10
235.588904
 20
582.688532
 30
0.0
 10
234.450912
 20
583.952508
 30
0.0
 10
233.037344
 20
583.952508
 30
0.0
  0
SPLINE
  5
398
100
AcDbEntity
  8
Layer_1
 62
4
100
AcDbSpline
 70
8
 71
3
 72
8
 73
4
 74
0
 40
0
 40
0
 40
0
 40
0
 40
1
 40
1
 40
1
 40
1
 10
233.037344
 20
583.952508
 30
0.0
 10
231.623776
 20
583.952508
 30
0.0
 10
230.485776
 20
582.688532
 30
0.0
 10
230.485776
 20
581.118140
 30
0.0
  0
LWPOLYLINE
  5
399
100
AcDbEntity
  8
Layer_1
 62
4
100
AcDbPolyline
 90
4
 70
0
 10
239.273280
 20
581.118140
 30
0.0
 10
239.273280
 20
564.979076
 30
0.0
 10
235.588904
 20
564.979076
 30
0.0
 10
235.588904
 20
581.118140
 30
0.0
  0
SPLINE
  5
39a
100
AcDbEntity
  8
Layer_1
 62
4
100
AcDbSpline
 70
8
 71
3
 72
8
 73
4
 74
0
 40
0
 40
0
 40
0
 40
0
 40
1
 40
1
 40
1
 40
1
 10
226.799840
 20
581.118140
 30
0.0
 10
226.799840
 20
582.688532
 30
0.0
 10
225.661848
 20
583.952508
 30
0.0
 10
224.248280
 20
583.952508
 30
0.0
  0
SPLINE
  5
39b
100
AcDbEntity
  8
Layer_1
 62
4
100
AcDbSpline
 70
8
 71
3
 72
8
 73
4
 74
0
 40
0
 40
0
 40
0
 40
0
 40
1
 40
1
 40
1
 40
1
 10
224.248280
 20
583.952508
 30
0.0
 10
222.834712
 20
583.952508
 30
0.0
 10
221.696720
 20
582.688532
 30
0.0
 10
221.696720
 20
581.118140
 30
0.0
  0
LWPOLYLINE
  5
39c
100
AcDbEntity
  8
Layer_1
 62
4
100
AcDbPolyline
 90
4
 70
0
 10
230.485776
 20
581.118140
 30
0.0
 10
230.485776
 20
564.979076
 30
0.0
 10
226.799840
 20
564.979076
 30
0.0
 10
226.799840
 20
581.118140
 30
0.0
  0
SPLINE
  5
39d
100
AcDbEntity
  8
Layer_1
 62
4
100
AcDbSpline
 70
8
 71
3
 72
8
 73
4
 74
0
 40
0
 40
0
 40
0
 40
0
 40
1
 40
1
 40
1
 40
1
 10
218.012344
 20
581.118140
 30
0.0
 10
218.012344
 20
582.688532
 30
0.0
 10
216.874344
 20
583.952508
 30
0.0
 10
215.460784
 20
583.952508
 30
0.0
  0
SPLINE
  5
39e
100
AcDbEntity
  8
Layer_1
 62
4
100
AcDbSpline
 70
8
 71
3
 72
8
 73
4
 74
0
 40
0
 40
0
 40
0
 40
0
 40
1
 40
1
 40
1
 40
1
 10
215.460784
 20
583.952508
 30
0.0
 10
214.047200
 20
583.952508
 30
0.0
 10
212.909216
 20
582.688532
 30
0.0
 10
212.909216
 20
581.118140
 30
0.0
  0
LWPOLYLINE
  5
39f
100
AcDbEntity
  8
Layer_1
 62
4
100
AcDbPolyline
 90
4
 70
0
 10
221.696720
 20
581.118140
 30
0.0
 10
221.696720
 20
564.979076
 30
0.0
 10
218.012344
 20
564.979076
 30
0.0
 10
218.012344
 20
581.118140
 30
0.0
  0
SPLINE
  5
3a0
100
AcDbEntity
  8
Layer_1
 62
4
100
AcDbSpline
 70
8
 71
3
 72
8
 73
4
 74
0
 40
0
 40
0
 40
0
 40
0
 40
1
 40
1
 40
1
 40
1
 10
209.223280
 20
581.118140
 30
0.0
 10
209.223280
 20
582.688532
 30
0.0
 10
208.085280
 20
583.952508
 30
0.0
 10
206.671720
 20
583.952508
 30
0.0
  0
SPLINE
  5
3a1
100
AcDbEntity
  8
Layer_1
 62
4
100
AcDbSpline
 70
8
 71
3
 72
8
 73
4
 74
0
 40
0
 40
0
 40
0
 40
0
 40
1
 40
1
 40
1
 40
1
 10
206.671720
 20
583.952508
 30
0.0
 10
205.258152
 20
583.952508
 30
0.0
 10
204.120152
 20
582.688532
 30
0.0
 10
204.120152
 20
581.118140
 30
0.0
  0
LWPOLYLINE
  5
3a2
100
AcDbEntity
  8
Layer_1
 62
4
100
AcDbPolyline
 90
4
 70
0
 10
212.909216
 20
581.118140
 30
0.0
 10
212.909216
 20
564.979076
 30
0.0
 10
209.223280
 20
564.979076
 30
0.0
 10
209.223280
 20
581.118140
 30
0.0
  0
SPLINE
  5
3a3
100
AcDbEntity
  8
Layer_1
 62
4
100
AcDbSpline
 70
8
 71
3
 72
8
 73
4
 74
0
 40
0
 40
0
 40
0
 40
0
 40
1
 40
1
 40
1
 40
1
 10
200.435776
 20
581.118140
 30
0.0
 10
200.435776
 20
582.688532
 30
0.0
 10
199.297784
 20
583.952508
 30
0.0
 10
197.884216
 20
583.952508
 30
0.0
  0
SPLINE
  5
3a4
100
AcDbEntity
  8
Layer_1
 62
4
100
AcDbSpline
 70
8
 71
3
 72
8
 73
4
 74
0
 40
0
 40
0
 40
0
 40
0
 40
1
 40
1
 40
1
 40
1
 10
197.884216
 20
583.952508
 30
0.0
 10
196.470648
 20
583.952508
 30
0.0
 10
195.332656
 20
582.688532
 30
0.0
 10
195.332656
 20
581.118140
 30
0.0
  0
LWPOLYLINE
  5
3a5
100
AcDbEntity
  8
Layer_1
 62
4
100
AcDbPolyline
 90
4
 70
0
 10
204.120152
 20
581.118140
 30
0.0
 10
204.120152
 20
564.979076
 30
0.0
 10
200.435776
 20
564.979076
 30
0.0
 10
200.435776
 20
581.118140
 30
0.0
  0
SPLINE
  5
3a6
100
AcDbEntity
  8
Layer_1
 62
4
100
AcDbSpline
 70
8
 71
3
 72
8
 73
4
 74
0
 40
0
 40
0
 40
0
 40
0
 40
1
 40
1
 40
1
 40
1
 10
191.646720
 20
581.118140
 30
0.0
 10
191.646720
 20
582.688532
 30
0.0
 10
190.508784
 20
583.952508
 30
0.0
 10
189.095120
 20
583.952508
 30
0.0
  0
SPLINE
  5
3a7
100
AcDbEntity
  8
Layer_1
 62
4
100
AcDbSpline
 70
8
 71
3
 72
8
 73
4
 74
0
 40
0
 40
0
 40
0
 40
0
 40
1
 40
1
 40
1
 40
1
 10
189.095120
 20
583.952508
 30
0.0
 10
187.681600
 20
583.952508
 30
0.0
 10
186.543600
 20
582.688532
 30
0.0
 10
186.543600
 20
581.118140
 30
0.0
  0
LWPOLYLINE
  5
3a8
100
AcDbEntity
  8
Layer_1
 62
4
100
AcDbPolyline
 90
4
 70
0
 10
195.332656
 20
581.118140
 30
0.0
 10
195.332656
 20
564.979076
 30
0.0
 10
191.646720
 20
564.979076
 30
0.0
 10
191.646720
 20
581.118140
 30
0.0
  0
SPLINE
  5
3a9
100
AcDbEntity
  8
Layer_1
 62
4
100
AcDbSpline
 70
8
 71
3
 72
8
 73
4
 74
0
 40
0
 40
0
 40
0
 40
0
 40
1
 40
1
 40
1
 40
1
 10
182.859200
 20
581.118140
 30
0.0
 10
182.859200
 20
582.688532
 30
0.0
 10
181.721200
 20
583.952508
 30
0.0
 10
180.307680
 20
583.952508
 30
0.0
  0
SPLINE
  5
3aa
100
AcDbEntity
  8
Layer_1
 62
4
100
AcDbSpline
 70
8
 71
3
 72
8
 73
4
 74
0
 40
0
 40
0
 40
0
 40
0
 40
1
 40
1
 40
1
 40
1
 10
180.307680
 20
583.952508
 30
0.0
 10
178.894080
 20
583.952508
 30
0.0
 10
177.756080
 20
582.688532
 30
0.0
 10
177.756080
 20
581.118140
 30
0.0
  0
LWPOLYLINE
  5
3ab
100
AcDbEntity
  8
Layer_1
 62
4
100
AcDbPolyline
 90
4
 70
0
 10
186.543600
 20
581.118140
 30
0.0
 10
186.543600
 20
564.979076
 30
0.0
 10
182.859200
 20
564.979076
 30
0.0
 10
182.859200
 20
581.118140
 30
0.0
  0
SPLINE
  5
3ac
100
AcDbEntity
  8
Layer_1
 62
4
100
AcDbSpline
 70
8
 71
3
 72
8
 73
4
 74
0
 40
0
 40
0
 40
0
 40
0
 40
1
 40
1
 40
1
 40
1
 10
174.071680
 20
581.118140
 30
0.0
 10
174.071680
 20
582.688532
 30
0.0
 10
172.933760
 20
583.952508
 30
0.0
 10
171.520160
 20
583.952508
 30
0.0
  0
SPLINE
  5
3ad
100
AcDbEntity
  8
Layer_1
 62
4
100
AcDbSpline
 70
8
 71
3
 72
8
 73
4
 74
0
 40
0
 40
0
 40
0
 40
0
 40
1
 40
1
 40
1
 40
1
 10
171.520160
 20
583.952508
 30
0.0
 10
170.106560
 20
583.952508
 30
0.0
 10
168.968640
 20
582.688532
 30
0.0
 10
168.968640
 20
581.118140
 30
0.0
  0
LWPOLYLINE
  5
3ae
100
AcDbEntity
  8
Layer_1
 62
4
100
AcDbPolyline
 90
4
 70
0
 10
177.756080
 20
581.118140
 30
0.0
 10
177.756080
 20
564.979076
 30
0.0
 10
174.071680
 20
564.979076
 30
0.0
 10
174.071680
 20
581.118140
 30
0.0
  0
SPLINE
  5
3af
100
AcDbEntity
  8
Layer_1
 62
4
100
AcDbSpline
 70
8
 71
3
 72
8
 73
4
 74
0
 40
0
 40
0
 40
0
 40
0
 40
1
 40
1
 40
1
 40
1
 10
168.968648
 20
496.105868
 30
0.0
 10
168.968648
 20
494.535468
 30
0.0
 10
170.204264
 20
493.271220
 30
0.0
 10
171.739088
 20
493.271220
 30
0.0
  0
LWPOLYLINE
  5
3b0
100
AcDbEntity
  8
Layer_1
 62
4
100
AcDbPolyline
 90
3
 70
0
 10
168.968640
 20
581.118140
 30
0.0
 10
168.968640
 20
569.779076
 30
0.0
 10
168.968648
 20
496.105868
 30
0.0
  0
SPLINE
  5
3b1
100
AcDbEntity
  8
Layer_1
 62
4
100
AcDbSpline
 70
8
 71
3
 72
8
 73
4
 74
0
 40
0
 40
0
 40
0
 40
0
 40
1
 40
1
 40
1
 40
1
 10
426.418424
 20
493.271220
 30
0.0
 10
427.953248
 20
493.271220
 30
0.0
 10
429.188864
 20
494.535468
 30
0.0
 10
429.188864
 20
496.105868
 30
0.0
  0
LWPOLYLINE
  5
3b2
100
AcDbEntity
  8
Layer_1
 62
4
100
AcDbPolyline
 90
2
 70
0
 10
171.739088
 20
493.271220
 30
0.0
 10
426.418424
 20
493.271220
 30
0.0
  0
SPLINE
  5
3b3
100
AcDbEntity
  8
Layer_1
 62
4
100
AcDbSpline
 70
8
 71
3
 72
8
 73
4
 74
0
 40
0
 40
0
 40
0
 40
0
 40
1
 40
1
 40
1
 40
1
 10
429.188864
 20
581.118140
 30
0.0
 10
429.188864
 20
582.688532
 30
0.0
 10
428.050944
 20
583.952508
 30
0.0
 10
426.637344
 20
583.952508
 30
0.0
  0
LWPOLYLINE
  5
3b4
100
AcDbEntity
  8
Layer_1
 62
4
100
AcDbPolyline
 90
3
 70
0
 10
429.188864
 20
496.105868
 30
0.0
 10
429.188864
 20
569.779076
 30
0.0
 10
429.188864
 20
581.118140
 30
0.0
  0
ENDSEC
  0
SECTION
  2
OBJECTS
  0
DICTIONARY
  5
C
330
0
100
AcDbDictionary
  3
ACAD_GROUP
350
D
  3
ACAD_MLINESTYLE
350
17
  0
DICTIONARY
  5
D
330
C
100
AcDbDictionary
  0
DICTIONARY
  5
1A
330
C
100
AcDbDictionary
  0
DICTIONARY
  5
17
330
C
100
AcDbDictionary
  3
STANDARD
350
18
  0
DICTIONARY
  5
19
330
C
100
AcDbDictionary
  0
ENDSEC
  0
EOF
