  0
SECTION
  2
HEADER
  9
$ACADVER
  1
AC1009
  9
$DWGCODEPAGE
  3
mac-roman
  9
$INSBASE
 10
0.0
 20
0.0
 30
0.0
  9
$EXTMIN
 10
-7290.889708219634
 20
13087.93972155962
 30
-0.0000000000095468
  9
$EXTMAX
 10
-4852.489708219635
 20
14307.13972155962
 30
0.0000000000004579
  9
$LIMMIN
 10
0.0
 20
0.0
  9
$LIMMAX
 10
12.0
 20
9.0
  9
$ORTHOMODE
 70
     0
  9
$REGENMODE
 70
     1
  9
$FILLMODE
 70
     1
  9
$QTEXTMODE
 70
     0
  9
$MIRRTEXT
 70
     1
  9
$DRAGMODE
 70
     2
  9
$LTSCALE
 40
1.0
  9
$OSMODE
 70
    37
  9
$ATTMODE
 70
     1
  9
$TEXTSIZE
 40
0.2
  9
$TRACEWID
 40
0.05
  9
$TEXTSTYLE
  7
STANDARD
  9
$CLAYER
  8
HOLES
  9
$CELTYPE
  6
BYLAYER
  9
$CECOLOR
 62
   256
  9
$DIMSCALE
 40
1.0
  9
$DIMASZ
 40
0.18
  9
$DIMEXO
 40
0.0625
  9
$DIMDLI
 40
0.38
  9
$DIMRND
 40
0.0
  9
$DIMDLE
 40
0.0
  9
$DIMEXE
 40
0.18
  9
$DIMTP
 40
0.0
  9
$DIMTM
 40
0.0
  9
$DIMTXT
 40
0.18
  9
$DIMCEN
 40
0.09
  9
$DIMTSZ
 40
0.0
  9
$DIMTOL
 70
     0
  9
$DIMLIM
 70
     0
  9
$DIMTIH
 70
     1
  9
$DIMTOH
 70
     1
  9
$DIMSE1
 70
     0
  9
$DIMSE2
 70
     0
  9
$DIMTAD
 70
     0
  9
$DIMZIN
 70
     0
  9
$DIMBLK
  1

  9
$DIMASO
 70
     1
  9
$DIMSHO
 70
     1
  9
$DIMPOST
  1

  9
$DIMAPOST
  1

  9
$DIMALT
 70
     0
  9
$DIMALTD
 70
     2
  9
$DIMALTF
 40
25.4
  9
$DIMLFAC
 40
1.0
  9
$DIMTOFL
 70
     0
  9
$DIMTVP
 40
0.0
  9
$DIMTIX
 70
     0
  9
$DIMSOXD
 70
     0
  9
$DIMSAH
 70
     0
  9
$DIMBLK1
  1

  9
$DIMBLK2
  1

  9
$DIMSTYLE
  2
STANDARD
  9
$DIMCLRD
 70
     0
  9
$DIMCLRE
 70
     0
  9
$DIMCLRT
 70
     0
  9
$DIMTFAC
 40
1.0
  9
$DIMGAP
 40
0.09
  9
$LUNITS
 70
     2
  9
$LUPREC
 70
     3
  9
$SKETCHINC
 40
0.1
  9
$FILLETRAD
 40
0.5
  9
$AUNITS
 70
     0
  9
$AUPREC
 70
     0
  9
$MENU
  1
.
  9
$ELEVATION
 40
0.0
  9
$PELEVATION
 40
0.0
  9
$THICKNESS
 40
0.0
  9
$LIMCHECK
 70
     0
  9
$CHAMFERA
 40
0.0
  9
$CHAMFERB
 40
0.0
  9
$SKPOLY
 70
     0
  9
$TDCREATE
 40
2456515.995555544
  9
$TDUPDATE
 40
2456515.995578692
  9
$TDINDWG
 40
0.0000000116
  9
$TDUSRTIMER
 40
0.0000000116
  9
$USRTIMER
 70
     1
  9
$ANGBASE
 50
0.0
  9
$ANGDIR
 70
     0
  9
$PDMODE
 70
     0
  9
$PDSIZE
 40
0.0
  9
$PLINEWID
 40
0.0
  9
$COORDS
 70
     1
  9
$SPLFRAME
 70
     0
  9
$SPLINETYPE
 70
     6
  9
$SPLINESEGS
 70
     8
  9
$ATTDIA
 70
     0
  9
$ATTREQ
 70
     1
  9
$HANDLING
 70
     1
  9
$HANDSEED
  5
287
  9
$SURFTAB1
 70
     6
  9
$SURFTAB2
 70
     6
  9
$SURFTYPE
 70
     6
  9
$SURFU
 70
     6
  9
$SURFV
 70
     6
  9
$UCSNAME
  2

  9
$UCSORG
 10
0.0
 20
0.0
 30
0.0
  9
$UCSXDIR
 10
1.0
 20
0.0
 30
0.0
  9
$UCSYDIR
 10
0.0
 20
1.0
 30
0.0
  9
$PUCSNAME
  2

  9
$PUCSORG
 10
0.0
 20
0.0
 30
0.0
  9
$PUCSXDIR
 10
1.0
 20
0.0
 30
0.0
  9
$PUCSYDIR
 10
0.0
 20
1.0
 30
0.0
  9
$USERI1
 70
     0
  9
$USERI2
 70
     0
  9
$USERI3
 70
     0
  9
$USERI4
 70
     0
  9
$USERI5
 70
     0
  9
$USERR1
 40
0.0
  9
$USERR2
 40
0.0
  9
$USERR3
 40
0.0
  9
$USERR4
 40
0.0
  9
$USERR5
 40
0.0
  9
$WORLDVIEW
 70
     1
  9
$SHADEDGE
 70
     3
  9
$SHADEDIF
 70
    70
  9
$TILEMODE
 70
     1
  9
$MAXACTVP
 70
    64
  9
$PLIMCHECK
 70
     0
  9
$PEXTMIN
 10
1.000000000000000E+20
 20
1.000000000000000E+20
 30
1.000000000000000E+20
  9
$PEXTMAX
 10
-1.000000000000000E+20
 20
-1.000000000000000E+20
 30
-1.000000000000000E+20
  9
$PLIMMIN
 10
0.0
 20
0.0
  9
$PLIMMAX
 10
12.0
 20
9.0
  9
$UNITMODE
 70
     0
  9
$VISRETAIN
 70
     1
  9
$PLINEGEN
 70
     0
  9
$PSLTSCALE
 70
     1
  0
ENDSEC
  0
SECTION
  2
TABLES
  0
TABLE
  2
VPORT
 70
     1
  0
VPORT
  2
*ACTIVE
 70
     0
 10
0.0
 20
0.0
 11
1.0
 21
1.0
 12
-6071.689708219635
 22
13697.53972155962
 13
0.0
 23
0.0
 14
0.5
 24
0.5
 15
0.5
 25
0.5
 16
0.0
 26
0.0
 36
1.0
 17
0.0
 27
0.0
 37
0.0
 40
1243.584000000001
 41
1.999999999999998
 42
50.0
 43
0.0
 44
0.0
 50
0.0
 51
0.0
 71
     0
 72
   100
 73
     1
 74
     3
 75
     0
 76
     0
 77
     0
 78
     0
  0
ENDTAB
  0
TABLE
  2
LTYPE
 70
     1
  0
LTYPE
  2
CONTINUOUS
 70
     0
  3
Solid line
 72
    65
 73
     0
 40
0.0
  0
ENDTAB
  0
TABLE
  2
LAYER
 70
     5
  0
LAYER
  2
0
 70
     0
 62
     7
  6
CONTINUOUS
  0
LAYER
  2
OUTSIDE
 70
     0
 62
   202
  6
CONTINUOUS
  0
LAYER
  2
INSIDE
 70
     0
 62
    80
  6
CONTINUOUS
  0
LAYER
  2
HOLES
 70
     0
 62
     1
  6
CONTINUOUS
  0
LAYER
  2
DEFAULT
 70
     0
 62
     7
  6
CONTINUOUS
  0
ENDTAB
  0
TABLE
  2
STYLE
 70
     1
  0
STYLE
  2
STANDARD
 70
     0
 40
0.0
 41
1.0
 50
0.0
 71
     0
 42
0.2
  3
txt
  4

  0
ENDTAB
  0
TABLE
  2
VIEW
 70
     0
  0
ENDTAB
  0
TABLE
  2
UCS
 70
     0
  0
ENDTAB
  0
TABLE
  2
APPID
 70
     1
  0
APPID
  2
ACAD
 70
     0
  0
ENDTAB
  0
TABLE
  2
DIMSTYLE
 70
     1
  0
DIMSTYLE
  2
STANDARD
 70
     0
  3

  4

  5

  6

  7

 40
1.0
 41
0.18
 42
0.0625
 43
0.38
 44
0.18
 45
0.0
 46
0.0
 47
0.0
 48
0.0
140
0.18
141
0.09
142
0.0
143
25.4
144
1.0
145
0.0
146
1.0
147
0.09
 71
     0
 72
     0
 73
     1
 74
     1
 75
     0
 76
     0
 77
     0
 78
     0
170
     0
171
     2
172
     0
173
     0
174
     0
175
     0
176
     0
177
     0
178
     0
  0
ENDTAB
  0
ENDSEC
  0
SECTION
  2
BLOCKS
  0
BLOCK
  8
0
  2
$MODEL_SPACE
 70
     0
 10
0.0
 20
0.0
 30
0.0
  3
$MODEL_SPACE
  1

  0
ENDBLK
  5
21
  8
0
  0
BLOCK
 67
     1
  8
0
  2
$PAPER_SPACE
 70
     0
 10
0.0
 20
0.0
 30
0.0
  3
$PAPER_SPACE
  1

  0
ENDBLK
  5
1D
 67
     1
  8
0
  0
ENDSEC
  0
SECTION
  2
ENTITIES
  0
POLYLINE
  5
6B
  8
OUTSIDE
 66
     1
 10
0.0
 20
0.0
 30
-0.0000000000002231
  0
VERTEX
  5
6C
  8
OUTSIDE
 10
-5322.389708219634
 20
14307.13972155962
 30
-0.0000000000002231
  0
VERTEX
  5
6D
  8
OUTSIDE
 10
-6306.639708219634
 20
14307.13972155962
 30
-0.0000000000002231
  0
VERTEX
  5
6E
  8
OUTSIDE
 10
-6306.639708219634
 20
13087.93972155962
 30
-0.0000000000002231
  0
VERTEX
  5
6F
  8
OUTSIDE
 10
-5322.389708219634
 20
13087.93972155962
 30
-0.0000000000002231
  0
VERTEX
  5
70
  8
OUTSIDE
 10
-5322.389708219634
 20
14307.13972155962
 30
-0.0000000000002231
  0
SEQEND
  5
71
  8
OUTSIDE
  0
POLYLINE
  5
73
  8
INSIDE
 66
     1
 10
0.0
 20
0.0
 30
0.0000000000002317
  0
VERTEX
  5
74
  8
INSIDE
 10
-5676.722196156665
 20
13240.33972155962
 30
0.0000000000002317
  0
VERTEX
  5
75
  8
INSIDE
 10
-5952.307220282604
 20
13240.33972155962
 30
0.0000000000002317
 42
0.4142135623730319
  0
VERTEX
  5
76
  8
INSIDE
 10
-5966.914708219633
 20
13225.73223362259
 30
0.0000000000002317
  0
VERTEX
  5
77
  8
INSIDE
 10
-5966.914708219634
 20
13178.74720949665
 30
0.0000000000002317
 42
0.4142135623731337
  0
VERTEX
  5
78
  8
INSIDE
 10
-5952.307220282604
 20
13164.13972155962
 30
0.0000000000002317
  0
VERTEX
  5
79
  8
INSIDE
 10
-5676.722196156665
 20
13164.13972155962
 30
0.0000000000002317
 42
0.4142135623731112
  0
VERTEX
  5
7A
  8
INSIDE
 10
-5662.114708219635
 20
13178.74720949665
 30
0.0000000000002317
  0
VERTEX
  5
7B
  8
INSIDE
 10
-5662.114708219637
 20
13225.73223362259
 30
0.0000000000002317
 42
0.4142135623731293
  0
VERTEX
  5
7C
  8
INSIDE
 10
-5676.722196156665
 20
13240.33972155962
 30
0.0000000000002317
  0
SEQEND
  5
7D
  8
INSIDE
  0
POLYLINE
  5
7E
  8
INSIDE
 66
     1
 10
0.0
 20
0.0
 30
0.0000000000002317
  0
VERTEX
  5
7F
  8
INSIDE
 10
-5676.722196156665
 20
13392.73972155962
 30
0.0000000000002317
  0
VERTEX
  5
80
  8
INSIDE
 10
-5952.307220282604
 20
13392.73972155962
 30
0.0000000000002317
 42
0.4142135623730692
  0
VERTEX
  5
81
  8
INSIDE
 10
-5966.914708219633
 20
13378.13223362259
 30
0.0000000000002317
  0
VERTEX
  5
82
  8
INSIDE
 10
-5966.914708219634
 20
13331.14720949665
 30
0.0000000000002317
 42
0.4142135623731337
  0
VERTEX
  5
83
  8
INSIDE
 10
-5952.307220282604
 20
13316.53972155962
 30
0.0000000000002317
  0
VERTEX
  5
84
  8
INSIDE
 10
-5676.722196156665
 20
13316.53972155962
 30
0.0000000000002317
 42
0.4142135623731112
  0
VERTEX
  5
85
  8
INSIDE
 10
-5662.114708219635
 20
13331.14720949665
 30
0.0000000000002317
  0
VERTEX
  5
86
  8
INSIDE
 10
-5662.114708219633
 20
13378.13223362259
 30
0.0000000000002317
 42
0.4142135623730737
  0
VERTEX
  5
87
  8
INSIDE
 10
-5676.722196156665
 20
13392.73972155962
 30
0.0000000000002317
  0
SEQEND
  5
88
  8
INSIDE
  0
POLYLINE
  5
89
  8
INSIDE
 66
     1
 10
0.0
 20
0.0
 30
0.0000000000002317
  0
VERTEX
  5
8A
  8
INSIDE
 10
-5676.722196156665
 20
13545.13972155962
 30
0.0000000000002317
  0
VERTEX
  5
8B
  8
INSIDE
 10
-5952.307220282604
 20
13545.13972155962
 30
0.0000000000002317
 42
0.4142135623730319
  0
VERTEX
  5
8C
  8
INSIDE
 10
-5966.914708219633
 20
13530.53223362259
 30
0.0000000000002317
  0
VERTEX
  5
8D
  8
INSIDE
 10
-5966.914708219632
 20
13483.54720949665
 30
0.0000000000002317
 42
0.4142135623731293
  0
VERTEX
  5
8E
  8
INSIDE
 10
-5952.307220282604
 20
13468.93972155962
 30
0.0000000000002317
  0
VERTEX
  5
8F
  8
INSIDE
 10
-5676.722196156665
 20
13468.93972155962
 30
0.0000000000002317
 42
0.4142135623730275
  0
VERTEX
  5
90
  8
INSIDE
 10
-5662.114708219635
 20
13483.54720949665
 30
0.0000000000002317
  0
VERTEX
  5
91
  8
INSIDE
 10
-5662.114708219637
 20
13530.53223362259
 30
0.0000000000002317
 42
0.4142135623731293
  0
VERTEX
  5
92
  8
INSIDE
 10
-5676.722196156665
 20
13545.13972155962
 30
0.0000000000002317
  0
SEQEND
  5
93
  8
INSIDE
  0
POLYLINE
  5
94
  8
INSIDE
 66
     1
 10
0.0
 20
0.0
 30
0.0000000000000043
  0
VERTEX
  5
95
  8
INSIDE
 10
-5562.755766841668
 20
13672.4445866199
 30
0.0000000000000043
  0
VERTEX
  5
96
  8
INSIDE
 10
-6066.273649597601
 20
13672.4445866199
 30
0.0000000000000043
 42
-0.414213562373162
  0
VERTEX
  5
97
  8
INSIDE
 10
-6168.633304259796
 20
13774.80424128208
 30
0.0000000000000043
  0
VERTEX
  5
98
  8
INSIDE
 10
-6168.633304259799
 20
14045.74964920626
 30
0.0000000000000043
 42
-0.4142135623731115
  0
VERTEX
  5
99
  8
INSIDE
 10
-6066.273649597607
 20
14148.10930386846
 30
0.0000000000000043
  0
VERTEX
  5
9A
  8
INSIDE
 10
-5562.755766841668
 20
14148.10930386846
 30
0.0000000000000043
 42
-0.4142135623730642
  0
VERTEX
  5
9B
  8
INSIDE
 10
-5460.396112179471
 20
14045.74964920625
 30
0.0000000000000043
  0
VERTEX
  5
9C
  8
INSIDE
 10
-5460.39611217947
 20
13774.8042412821
 30
0.0000000000000043
 42
-0.4142135623730816
  0
VERTEX
  5
9D
  8
INSIDE
 10
-5562.755766841671
 20
13672.4445866199
 30
0.0000000000000043
  0
SEQEND
  5
9E
  8
INSIDE
  0
CIRCLE
  5
9F
  8
INSIDE
 10
-5525.604244396782
 20
13515.53005389647
 30
0.0000000000000043
 40
65.20813221731078
  0
CIRCLE
  5
A0
  8
INSIDE
 10
-6103.425172042487
 20
13515.53005389647
 30
0.0000000000000043
 40
65.20813221731078
  0
CIRCLE
  5
A2
  8
HOLES
 10
-5385.889708219625
 20
13162.55222156027
 30
-0.0000000000001115
 40
1.5875
  0
CIRCLE
  5
A3
  8
HOLES
 10
-5385.889708219625
 20
13314.95222156027
 30
-0.0000000000001115
 40
1.5875
  0
CIRCLE
  5
A4
  8
HOLES
 10
-5385.889708219625
 20
13467.35222156027
 30
-0.0000000000001115
 40
1.5875
  0
CIRCLE
  5
A5
  8
HOLES
 10
-5385.889708219625
 20
13619.75222156027
 30
-0.0000000000001115
 40
1.5875
  0
CIRCLE
  5
A6
  8
HOLES
 10
-5385.889708219625
 20
13772.15222156027
 30
-0.0000000000001115
 40
1.5875
  0
CIRCLE
  5
A7
  8
HOLES
 10
-5385.889708219625
 20
13924.55222156027
 30
-0.0000000000001115
 40
1.5875
  0
CIRCLE
  5
A8
  8
HOLES
 10
-5385.889708219625
 20
14076.95222156028
 30
-0.0000000000001115
 40
1.5875
  0
CIRCLE
  5
A9
  8
HOLES
 10
-5385.889708219625
 20
14229.35222156028
 30
-0.0000000000001115
 40
1.5875
  0
CIRCLE
  5
AA
  8
HOLES
 10
-6147.889708219651
 20
14284.91472155963
 30
-0.0000000000002231
 40
1.5875
  0
CIRCLE
  5
AB
  8
HOLES
 10
-5995.489708219651
 20
14284.91472155963
 30
-0.0000000000002231
 40
1.5875
  0
CIRCLE
  5
AC
  8
HOLES
 10
-5843.089708219652
 20
14284.91472155963
 30
-0.0000000000002231
 40
1.5875
  0
CIRCLE
  5
AD
  8
HOLES
 10
-5690.689708219652
 20
14284.91472155963
 30
-0.0000000000002231
 40
1.5875
  0
CIRCLE
  5
AE
  8
HOLES
 10
-5538.289708219652
 20
14284.91472155963
 30
-0.0000000000002231
 40
1.5875
  0
CIRCLE
  5
AF
  8
HOLES
 10
-6243.139708219644
 20
14229.35222156028
 30
-0.0000000000001115
 40
1.5875
  0
CIRCLE
  5
B0
  8
HOLES
 10
-6243.139708219644
 20
14076.95222156028
 30
-0.0000000000001115
 40
1.5875
  0
CIRCLE
  5
B1
  8
HOLES
 10
-6243.139708219644
 20
13924.55222156027
 30
-0.0000000000001115
 40
1.5875
  0
CIRCLE
  5
B2
  8
HOLES
 10
-6243.139708219644
 20
13772.15222156027
 30
-0.0000000000001115
 40
1.5875
  0
CIRCLE
  5
B3
  8
HOLES
 10
-6243.139708219644
 20
13619.75222156027
 30
-0.0000000000001115
 40
1.5875
  0
CIRCLE
  5
B4
  8
HOLES
 10
-6243.139708219644
 20
13467.35222156027
 30
-0.0000000000001115
 40
1.5875
  0
CIRCLE
  5
B5
  8
HOLES
 10
-6243.139708219644
 20
13314.95222156027
 30
-0.0000000000001115
 40
1.5875
  0
CIRCLE
  5
B6
  8
HOLES
 10
-6243.139708219644
 20
13162.55222156027
 30
-0.0000000000001115
 40
1.5875
  0
POLYLINE
  5
B7
  8
INSIDE
 66
     1
 10
0.0
 20
0.0
 30
0.0000000000004558
  0
VERTEX
  5
B8
  8
INSIDE
 10
-7041.893803340512
 20
13496.24939000294
 30
0.0000000000004558
  0
VERTEX
  5
B9
  8
INSIDE
 10
-7141.173548447392
 20
13496.24939000294
 30
0.0000000000004558
 42
0.4141597496607333
  0
VERTEX
  5
BA
  8
INSIDE
 10
-7155.503679018529
 20
13481.64190206591
 30
0.0000000000004558
  0
VERTEX
  5
BB
  8
INSIDE
 10
-7155.503679018528
 20
13380.56226510719
 30
0.0000000000004558
 42
0.4141597496605123
  0
VERTEX
  5
BC
  8
INSIDE
 10
-7141.173548447392
 20
13365.95477717016
 30
0.0000000000004558
  0
VERTEX
  5
BD
  8
INSIDE
 10
-7041.893803340512
 20
13365.95477717016
 30
0.0000000000004558
 42
0.4141597496607173
  0
VERTEX
  5
BE
  8
INSIDE
 10
-7027.563672769375
 20
13380.56226510719
 30
0.0000000000004558
  0
VERTEX
  5
BF
  8
INSIDE
 10
-7027.563672769375
 20
13481.64190206591
 30
0.0000000000004558
 42
0.4141597496604536
  0
VERTEX
  5
C0
  8
INSIDE
 10
-7041.893803340512
 20
13496.24939000294
 30
0.0000000000004558
  0
SEQEND
  5
C1
  8
INSIDE
  0
POLYLINE
  5
C2
  8
INSIDE
 66
     1
 10
0.0
 20
0.0
 30
0.0000000000004579
  0
VERTEX
  5
C3
  8
INSIDE
 10
-6574.323904237996
 20
13496.24939000294
 30
0.0000000000004579
  0
VERTEX
  5
C4
  8
INSIDE
 10
-6475.044159131116
 20
13496.24939000294
 30
0.0000000000004579
 42
-0.4141597496607645
  0
VERTEX
  5
C5
  8
INSIDE
 10
-6460.714028559978
 20
13481.64190206591
 30
0.0000000000004579
  0
VERTEX
  5
C6
  8
INSIDE
 10
-6460.714028559978
 20
13380.56226510719
 30
0.0000000000004579
 42
-0.4141597496604779
  0
VERTEX
  5
C7
  8
INSIDE
 10
-6475.044159131116
 20
13365.95477717016
 30
0.0000000000004579
  0
VERTEX
  5
C8
  8
INSIDE
 10
-6574.323904237996
 20
13365.95477717016
 30
0.0000000000004579
 42
-0.4141597496607173
  0
VERTEX
  5
C9
  8
INSIDE
 10
-6588.654034809133
 20
13380.56226510719
 30
0.0000000000004579
  0
VERTEX
  5
CA
  8
INSIDE
 10
-6588.654034809131
 20
13481.64190206591
 30
0.0000000000004579
 42
-0.4141597496610537
  0
VERTEX
  5
CB
  8
INSIDE
 10
-6574.323904237996
 20
13496.24939000294
 30
0.0000000000004579
  0
SEQEND
  5
CC
  8
INSIDE
  0
POLYLINE
  5
CD
  8
INSIDE
 66
     1
 10
0.0
 20
0.0
 30
0.0000000000002306
  0
VERTEX
  5
CE
  8
INSIDE
 10
-6561.130145475425
 20
13621.33972155962
 30
0.0000000000002306
  0
VERTEX
  5
CF
  8
INSIDE
 10
-7055.087562103081
 20
13621.33972155962
 30
0.0000000000002306
  0
VERTEX
  5
D0
  8
INSIDE
 10
-7057.316392586895
 20
13621.36493891551
 30
0.0000000000002306
  0
VERTEX
  5
D1
  8
INSIDE
 10
-7059.564137111631
 20
13621.44148684189
 30
0.0000000000002306
  0
VERTEX
  5
D2
  8
INSIDE
 10
-7061.829323399104
 20
13621.57067739648
 30
0.0000000000002306
  0
VERTEX
  5
D3
  8
INSIDE
 10
-7064.110395844388
 20
13621.75377571708
 30
0.0000000000002306
  0
VERTEX
  5
D4
  8
INSIDE
 10
-7066.405716490944
 20
13621.99199417683
 30
0.0000000000002306
  0
VERTEX
  5
D5
  8
INSIDE
 10
-7068.713566428645
 20
13622.28648647161
 30
0.0000000000002306
  0
VERTEX
  5
D6
  8
INSIDE
 10
-7071.032147631394
 20
13622.638341673
 30
0.0000000000002306
  0
VERTEX
  5
D7
  8
INSIDE
 10
-7073.35958524839
 20
13623.04857828321
 30
0.0000000000002306
  0
VERTEX
  5
D8
  8
INSIDE
 10
-7075.693930360154
 20
13623.51813833025
 30
0.0000000000002306
  0
VERTEX
  5
D9
  8
INSIDE
 10
-7078.03316320707
 20
13624.04788154417
 30
0.0000000000002306
  0
VERTEX
  5
DA
  8
INSIDE
 10
-7080.375196894583
 20
13624.63857965685
 30
0.0000000000002306
  0
VERTEX
  5
DB
  8
INSIDE
 10
-7082.71788157524
 20
13625.29091086919
 30
0.0000000000002306
  0
VERTEX
  5
DC
  8
INSIDE
 10
-7085.059009103555
 20
13626.00545453098
 30
0.0000000000002306
  0
VERTEX
  5
DD
  8
INSIDE
 10
-7087.396318155244
 20
13626.78268607888
 30
0.0000000000002306
  0
VERTEX
  5
DE
  8
INSIDE
 10
-7089.727499797772
 20
13627.62297227853
 30
0.0000000000002306
  0
VERTEX
  5
DF
  8
INSIDE
 10
-7092.050203494405
 20
13628.52656681611
 30
0.0000000000002306
  0
VERTEX
  5
E0
  8
INSIDE
 10
-7094.362043519202
 20
13629.4936062839
 30
0.0000000000002306
  0
VERTEX
  5
E1
  8
INSIDE
 10
-7096.660605755562
 20
13630.52410660284
 30
0.0000000000002306
  0
VERTEX
  5
E2
  8
INSIDE
 10
-7098.943454846211
 20
13631.61795992311
 30
0.0000000000002306
  0
VERTEX
  5
E3
  8
INSIDE
 10
-7101.208141658026
 20
13632.77493204077
 30
0.0000000000002306
  0
VERTEX
  5
E4
  8
INSIDE
 10
-7103.452211020667
 20
13633.99466036579
 30
0.0000000000002306
  0
VERTEX
  5
E5
  8
INSIDE
 10
-7105.673209693987
 20
13635.27665247245
 30
0.0000000000002306
  0
VERTEX
  5
E6
  8
INSIDE
 10
-7107.868694515549
 20
13636.62028525913
 30
0.0000000000002306
  0
VERTEX
  5
E7
  8
INSIDE
 10
-7110.036240676276
 20
13638.02480473966
 30
0.0000000000002306
  0
VERTEX
  5
E8
  8
INSIDE
 10
-7112.173450069687
 20
13639.48932648294
 30
0.0000000000002306
  0
VERTEX
  5
E9
  8
INSIDE
 10
-7114.27795965783
 20
13641.01283671232
 30
0.0000000000002306
  0
VERTEX
  5
EA
  8
INSIDE
 10
-7116.347449795742
 20
13642.59419406999
 30
0.0000000000002306
  0
VERTEX
  5
EB
  8
INSIDE
 10
-7118.379652455175
 20
13644.23213204576
 30
0.0000000000002306
  0
VERTEX
  5
EC
  8
INSIDE
 10
-7120.372359288353
 20
13645.92526206314
 30
0.0000000000002306
  0
VERTEX
  5
ED
  8
INSIDE
 10
-7122.323429472933
 20
13647.67207720971
 30
0.0000000000002306
  0
VERTEX
  5
EE
  8
INSIDE
 10
-7124.230797280695
 20
13649.47095659211
 30
0.0000000000002306
  0
VERTEX
  5
EF
  8
INSIDE
 10
-7126.092479314416
 20
13651.32017029026
 30
0.0000000000002306
  0
VERTEX
  5
F0
  8
INSIDE
 10
-7127.906581360073
 20
13653.21788487947
 30
0.0000000000002306
  0
VERTEX
  5
F1
  8
INSIDE
 10
-7129.67130480483
 20
13655.16216948352
 30
0.0000000000002306
  0
VERTEX
  5
F2
  8
INSIDE
 10
-7131.384952575201
 20
13657.15100231683
 30
0.0000000000002306
  0
VERTEX
  5
F3
  8
INSIDE
 10
-7133.045934554279
 20
13659.18227766936
 30
0.0000000000002306
  0
VERTEX
  5
F4
  8
INSIDE
 10
-7134.652772441896
 20
13661.25381328349
 30
0.0000000000002306
  0
VERTEX
  5
F5
  8
INSIDE
 10
-7136.204104026955
 20
13663.36335806923
 30
0.0000000000002306
  0
VERTEX
  5
F6
  8
INSIDE
 10
-7137.698686846914
 20
13665.50860010101
 30
0.0000000000002306
  0
VERTEX
  5
F7
  8
INSIDE
 10
-7139.135401215317
 20
13667.68717483752
 30
0.0000000000002306
  0
VERTEX
  5
F8
  8
INSIDE
 10
-7140.513252604445
 20
13669.89667350459
 30
0.0000000000002306
  0
VERTEX
  5
F9
  8
INSIDE
 10
-7141.831373376194
 20
13672.13465158076
 30
0.0000000000002306
  0
VERTEX
  5
FA
  8
INSIDE
 10
-7143.089023860575
 20
13674.39863732518
 30
0.0000000000002306
  0
VERTEX
  5
FB
  8
INSIDE
 10
-7144.285592787021
 20
13676.68614028839
 30
0.0000000000002306
  0
VERTEX
  5
FC
  8
INSIDE
 10
-7145.420597079662
 20
13678.99465974817
 30
0.0000000000002306
  0
VERTEX
  5
FD
  8
INSIDE
 10
-7146.493681033086
 20
13681.32169301477
 30
0.0000000000002306
  0
VERTEX
  5
FE
  8
INSIDE
 10
-7147.504614890278
 20
13683.66474355247
 30
0.0000000000002306
  0
VERTEX
  5
FF
  8
INSIDE
 10
-7148.453292849183
 20
13686.02132886808
 30
0.0000000000002306
  0
VERTEX
  5
100
  8
INSIDE
 10
-7149.339730528453
 20
13688.38898812013
 30
0.0000000000002306
  0
VERTEX
  5
101
  8
INSIDE
 10
-7150.164061926847
 20
13690.76528940735
 30
0.0000000000002306
  0
VERTEX
  5
102
  8
INSIDE
 10
-7150.926535913712
 20
13693.14783669875
 30
0.0000000000002306
  0
VERTEX
  5
103
  8
INSIDE
 10
-7151.62751229078
 20
13695.53427637277
 30
0.0000000000002306
  0
VERTEX
  5
104
  8
INSIDE
 10
-7152.267457467447
 20
13697.92230333757
 30
0.0000000000002306
  0
VERTEX
  5
105
  8
INSIDE
 10
-7152.846939793171
 20
13700.30966670936
 30
0.0000000000002306
  0
VERTEX
  5
106
  8
INSIDE
 10
-7153.366624591644
 20
13702.69417503073
 30
0.0000000000002306
  0
VERTEX
  5
107
  8
INSIDE
 10
-7153.827268941588
 20
13705.07370101562
 30
0.0000000000002306
  0
VERTEX
  5
108
  8
INSIDE
 10
-7154.229716249071
 20
13707.4461858123
 30
0.0000000000002306
  0
VERTEX
  5
109
  8
INSIDE
 10
-7154.574890655499
 20
13709.80964278027
 30
0.0000000000002306
  0
VERTEX
  5
10A
  8
INSIDE
 10
-7154.863791324421
 20
13712.16216078128
 30
0.0000000000002306
  0
VERTEX
  5
10B
  8
INSIDE
 10
-7155.097486648866
 20
13714.50190698873
 30
0.0000000000002306
  0
VERTEX
  5
10C
  8
INSIDE
 10
-7155.277108419074
 20
13716.82712922328
 30
0.0000000000002306
  0
VERTEX
  5
10D
  8
INSIDE
 10
-7155.403845988449
 20
13719.136157826
 30
0.0000000000002306
  0
VERTEX
  5
10E
  8
INSIDE
 10
-7155.478940473196
 20
13721.42740708347
 30
0.0000000000002306
  0
VERTEX
  5
10F
  8
INSIDE
 10
-7155.50367901853
 20
13723.69937622181
 30
0.0000000000002306
  0
VERTEX
  5
110
  8
INSIDE
 10
-7155.50367901853
 20
14045.74964920626
 30
0.0000000000002306
  0
VERTEX
  5
111
  8
INSIDE
 10
-7155.478940473196
 20
14048.0216183446
 30
0.0000000000002306
  0
VERTEX
  5
112
  8
INSIDE
 10
-7155.403845988449
 20
14050.31286760207
 30
0.0000000000002306
  0
VERTEX
  5
113
  8
INSIDE
 10
-7155.277108419074
 20
14052.62189620478
 30
0.0000000000002306
  0
VERTEX
  5
114
  8
INSIDE
 10
-7155.097486648866
 20
14054.94711843933
 30
0.0000000000002306
  0
VERTEX
  5
115
  8
INSIDE
 10
-7154.863791324421
 20
14057.28686464679
 30
0.0000000000002306
  0
VERTEX
  5
116
  8
INSIDE
 10
-7154.574890655499
 20
14059.6393826478
 30
0.0000000000002306
  0
VERTEX
  5
117
  8
INSIDE
 10
-7154.229716249071
 20
14062.00283961576
 30
0.0000000000002306
  0
VERTEX
  5
118
  8
INSIDE
 10
-7153.827268941588
 20
14064.37532441244
 30
0.0000000000002306
  0
VERTEX
  5
119
  8
INSIDE
 10
-7153.366624591644
 20
14066.75485039734
 30
0.0000000000002306
  0
VERTEX
  5
11A
  8
INSIDE
 10
-7152.846939793171
 20
14069.13935871871
 30
0.0000000000002306
  0
VERTEX
  5
11B
  8
INSIDE
 10
-7152.267457467447
 20
14071.5267220905
 30
0.0000000000002306
  0
VERTEX
  5
11C
  8
INSIDE
 10
-7151.62751229078
 20
14073.9147490553
 30
0.0000000000002306
  0
VERTEX
  5
11D
  8
INSIDE
 10
-7150.926535913712
 20
14076.30118872932
 30
0.0000000000002306
  0
VERTEX
  5
11E
  8
INSIDE
 10
-7150.164061926847
 20
14078.68373602072
 30
0.0000000000002306
  0
VERTEX
  5
11F
  8
INSIDE
 10
-7149.339730528453
 20
14081.06003730794
 30
0.0000000000002306
  0
VERTEX
  5
120
  8
INSIDE
 10
-7148.453292849183
 20
14083.42769655999
 30
0.0000000000002306
  0
VERTEX
  5
121
  8
INSIDE
 10
-7147.504614890278
 20
14085.78428187559
 30
0.0000000000002306
  0
VERTEX
  5
122
  8
INSIDE
 10
-7146.493681033086
 20
14088.12733241331
 30
0.0000000000002306
  0
VERTEX
  5
123
  8
INSIDE
 10
-7145.420597079662
 20
14090.4543656799
 30
0.0000000000002306
  0
VERTEX
  5
124
  8
INSIDE
 10
-7144.285592787021
 20
14092.76288513969
 30
0.0000000000002306
  0
VERTEX
  5
125
  8
INSIDE
 10
-7143.089023860575
 20
14095.0503881029
 30
0.0000000000002306
  0
VERTEX
  5
126
  8
INSIDE
 10
-7141.831373376194
 20
14097.31437384731
 30
0.0000000000002306
  0
VERTEX
  5
127
  8
INSIDE
 10
-7140.513252604445
 20
14099.55235192348
 30
0.0000000000002306
  0
VERTEX
  5
128
  8
INSIDE
 10
-7139.135401215317
 20
14101.76185059055
 30
0.0000000000002306
  0
VERTEX
  5
129
  8
INSIDE
 10
-7137.698686846914
 20
14103.94042532705
 30
0.0000000000002306
  0
VERTEX
  5
12A
  8
INSIDE
 10
-7136.204104026955
 20
14106.08566735884
 30
0.0000000000002306
  0
VERTEX
  5
12B
  8
INSIDE
 10
-7134.652772441896
 20
14108.19521214458
 30
0.0000000000002306
  0
VERTEX
  5
12C
  8
INSIDE
 10
-7133.045934554279
 20
14110.26674775872
 30
0.0000000000002306
  0
VERTEX
  5
12D
  8
INSIDE
 10
-7131.384952575201
 20
14112.29802311124
 30
0.0000000000002306
  0
VERTEX
  5
12E
  8
INSIDE
 10
-7129.67130480483
 20
14114.28685594456
 30
0.0000000000002306
  0
VERTEX
  5
12F
  8
INSIDE
 10
-7127.906581360073
 20
14116.2311405486
 30
0.0000000000002306
  0
VERTEX
  5
130
  8
INSIDE
 10
-7126.092479314416
 20
14118.12885513781
 30
0.0000000000002306
  0
VERTEX
  5
131
  8
INSIDE
 10
-7124.230797280695
 20
14119.97806883597
 30
0.0000000000002306
  0
VERTEX
  5
132
  8
INSIDE
 10
-7122.323429472933
 20
14121.77694821836
 30
0.0000000000002306
  0
VERTEX
  5
133
  8
INSIDE
 10
-7120.372359288353
 20
14123.52376336493
 30
0.0000000000002306
  0
VERTEX
  5
134
  8
INSIDE
 10
-7118.379652455175
 20
14125.21689338232
 30
0.0000000000002306
  0
VERTEX
  5
135
  8
INSIDE
 10
-7116.347449795742
 20
14126.85483135808
 30
0.0000000000002306
  0
VERTEX
  5
136
  8
INSIDE
 10
-7114.27795965783
 20
14128.43618871576
 30
0.0000000000002306
  0
VERTEX
  5
137
  8
INSIDE
 10
-7112.173450069687
 20
14129.95969894513
 30
0.0000000000002306
  0
VERTEX
  5
138
  8
INSIDE
 10
-7110.036240676276
 20
14131.42422068841
 30
0.0000000000002306
  0
VERTEX
  5
139
  8
INSIDE
 10
-7107.868694515549
 20
14132.82874016894
 30
0.0000000000002306
  0
VERTEX
  5
13A
  8
INSIDE
 10
-7105.673209693987
 20
14134.17237295563
 30
0.0000000000002306
  0
VERTEX
  5
13B
  8
INSIDE
 10
-7103.452211020667
 20
14135.45436506229
 30
0.0000000000002306
  0
VERTEX
  5
13C
  8
INSIDE
 10
-7101.208141658026
 20
14136.67409338731
 30
0.0000000000002306
  0
VERTEX
  5
13D
  8
INSIDE
 10
-7098.943454846211
 20
14137.83106550497
 30
0.0000000000002306
  0
VERTEX
  5
13E
  8
INSIDE
 10
-7096.660605755562
 20
14138.92491882523
 30
0.0000000000002306
  0
VERTEX
  5
13F
  8
INSIDE
 10
-7094.362043519202
 20
14139.95541914417
 30
0.0000000000002306
  0
VERTEX
  5
140
  8
INSIDE
 10
-7092.050203494405
 20
14140.92245861196
 30
0.0000000000002306
  0
VERTEX
  5
141
  8
INSIDE
 10
-7089.727499797772
 20
14141.82605314954
 30
0.0000000000002306
  0
VERTEX
  5
142
  8
INSIDE
 10
-7087.396318155244
 20
14142.66633934919
 30
0.0000000000002306
  0
VERTEX
  5
143
  8
INSIDE
 10
-7085.059009103555
 20
14143.44357089709
 30
0.0000000000002306
  0
VERTEX
  5
144
  8
INSIDE
 10
-7082.71788157524
 20
14144.15811455888
 30
0.0000000000002306
  0
VERTEX
  5
145
  8
INSIDE
 10
-7080.375196894583
 20
14144.81044577122
 30
0.0000000000002306
  0
VERTEX
  5
146
  8
INSIDE
 10
-7078.03316320707
 20
14145.4011438839
 30
0.0000000000002306
  0
VERTEX
  5
147
  8
INSIDE
 10
-7075.693930360154
 20
14145.93088709782
 30
0.0000000000002306
  0
VERTEX
  5
148
  8
INSIDE
 10
-7073.35958524839
 20
14146.40044714486
 30
0.0000000000002306
  0
VERTEX
  5
149
  8
INSIDE
 10
-7071.032147631394
 20
14146.81068375507
 30
0.0000000000002306
  0
VERTEX
  5
14A
  8
INSIDE
 10
-7068.713566428645
 20
14147.16253895646
 30
0.0000000000002306
  0
VERTEX
  5
14B
  8
INSIDE
 10
-7066.405716490944
 20
14147.45703125123
 30
0.0000000000002306
  0
VERTEX
  5
14C
  8
INSIDE
 10
-7064.110395844388
 20
14147.69524971099
 30
0.0000000000002306
  0
VERTEX
  5
14D
  8
INSIDE
 10
-7061.829323399104
 20
14147.87834803159
 30
0.0000000000002306
  0
VERTEX
  5
14E
  8
INSIDE
 10
-7059.564137111631
 20
14148.00753858618
 30
0.0000000000002306
  0
VERTEX
  5
14F
  8
INSIDE
 10
-7057.316392586895
 20
14148.08408651257
 30
0.0000000000002306
  0
VERTEX
  5
150
  8
INSIDE
 10
-7055.087562103081
 20
14148.10930386846
 30
0.0000000000002306
  0
VERTEX
  5
151
  8
INSIDE
 10
-6561.130145475425
 20
14148.10930386846
 30
0.0000000000002306
  0
VERTEX
  5
152
  8
INSIDE
 10
-6558.90131499161
 20
14148.08408651257
 30
0.0000000000002306
  0
VERTEX
  5
153
  8
INSIDE
 10
-6556.653570466873
 20
14148.00753858618
 30
0.0000000000002306
  0
VERTEX
  5
154
  8
INSIDE
 10
-6554.388384179401
 20
14147.87834803159
 30
0.0000000000002306
  0
VERTEX
  5
155
  8
INSIDE
 10
-6552.107311734116
 20
14147.69524971099
 30
0.0000000000002306
  0
VERTEX
  5
156
  8
INSIDE
 10
-6549.81199108756
 20
14147.45703125123
 30
0.0000000000002306
  0
VERTEX
  5
157
  8
INSIDE
 10
-6547.50414114986
 20
14147.16253895646
 30
0.0000000000002306
  0
VERTEX
  5
158
  8
INSIDE
 10
-6545.18555994711
 20
14146.81068375507
 30
0.0000000000002306
  0
VERTEX
  5
159
  8
INSIDE
 10
-6542.858122330115
 20
14146.40044714486
 30
0.0000000000002306
  0
VERTEX
  5
15A
  8
INSIDE
 10
-6540.52377721835
 20
14145.93088709782
 30
0.0000000000002306
  0
VERTEX
  5
15B
  8
INSIDE
 10
-6538.184544371436
 20
14145.4011438839
 30
0.0000000000002306
  0
VERTEX
  5
15C
  8
INSIDE
 10
-6535.842510683924
 20
14144.81044577122
 30
0.0000000000002306
  0
VERTEX
  5
15D
  8
INSIDE
 10
-6533.499826003266
 20
14144.15811455888
 30
0.0000000000002306
  0
VERTEX
  5
15E
  8
INSIDE
 10
-6531.158698474951
 20
14143.44357089709
 30
0.0000000000002306
  0
VERTEX
  5
15F
  8
INSIDE
 10
-6528.821389423261
 20
14142.66633934919
 30
0.0000000000002306
  0
VERTEX
  5
160
  8
INSIDE
 10
-6526.490207780735
 20
14141.82605314954
 30
0.0000000000002306
  0
VERTEX
  5
161
  8
INSIDE
 10
-6524.167504084103
 20
14140.92245861196
 30
0.0000000000002306
  0
VERTEX
  5
162
  8
INSIDE
 10
-6521.855664059304
 20
14139.95541914417
 30
0.0000000000002306
  0
VERTEX
  5
163
  8
INSIDE
 10
-6519.557101822946
 20
14138.92491882523
 30
0.0000000000002306
  0
VERTEX
  5
164
  8
INSIDE
 10
-6517.274252732298
 20
14137.83106550497
 30
0.0000000000002306
  0
VERTEX
  5
165
  8
INSIDE
 10
-6515.009565920482
 20
14136.67409338731
 30
0.0000000000002306
  0
VERTEX
  5
166
  8
INSIDE
 10
-6512.765496557841
 20
14135.45436506229
 30
0.0000000000002306
  0
VERTEX
  5
167
  8
INSIDE
 10
-6510.544497884519
 20
14134.17237295563
 30
0.0000000000002306
  0
VERTEX
  5
168
  8
INSIDE
 10
-6508.34901306296
 20
14132.82874016894
 30
0.0000000000002306
  0
VERTEX
  5
169
  8
INSIDE
 10
-6506.181466902229
 20
14131.42422068841
 30
0.0000000000002306
  0
VERTEX
  5
16A
  8
INSIDE
 10
-6504.044257508819
 20
14129.95969894513
 30
0.0000000000002306
  0
VERTEX
  5
16B
  8
INSIDE
 10
-6501.939747920675
 20
14128.43618871576
 30
0.0000000000002306
  0
VERTEX
  5
16C
  8
INSIDE
 10
-6499.870257782765
 20
14126.85483135808
 30
0.0000000000002306
  0
VERTEX
  5
16D
  8
INSIDE
 10
-6497.838055123333
 20
14125.21689338232
 30
0.0000000000002306
  0
VERTEX
  5
16E
  8
INSIDE
 10
-6495.845348290155
 20
14123.52376336493
 30
0.0000000000002306
  0
VERTEX
  5
16F
  8
INSIDE
 10
-6493.894278105574
 20
14121.77694821836
 30
0.0000000000002306
  0
VERTEX
  5
170
  8
INSIDE
 10
-6491.986910297812
 20
14119.97806883597
 30
0.0000000000002306
  0
VERTEX
  5
171
  8
INSIDE
 10
-6490.12522826409
 20
14118.12885513781
 30
0.0000000000002306
  0
VERTEX
  5
172
  8
INSIDE
 10
-6488.311126218433
 20
14116.2311405486
 30
0.0000000000002306
  0
VERTEX
  5
173
  8
INSIDE
 10
-6486.546402773677
 20
14114.28685594456
 30
0.0000000000002306
  0
VERTEX
  5
174
  8
INSIDE
 10
-6484.832755003307
 20
14112.29802311124
 30
0.0000000000002306
  0
VERTEX
  5
175
  8
INSIDE
 10
-6483.171773024229
 20
14110.26674775872
 30
0.0000000000002306
  0
VERTEX
  5
176
  8
INSIDE
 10
-6481.564935136611
 20
14108.19521214458
 30
0.0000000000002306
  0
VERTEX
  5
177
  8
INSIDE
 10
-6480.01360355155
 20
14106.08566735884
 30
0.0000000000002306
  0
VERTEX
  5
178
  8
INSIDE
 10
-6478.519020731591
 20
14103.94042532705
 30
0.0000000000002306
  0
VERTEX
  5
179
  8
INSIDE
 10
-6477.082306363186
 20
14101.76185059055
 30
0.0000000000002306
  0
VERTEX
  5
17A
  8
INSIDE
 10
-6475.704454974063
 20
14099.55235192348
 30
0.0000000000002306
  0
VERTEX
  5
17B
  8
INSIDE
 10
-6474.386334202311
 20
14097.31437384731
 30
0.0000000000002306
  0
VERTEX
  5
17C
  8
INSIDE
 10
-6473.128683717932
 20
14095.0503881029
 30
0.0000000000002306
  0
VERTEX
  5
17D
  8
INSIDE
 10
-6471.932114791487
 20
14092.76288513969
 30
0.0000000000002306
  0
VERTEX
  5
17E
  8
INSIDE
 10
-6470.797110498846
 20
14090.4543656799
 30
0.0000000000002306
  0
VERTEX
  5
17F
  8
INSIDE
 10
-6469.724026545422
 20
14088.12733241331
 30
0.0000000000002306
  0
VERTEX
  5
180
  8
INSIDE
 10
-6468.713092688227
 20
14085.78428187559
 30
0.0000000000002306
  0
VERTEX
  5
181
  8
INSIDE
 10
-6467.764414729325
 20
14083.42769655999
 30
0.0000000000002306
  0
VERTEX
  5
182
  8
INSIDE
 10
-6466.877977050052
 20
14081.06003730794
 30
0.0000000000002306
  0
VERTEX
  5
183
  8
INSIDE
 10
-6466.053645651657
 20
14078.68373602072
 30
0.0000000000002306
  0
VERTEX
  5
184
  8
INSIDE
 10
-6465.291171664794
 20
14076.30118872932
 30
0.0000000000002306
  0
VERTEX
  5
185
  8
INSIDE
 10
-6464.590195287727
 20
14073.9147490553
 30
0.0000000000002306
  0
VERTEX
  5
186
  8
INSIDE
 10
-6463.950250111063
 20
14071.5267220905
 30
0.0000000000002306
  0
VERTEX
  5
187
  8
INSIDE
 10
-6463.370767785335
 20
14069.13935871871
 30
0.0000000000002306
  0
VERTEX
  5
188
  8
INSIDE
 10
-6462.851082986862
 20
14066.75485039734
 30
0.0000000000002306
  0
VERTEX
  5
189
  8
INSIDE
 10
-6462.390438636918
 20
14064.37532441244
 30
0.0000000000002306
  0
VERTEX
  5
18A
  8
INSIDE
 10
-6461.987991329433
 20
14062.00283961576
 30
0.0000000000002306
  0
VERTEX
  5
18B
  8
INSIDE
 10
-6461.642816923008
 20
14059.6393826478
 30
0.0000000000002306
  0
VERTEX
  5
18C
  8
INSIDE
 10
-6461.353916254084
 20
14057.28686464679
 30
0.0000000000002306
  0
VERTEX
  5
18D
  8
INSIDE
 10
-6461.120220929639
 20
14054.94711843933
 30
0.0000000000002306
  0
VERTEX
  5
18E
  8
INSIDE
 10
-6460.940599159432
 20
14052.62189620478
 30
0.0000000000002306
  0
VERTEX
  5
18F
  8
INSIDE
 10
-6460.813861590056
 20
14050.31286760207
 30
0.0000000000002306
  0
VERTEX
  5
190
  8
INSIDE
 10
-6460.73876710531
 20
14048.0216183446
 30
0.0000000000002306
  0
VERTEX
  5
191
  8
INSIDE
 10
-6460.714028559976
 20
14045.74964920626
 30
0.0000000000002306
  0
VERTEX
  5
192
  8
INSIDE
 10
-6460.714028559976
 20
13723.69937622181
 30
0.0000000000002306
  0
VERTEX
  5
193
  8
INSIDE
 10
-6460.73876710531
 20
13721.42740708347
 30
0.0000000000002306
  0
VERTEX
  5
194
  8
INSIDE
 10
-6460.813861590056
 20
13719.136157826
 30
0.0000000000002306
  0
VERTEX
  5
195
  8
INSIDE
 10
-6460.940599159432
 20
13716.82712922328
 30
0.0000000000002306
  0
VERTEX
  5
196
  8
INSIDE
 10
-6461.120220929639
 20
13714.50190698873
 30
0.0000000000002306
  0
VERTEX
  5
197
  8
INSIDE
 10
-6461.353916254084
 20
13712.16216078128
 30
0.0000000000002306
  0
VERTEX
  5
198
  8
INSIDE
 10
-6461.642816923008
 20
13709.80964278027
 30
0.0000000000002306
  0
VERTEX
  5
199
  8
INSIDE
 10
-6461.987991329433
 20
13707.4461858123
 30
0.0000000000002306
  0
VERTEX
  5
19A
  8
INSIDE
 10
-6462.390438636918
 20
13705.07370101562
 30
0.0000000000002306
  0
VERTEX
  5
19B
  8
INSIDE
 10
-6462.851082986862
 20
13702.69417503073
 30
0.0000000000002306
  0
VERTEX
  5
19C
  8
INSIDE
 10
-6463.370767785335
 20
13700.30966670936
 30
0.0000000000002306
  0
VERTEX
  5
19D
  8
INSIDE
 10
-6463.950250111063
 20
13697.92230333757
 30
0.0000000000002306
  0
VERTEX
  5
19E
  8
INSIDE
 10
-6464.590195287727
 20
13695.53427637277
 30
0.0000000000002306
  0
VERTEX
  5
19F
  8
INSIDE
 10
-6465.291171664794
 20
13693.14783669875
 30
0.0000000000002306
  0
VERTEX
  5
1A0
  8
INSIDE
 10
-6466.053645651657
 20
13690.76528940735
 30
0.0000000000002306
  0
VERTEX
  5
1A1
  8
INSIDE
 10
-6466.877977050052
 20
13688.38898812013
 30
0.0000000000002306
  0
VERTEX
  5
1A2
  8
INSIDE
 10
-6467.764414729325
 20
13686.02132886808
 30
0.0000000000002306
  0
VERTEX
  5
1A3
  8
INSIDE
 10
-6468.713092688227
 20
13683.66474355248
 30
0.0000000000002306
  0
VERTEX
  5
1A4
  8
INSIDE
 10
-6469.724026545422
 20
13681.32169301477
 30
0.0000000000002306
  0
VERTEX
  5
1A5
  8
INSIDE
 10
-6470.797110498846
 20
13678.99465974818
 30
0.0000000000002306
  0
VERTEX
  5
1A6
  8
INSIDE
 10
-6471.932114791487
 20
13676.68614028839
 30
0.0000000000002306
  0
VERTEX
  5
1A7
  8
INSIDE
 10
-6473.128683717932
 20
13674.39863732518
 30
0.0000000000002306
  0
VERTEX
  5
1A8
  8
INSIDE
 10
-6474.386334202311
 20
13672.13465158076
 30
0.0000000000002306
  0
VERTEX
  5
1A9
  8
INSIDE
 10
-6475.704454974063
 20
13669.89667350459
 30
0.0000000000002306
  0
VERTEX
  5
1AA
  8
INSIDE
 10
-6477.082306363186
 20
13667.68717483752
 30
0.0000000000002306
  0
VERTEX
  5
1AB
  8
INSIDE
 10
-6478.519020731591
 20
13665.50860010101
 30
0.0000000000002306
  0
VERTEX
  5
1AC
  8
INSIDE
 10
-6480.01360355155
 20
13663.36335806923
 30
0.0000000000002306
  0
VERTEX
  5
1AD
  8
INSIDE
 10
-6481.564935136611
 20
13661.25381328349
 30
0.0000000000002306
  0
VERTEX
  5
1AE
  8
INSIDE
 10
-6483.171773024229
 20
13659.18227766936
 30
0.0000000000002306
  0
VERTEX
  5
1AF
  8
INSIDE
 10
-6484.832755003307
 20
13657.15100231683
 30
0.0000000000002306
  0
VERTEX
  5
1B0
  8
INSIDE
 10
-6486.546402773677
 20
13655.16216948352
 30
0.0000000000002306
  0
VERTEX
  5
1B1
  8
INSIDE
 10
-6488.311126218433
 20
13653.21788487947
 30
0.0000000000002306
  0
VERTEX
  5
1B2
  8
INSIDE
 10
-6490.12522826409
 20
13651.32017029026
 30
0.0000000000002306
  0
VERTEX
  5
1B3
  8
INSIDE
 10
-6491.986910297812
 20
13649.47095659211
 30
0.0000000000002306
  0
VERTEX
  5
1B4
  8
INSIDE
 10
-6493.894278105574
 20
13647.67207720971
 30
0.0000000000002306
  0
VERTEX
  5
1B5
  8
INSIDE
 10
-6495.845348290155
 20
13645.92526206314
 30
0.0000000000002306
  0
VERTEX
  5
1B6
  8
INSIDE
 10
-6497.838055123333
 20
13644.23213204576
 30
0.0000000000002306
  0
VERTEX
  5
1B7
  8
INSIDE
 10
-6499.870257782765
 20
13642.59419406999
 30
0.0000000000002306
  0
VERTEX
  5
1B8
  8
INSIDE
 10
-6501.939747920675
 20
13641.01283671232
 30
0.0000000000002306
  0
VERTEX
  5
1B9
  8
INSIDE
 10
-6504.044257508819
 20
13639.48932648294
 30
0.0000000000002306
  0
VERTEX
  5
1BA
  8
INSIDE
 10
-6506.181466902229
 20
13638.02480473966
 30
0.0000000000002306
  0
VERTEX
  5
1BB
  8
INSIDE
 10
-6508.34901306296
 20
13636.62028525913
 30
0.0000000000002306
  0
VERTEX
  5
1BC
  8
INSIDE
 10
-6510.544497884519
 20
13635.27665247245
 30
0.0000000000002306
  0
VERTEX
  5
1BD
  8
INSIDE
 10
-6512.765496557841
 20
13633.99466036579
 30
0.0000000000002306
  0
VERTEX
  5
1BE
  8
INSIDE
 10
-6515.009565920482
 20
13632.77493204077
 30
0.0000000000002306
  0
VERTEX
  5
1BF
  8
INSIDE
 10
-6517.274252732298
 20
13631.61795992311
 30
0.0000000000002306
  0
VERTEX
  5
1C0
  8
INSIDE
 10
-6519.557101822946
 20
13630.52410660284
 30
0.0000000000002306
  0
VERTEX
  5
1C1
  8
INSIDE
 10
-6521.855664059304
 20
13629.4936062839
 30
0.0000000000002306
  0
VERTEX
  5
1C2
  8
INSIDE
 10
-6524.167504084103
 20
13628.52656681611
 30
0.0000000000002306
  0
VERTEX
  5
1C3
  8
INSIDE
 10
-6526.490207780735
 20
13627.62297227853
 30
0.0000000000002306
  0
VERTEX
  5
1C4
  8
INSIDE
 10
-6528.821389423261
 20
13626.78268607888
 30
0.0000000000002306
  0
VERTEX
  5
1C5
  8
INSIDE
 10
-6531.158698474951
 20
13626.00545453098
 30
0.0000000000002306
  0
VERTEX
  5
1C6
  8
INSIDE
 10
-6533.499826003266
 20
13625.29091086919
 30
0.0000000000002306
  0
VERTEX
  5
1C7
  8
INSIDE
 10
-6535.842510683924
 20
13624.63857965685
 30
0.0000000000002306
  0
VERTEX
  5
1C8
  8
INSIDE
 10
-6538.184544371436
 20
13624.04788154417
 30
0.0000000000002306
  0
VERTEX
  5
1C9
  8
INSIDE
 10
-6540.52377721835
 20
13623.51813833025
 30
0.0000000000002306
  0
VERTEX
  5
1CA
  8
INSIDE
 10
-6542.858122330115
 20
13623.04857828321
 30
0.0000000000002306
  0
VERTEX
  5
1CB
  8
INSIDE
 10
-6545.18555994711
 20
13622.638341673
 30
0.0000000000002306
  0
VERTEX
  5
1CC
  8
INSIDE
 10
-6547.50414114986
 20
13622.28648647161
 30
0.0000000000002306
  0
VERTEX
  5
1CD
  8
INSIDE
 10
-6549.81199108756
 20
13621.99199417683
 30
0.0000000000002306
  0
VERTEX
  5
1CE
  8
INSIDE
 10
-6552.107311734116
 20
13621.75377571708
 30
0.0000000000002306
  0
VERTEX
  5
1CF
  8
INSIDE
 10
-6554.388384179401
 20
13621.57067739648
 30
0.0000000000002306
  0
VERTEX
  5
1D0
  8
INSIDE
 10
-6556.653570466873
 20
13621.44148684189
 30
0.0000000000002306
  0
VERTEX
  5
1D1
  8
INSIDE
 10
-6558.90131499161
 20
13621.36493891551
 30
0.0000000000002306
  0
VERTEX
  5
1D2
  8
INSIDE
 10
-6561.130145475425
 20
13621.33972155962
 30
0.0000000000002306
  0
SEQEND
  5
1D3
  8
INSIDE
  0
POLYLINE
  5
1D4
  8
INSIDE
 66
     1
 10
0.0
 20
0.0
 30
-0.0000000000095468
  0
VERTEX
  5
1D5
  8
INSIDE
 10
-6629.116811929938
 20
13087.93972156004
 30
-0.0000000000095468
  0
VERTEX
  5
1D6
  8
INSIDE
 10
-6629.116811929938
 20
13442.78006689742
 30
-0.0000000000095468
  0
VERTEX
  5
1D7
  8
INSIDE
 10
-6629.141550475272
 20
13445.05203603576
 30
-0.0000000000095468
  0
VERTEX
  5
1D8
  8
INSIDE
 10
-6629.216644960019
 20
13447.34328529324
 30
-0.0000000000095468
  0
VERTEX
  5
1D9
  8
INSIDE
 10
-6629.343382529395
 20
13449.65231389595
 30
-0.0000000000095468
  0
VERTEX
  5
1DA
  8
INSIDE
 10
-6629.523004299602
 20
13451.97753613049
 30
-0.0000000000095468
  0
VERTEX
  5
1DB
  8
INSIDE
 10
-6629.756699624046
 20
13454.31728233795
 30
-0.0000000000095468
  0
VERTEX
  5
1DC
  8
INSIDE
 10
-6630.04560029297
 20
13456.66980033896
 30
-0.0000000000095468
  0
VERTEX
  5
1DD
  8
INSIDE
 10
-6630.390774699397
 20
13459.03325730693
 30
-0.0000000000095468
  0
VERTEX
  5
1DE
  8
INSIDE
 10
-6630.79322200688
 20
13461.40574210361
 30
-0.0000000000095468
  0
VERTEX
  5
1DF
  8
INSIDE
 10
-6631.253866356824
 20
13463.7852680885
 30
-0.0000000000095468
  0
VERTEX
  5
1E0
  8
INSIDE
 10
-6631.773551155297
 20
13466.16977640987
 30
-0.0000000000095468
  0
VERTEX
  5
1E1
  8
INSIDE
 10
-6632.353033481025
 20
13468.55713978166
 30
-0.0000000000095468
  0
VERTEX
  5
1E2
  8
INSIDE
 10
-6632.992978657688
 20
13470.94516674646
 30
-0.0000000000095468
  0
VERTEX
  5
1E3
  8
INSIDE
 10
-6633.693955034755
 20
13473.33160642048
 30
-0.0000000000095468
  0
VERTEX
  5
1E4
  8
INSIDE
 10
-6634.456429021619
 20
13475.71415371188
 30
-0.0000000000095468
  0
VERTEX
  5
1E5
  8
INSIDE
 10
-6635.280760420012
 20
13478.0904549991
 30
-0.0000000000095468
  0
VERTEX
  5
1E6
  8
INSIDE
 10
-6636.167198099284
 20
13480.45811425115
 30
-0.0000000000095468
  0
VERTEX
  5
1E7
  8
INSIDE
 10
-6637.115876058188
 20
13482.81469956676
 30
-0.0000000000095468
  0
VERTEX
  5
1E8
  8
INSIDE
 10
-6638.126809915384
 20
13485.15775010446
 30
-0.0000000000095468
  0
VERTEX
  5
1E9
  8
INSIDE
 10
-6639.199893868807
 20
13487.48478337106
 30
-0.0000000000095468
  0
VERTEX
  5
1EA
  8
INSIDE
 10
-6640.334898161448
 20
13489.79330283085
 30
-0.0000000000095468
  0
VERTEX
  5
1EB
  8
INSIDE
 10
-6641.531467087893
 20
13492.08080579406
 30
-0.0000000000095468
  0
VERTEX
  5
1EC
  8
INSIDE
 10
-6642.789117572275
 20
13494.34479153848
 30
-0.0000000000095468
  0
VERTEX
  5
1ED
  8
INSIDE
 10
-6644.107238344026
 20
13496.58276961465
 30
-0.0000000000095468
  0
VERTEX
  5
1EE
  8
INSIDE
 10
-6645.485089733151
 20
13498.79226828171
 30
-0.0000000000095468
  0
VERTEX
  5
1EF
  8
INSIDE
 10
-6646.921804101554
 20
13500.97084301822
 30
-0.0000000000095468
  0
VERTEX
  5
1F0
  8
INSIDE
 10
-6648.416386921514
 20
13503.11608505
 30
-0.0000000000095468
  0
VERTEX
  5
1F1
  8
INSIDE
 10
-6649.967718506575
 20
13505.22562983574
 30
-0.0000000000095468
  0
VERTEX
  5
1F2
  8
INSIDE
 10
-6651.574556394191
 20
13507.29716544988
 30
-0.0000000000095468
  0
VERTEX
  5
1F3
  8
INSIDE
 10
-6653.235538373268
 20
13509.32844080241
 30
-0.0000000000095468
  0
VERTEX
  5
1F4
  8
INSIDE
 10
-6654.949186143637
 20
13511.31727363572
 30
-0.0000000000095468
  0
VERTEX
  5
1F5
  8
INSIDE
 10
-6656.713909588395
 20
13513.26155823976
 30
-0.0000000000095468
  0
VERTEX
  5
1F6
  8
INSIDE
 10
-6658.528011634052
 20
13515.15927282897
 30
-0.0000000000095468
  0
VERTEX
  5
1F7
  8
INSIDE
 10
-6660.389693667772
 20
13517.00848652713
 30
-0.0000000000095468
  0
VERTEX
  5
1F8
  8
INSIDE
 10
-6662.297061475533
 20
13518.80736590952
 30
-0.0000000000095468
  0
VERTEX
  5
1F9
  8
INSIDE
 10
-6664.248131660114
 20
13520.5541810561
 30
-0.0000000000095468
  0
VERTEX
  5
1FA
  8
INSIDE
 10
-6666.240838493293
 20
13522.24731107348
 30
-0.0000000000095468
  0
VERTEX
  5
1FB
  8
INSIDE
 10
-6668.273041152726
 20
13523.88524904924
 30
-0.0000000000095468
  0
VERTEX
  5
1FC
  8
INSIDE
 10
-6670.342531290637
 20
13525.46660640692
 30
-0.0000000000095468
  0
VERTEX
  5
1FD
  8
INSIDE
 10
-6672.447040878779
 20
13526.9901166363
 30
-0.0000000000095468
  0
VERTEX
  5
1FE
  8
INSIDE
 10
-6674.584250272191
 20
13528.45463837957
 30
-0.0000000000095468
  0
VERTEX
  5
1FF
  8
INSIDE
 10
-6676.751796432921
 20
13529.8591578601
 30
-0.0000000000095468
  0
VERTEX
  5
200
  8
INSIDE
 10
-6678.947281254481
 20
13531.20279064679
 30
-0.0000000000095468
  0
VERTEX
  5
201
  8
INSIDE
 10
-6681.168279927801
 20
13532.48478275345
 30
-0.0000000000095468
  0
VERTEX
  5
202
  8
INSIDE
 10
-6683.412349290442
 20
13533.70451107847
 30
-0.0000000000095468
  0
VERTEX
  5
203
  8
INSIDE
 10
-6685.677036102256
 20
13534.86148319613
 30
-0.0000000000095468
  0
VERTEX
  5
204
  8
INSIDE
 10
-6687.959885192907
 20
13535.95533651639
 30
-0.0000000000095468
  0
VERTEX
  5
205
  8
INSIDE
 10
-6690.258447429264
 20
13536.98583683534
 30
-0.0000000000095468
  0
VERTEX
  5
206
  8
INSIDE
 10
-6692.570287454063
 20
13537.95287630312
 30
-0.0000000000095468
  0
VERTEX
  5
207
  8
INSIDE
 10
-6694.892991150695
 20
13538.8564708407
 30
-0.0000000000095468
  0
VERTEX
  5
208
  8
INSIDE
 10
-6697.224172793223
 20
13539.69675704036
 30
-0.0000000000095468
  0
VERTEX
  5
209
  8
INSIDE
 10
-6699.561481844912
 20
13540.47398858826
 30
-0.0000000000095468
  0
VERTEX
  5
20A
  8
INSIDE
 10
-6701.902609373228
 20
13541.18853225004
 30
-0.0000000000095468
  0
VERTEX
  5
20B
  8
INSIDE
 10
-6704.245294053885
 20
13541.84086346239
 30
-0.0000000000095468
  0
VERTEX
  5
20C
  8
INSIDE
 10
-6706.587327741398
 20
13542.43156157506
 30
-0.0000000000095468
  0
VERTEX
  5
20D
  8
INSIDE
 10
-6708.926560588313
 20
13542.96130478899
 30
-0.0000000000095468
  0
VERTEX
  5
20E
  8
INSIDE
 10
-6711.260905700075
 20
13543.43086483602
 30
-0.0000000000095468
  0
VERTEX
  5
20F
  8
INSIDE
 10
-6713.588343317074
 20
13543.84110144624
 30
-0.0000000000095468
  0
VERTEX
  5
210
  8
INSIDE
 10
-6715.906924519822
 20
13544.19295664763
 30
-0.0000000000095468
  0
VERTEX
  5
211
  8
INSIDE
 10
-6718.214774457522
 20
13544.4874489424
 30
-0.0000000000095468
  0
VERTEX
  5
212
  8
INSIDE
 10
-6720.510095104079
 20
13544.72566740216
 30
-0.0000000000095468
  0
VERTEX
  5
213
  8
INSIDE
 10
-6722.791167549363
 20
13544.90876572276
 30
-0.0000000000095468
  0
VERTEX
  5
214
  8
INSIDE
 10
-6725.056353836837
 20
13545.03795627735
 30
-0.0000000000095468
  0
VERTEX
  5
215
  8
INSIDE
 10
-6727.304098361573
 20
13545.11450420373
 30
-0.0000000000095468
  0
VERTEX
  5
216
  8
INSIDE
 10
-6729.532928845387
 20
13545.13972155962
 30
-0.0000000000095468
  0
VERTEX
  5
217
  8
INSIDE
 10
-6886.684778733159
 20
13545.13972155962
 30
-0.0000000000095468
  0
VERTEX
  5
218
  8
INSIDE
 10
-6888.913609216974
 20
13545.11450420373
 30
-0.0000000000095468
  0
VERTEX
  5
219
  8
INSIDE
 10
-6891.161353741709
 20
13545.03795627734
 30
-0.0000000000095468
  0
VERTEX
  5
21A
  8
INSIDE
 10
-6893.426540029183
 20
13544.90876572275
 30
-0.0000000000095468
  0
VERTEX
  5
21B
  8
INSIDE
 10
-6895.707612474465
 20
13544.72566740215
 30
-0.0000000000095468
  0
VERTEX
  5
21C
  8
INSIDE
 10
-6898.002933121022
 20
13544.48744894239
 30
-0.0000000000095468
  0
VERTEX
  5
21D
  8
INSIDE
 10
-6900.310783058723
 20
13544.19295664762
 30
-0.0000000000095468
  0
VERTEX
  5
21E
  8
INSIDE
 10
-6902.629364261473
 20
13543.84110144623
 30
-0.0000000000095468
  0
VERTEX
  5
21F
  8
INSIDE
 10
-6904.956801878468
 20
13543.43086483602
 30
-0.0000000000095468
  0
VERTEX
  5
220
  8
INSIDE
 10
-6907.291146990231
 20
13542.96130478898
 30
-0.0000000000095468
  0
VERTEX
  5
221
  8
INSIDE
 10
-6909.630379837148
 20
13542.43156157506
 30
-0.0000000000095468
  0
VERTEX
  5
222
  8
INSIDE
 10
-6911.972413524662
 20
13541.84086346238
 30
-0.0000000000095468
  0
VERTEX
  5
223
  8
INSIDE
 10
-6914.315098205318
 20
13541.18853225004
 30
-0.0000000000095468
  0
VERTEX
  5
224
  8
INSIDE
 10
-6916.656225733633
 20
13540.47398858825
 30
-0.0000000000095468
  0
VERTEX
  5
225
  8
INSIDE
 10
-6918.993534785322
 20
13539.69675704035
 30
-0.0000000000095468
  0
VERTEX
  5
226
  8
INSIDE
 10
-6921.32471642785
 20
13538.8564708407
 30
-0.0000000000095468
  0
VERTEX
  5
227
  8
INSIDE
 10
-6923.647420124483
 20
13537.95287630312
 30
-0.0000000000095468
  0
VERTEX
  5
228
  8
INSIDE
 10
-6925.95926014928
 20
13536.98583683534
 30
-0.0000000000095468
  0
VERTEX
  5
229
  8
INSIDE
 10
-6928.25782238564
 20
13535.95533651639
 30
-0.0000000000095468
  0
VERTEX
  5
22A
  8
INSIDE
 10
-6930.540671476289
 20
13534.86148319613
 30
-0.0000000000095468
  0
VERTEX
  5
22B
  8
INSIDE
 10
-6932.805358288105
 20
13533.70451107847
 30
-0.0000000000095468
  0
VERTEX
  5
22C
  8
INSIDE
 10
-6935.049427650747
 20
13532.48478275344
 30
-0.0000000000095468
  0
VERTEX
  5
22D
  8
INSIDE
 10
-6937.270426324066
 20
13531.20279064678
 30
-0.0000000000095468
  0
VERTEX
  5
22E
  8
INSIDE
 10
-6939.465911145626
 20
13529.8591578601
 30
-0.0000000000095468
  0
VERTEX
  5
22F
  8
INSIDE
 10
-6941.633457306353
 20
13528.45463837957
 30
-0.0000000000095468
  0
VERTEX
  5
230
  8
INSIDE
 10
-6943.770666699765
 20
13526.99011663629
 30
-0.0000000000095468
  0
VERTEX
  5
231
  8
INSIDE
 10
-6945.875176287907
 20
13525.46660640691
 30
-0.0000000000095468
  0
VERTEX
  5
232
  8
INSIDE
 10
-6947.944666425818
 20
13523.88524904924
 30
-0.0000000000095468
  0
VERTEX
  5
233
  8
INSIDE
 10
-6949.976869085252
 20
13522.24731107348
 30
-0.0000000000095468
  0
VERTEX
  5
234
  8
INSIDE
 10
-6951.969575918431
 20
13520.55418105609
 30
-0.0000000000095468
  0
VERTEX
  5
235
  8
INSIDE
 10
-6953.920646103012
 20
13518.80736590952
 30
-0.0000000000095468
  0
VERTEX
  5
236
  8
INSIDE
 10
-6955.828013910773
 20
13517.00848652712
 30
-0.0000000000095468
  0
VERTEX
  5
237
  8
INSIDE
 10
-6957.689695944493
 20
13515.15927282897
 30
-0.0000000000095468
  0
VERTEX
  5
238
  8
INSIDE
 10
-6959.503797990152
 20
13513.26155823976
 30
-0.0000000000095468
  0
VERTEX
  5
239
  8
INSIDE
 10
-6961.268521434908
 20
13511.31727363572
 30
-0.0000000000095468
  0
VERTEX
  5
23A
  8
INSIDE
 10
-6962.982169205278
 20
13509.3284408024
 30
-0.0000000000095468
  0
VERTEX
  5
23B
  8
INSIDE
 10
-6964.643151184356
 20
13507.29716544987
 30
-0.0000000000095468
  0
VERTEX
  5
23C
  8
INSIDE
 10
-6966.249989071974
 20
13505.22562983574
 30
-0.0000000000095468
  0
VERTEX
  5
23D
  8
INSIDE
 10
-6967.801320657033
 20
13503.11608505
 30
-0.0000000000095468
  0
VERTEX
  5
23E
  8
INSIDE
 10
-6969.295903476993
 20
13500.97084301821
 30
-0.0000000000095468
  0
VERTEX
  5
23F
  8
INSIDE
 10
-6970.732617845395
 20
13498.7922682817
 30
-0.0000000000095468
  0
VERTEX
  5
240
  8
INSIDE
 10
-6972.110469234522
 20
13496.58276961464
 30
-0.0000000000095468
  0
VERTEX
  5
241
  8
INSIDE
 10
-6973.428590006272
 20
13494.34479153847
 30
-0.0000000000095468
  0
VERTEX
  5
242
  8
INSIDE
 10
-6974.686240490655
 20
13492.08080579405
 30
-0.0000000000095468
  0
VERTEX
  5
243
  8
INSIDE
 10
-6975.882809417099
 20
13489.79330283085
 30
-0.0000000000095468
  0
VERTEX
  5
244
  8
INSIDE
 10
-6977.017813709739
 20
13487.48478337106
 30
-0.0000000000095468
  0
VERTEX
  5
245
  8
INSIDE
 10
-6978.090897663162
 20
13485.15775010446
 30
-0.0000000000095468
  0
VERTEX
  5
246
  8
INSIDE
 10
-6979.101831520356
 20
13482.81469956675
 30
-0.0000000000095468
  0
VERTEX
  5
247
  8
INSIDE
 10
-6980.05050947926
 20
13480.45811425115
 30
-0.0000000000095468
  0
VERTEX
  5
248
  8
INSIDE
 10
-6980.936947158531
 20
13478.0904549991
 30
-0.0000000000095468
  0
VERTEX
  5
249
  8
INSIDE
 10
-6981.761278556924
 20
13475.71415371188
 30
-0.0000000000095468
  0
VERTEX
  5
24A
  8
INSIDE
 10
-6982.523752543787
 20
13473.33160642048
 30
-0.0000000000095468
  0
VERTEX
  5
24B
  8
INSIDE
 10
-6983.224728920856
 20
13470.94516674645
 30
-0.0000000000095468
  0
VERTEX
  5
24C
  8
INSIDE
 10
-6983.864674097522
 20
13468.55713978166
 30
-0.0000000000095468
  0
VERTEX
  5
24D
  8
INSIDE
 10
-6984.444156423247
 20
13466.16977640987
 30
-0.0000000000095468
  0
VERTEX
  5
24E
  8
INSIDE
 10
-6984.96384122172
 20
13463.7852680885
 30
-0.0000000000095468
  0
VERTEX
  5
24F
  8
INSIDE
 10
-6985.424485571663
 20
13461.4057421036
 30
-0.0000000000095468
  0
VERTEX
  5
250
  8
INSIDE
 10
-6985.826932879147
 20
13459.03325730692
 30
-0.0000000000095468
  0
VERTEX
  5
251
  8
INSIDE
 10
-6986.172107285574
 20
13456.66980033896
 30
-0.0000000000095468
  0
VERTEX
  5
252
  8
INSIDE
 10
-6986.461007954497
 20
13454.31728233795
 30
-0.0000000000095468
  0
VERTEX
  5
253
  8
INSIDE
 10
-6986.694703278942
 20
13451.97753613049
 30
-0.0000000000095468
  0
VERTEX
  5
254
  8
INSIDE
 10
-6986.874325049151
 20
13449.65231389594
 30
-0.0000000000095468
  0
VERTEX
  5
255
  8
INSIDE
 10
-6987.001062618526
 20
13447.34328529323
 30
-0.0000000000095468
  0
VERTEX
  5
256
  8
INSIDE
 10
-6987.076157103273
 20
13445.05203603576
 30
-0.0000000000095468
  0
VERTEX
  5
257
  8
INSIDE
 10
-6987.100895648606
 20
13442.78006689742
 30
-0.0000000000095468
  0
VERTEX
  5
258
  8
INSIDE
 10
-6987.100895648606
 20
13087.93972156051
 30
-0.0000000000095468
  0
SEQEND
  5
259
  8
INSIDE
  0
POLYLINE
  5
25A
  8
OUTSIDE
 66
     1
 10
0.0
 20
0.0
 30
0.0
  0
VERTEX
  5
25B
  8
OUTSIDE
 10
-7290.889708219634
 20
14307.13972155962
 30
0.0
  0
VERTEX
  5
25C
  8
OUTSIDE
 10
-6306.639708219634
 20
14307.13972155962
 30
0.0
  0
VERTEX
  5
25D
  8
OUTSIDE
 10
-6306.639708219634
 20
13087.93972155962
 30
0.0
  0
VERTEX
  5
25E
  8
OUTSIDE
 10
-7290.889708219634
 20
13087.93972156091
 30
0.0
  0
VERTEX
  5
25F
  8
OUTSIDE
 10
-7290.889708219634
 20
14307.13972155962
 30
0.0
  0
SEQEND
  5
260
  8
OUTSIDE
  0
CIRCLE
  5
261
  8
HOLES
 10
-7227.389708219644
 20
13162.55222156091
 30
0.0
 40
1.5875
  0
CIRCLE
  5
262
  8
HOLES
 10
-7227.389708219644
 20
13314.95222156092
 30
0.0
 40
1.5875
  0
CIRCLE
  5
263
  8
HOLES
 10
-7227.389708219644
 20
13467.35222156092
 30
0.0
 40
1.5875
  0
CIRCLE
  5
264
  8
HOLES
 10
-7227.389708219644
 20
13619.75222156092
 30
0.0
 40
1.5875
  0
CIRCLE
  5
265
  8
HOLES
 10
-7227.389708219644
 20
13772.15222156092
 30
0.0
 40
1.5875
  0
CIRCLE
  5
266
  8
HOLES
 10
-7227.389708219644
 20
13924.55222156092
 30
0.0
 40
1.5875
  0
CIRCLE
  5
267
  8
HOLES
 10
-7227.389708219644
 20
14076.95222156092
 30
0.0
 40
1.5875
  0
CIRCLE
  5
268
  8
HOLES
 10
-7227.389708219644
 20
14229.35222156092
 30
0.0
 40
1.5875
  0
CIRCLE
  5
269
  8
HOLES
 10
-6522.539708219652
 20
14284.91472156028
 30
-0.0000000000001115
 40
1.5875
  0
CIRCLE
  5
26A
  8
HOLES
 10
-6674.939708219652
 20
14284.91472156028
 30
-0.0000000000001115
 40
1.5875
  0
CIRCLE
  5
26B
  8
HOLES
 10
-6827.339708219652
 20
14284.91472156028
 30
-0.0000000000001115
 40
1.5875
  0
CIRCLE
  5
26C
  8
HOLES
 10
-6979.739708219651
 20
14284.91472156028
 30
-0.0000000000001115
 40
1.5875
  0
CIRCLE
  5
26D
  8
HOLES
 10
-7132.139708219651
 20
14284.91472156028
 30
-0.0000000000001115
 40
1.5875
  0
CIRCLE
  5
26E
  8
HOLES
 10
-6370.139708219625
 20
14229.35222156092
 30
0.0
 40
1.5875
  0
CIRCLE
  5
26F
  8
HOLES
 10
-6370.139708219625
 20
14076.95222156092
 30
0.0
 40
1.5875
  0
CIRCLE
  5
270
  8
HOLES
 10
-6370.139708219625
 20
13924.55222156092
 30
0.0
 40
1.5875
  0
CIRCLE
  5
271
  8
HOLES
 10
-6370.139708219625
 20
13772.15222156092
 30
0.0
 40
1.5875
  0
CIRCLE
  5
272
  8
HOLES
 10
-6370.139708219625
 20
13619.75222156092
 30
0.0
 40
1.5875
  0
CIRCLE
  5
273
  8
HOLES
 10
-6370.139708219625
 20
13467.35222156092
 30
0.0
 40
1.5875
  0
CIRCLE
  5
274
  8
HOLES
 10
-6370.139708219625
 20
13314.95222156092
 30
0.0
 40
1.5875
  0
CIRCLE
  5
275
  8
HOLES
 10
-6370.139708219625
 20
13162.55222156091
 30
0.0
 40
1.5875
  0
POLYLINE
  5
277
  8
DEFAULT
 66
     1
 10
0.0
 20
0.0
 30
0.0
  0
VERTEX
  5
278
  8
DEFAULT
 10
-7290.889708219634
 20
13087.93972155962
 30
0.0
  0
VERTEX
  5
279
  8
DEFAULT
 10
-4852.489708219635
 20
13087.93972155962
 30
0.0
  0
VERTEX
  5
27A
  8
DEFAULT
 10
-4852.489708219635
 20
14307.13972155962
 30
0.0
  0
VERTEX
  5
27B
  8
DEFAULT
 10
-7290.889708219634
 20
14307.13972155962
 30
0.0
  0
VERTEX
  5
27C
  8
DEFAULT
 10
-7290.889708219634
 20
13087.93972155962
 30
0.0
  0
SEQEND
  5
27D
  8
DEFAULT
  0
ENDSEC
  0
EOF
