  0
SECTION
  2
HEADER
  9
$ACADVER
  1
AC1015
  9
$ACADMAINTVER
 70
     6
  9
$DWGCODEPAGE
  3
ANSI_1252
  9
$INSBASE
 10
0.0
 20
0.0
 30
0.0
  9
$EXTMIN
 10
-3110.5291025586
 20
1.2320232287
 30
0.0
  9
$EXTMAX
 10
-1895.3749707064
 20
902.181474322
 30
0.0
  9
$LIMMIN
 10
0.0
 20
0.0
  9
$LIMMAX
 10
420.0
 20
297.0
  9
$ORTHOMODE
 70
     0
  9
$REGENMODE
 70
     1
  9
$FILLMODE
 70
     1
  9
$QTEXTMODE
 70
     0
  9
$MIRRTEXT
 70
     1
  9
$LTSCALE
 40
1.0
  9
$ATTMODE
 70
     1
  9
$TEXTSIZE
 40
3.175
  9
$TRACEWID
 40
1.0
  9
$TEXTSTYLE
  7
Standard
  9
$CLAYER
  8
0
  9
$CELTYPE
  6
ByLayer
  9
$CECOLOR
 62
   256
  9
$CELTSCALE
 40
1.0
  9
$DISPSILH
 70
     0
  9
$DIMSCALE
 40
1.0
  9
$DIMASZ
 40
3.302
  9
$DIMEXO
 40
1.27
  9
$DIMDLI
 40
3.75
  9
$DIMRND
 40
0.0
  9
$DIMDLE
 40
0.0
  9
$DIMEXE
 40
3.175
  9
$DIMTP
 40
0.0
  9
$DIMTM
 40
0.0
  9
$DIMTXT
 40
3.175
  9
$DIMCEN
 40
2.5
  9
$DIMTSZ
 40
0.0
  9
$DIMTOL
 70
     0
  9
$DIMLIM
 70
     0
  9
$DIMTIH
 70
     1
  9
$DIMTOH
 70
     1
  9
$DIMSE1
 70
     0
  9
$DIMSE2
 70
     0
  9
$DIMTAD
 70
     0
  9
$DIMZIN
 70
     0
  9
$DIMBLK
  1

  9
$DIMASO
 70
     1
  9
$DIMSHO
 70
     1
  9
$DIMPOST
  1

  9
$DIMAPOST
  1

  9
$DIMALT
 70
     0
  9
$DIMALTD
 70
     3
  9
$DIMALTF
 40
0.0393700787
  9
$DIMLFAC
 40
1.0
  9
$DIMTOFL
 70
     1
  9
$DIMTVP
 40
0.0
  9
$DIMTIX
 70
     0
  9
$DIMSOXD
 70
     0
  9
$DIMSAH
 70
     0
  9
$DIMBLK1
  1

  9
$DIMBLK2
  1

  9
$DIMSTYLE
  2
ISO-25
  9
$DIMCLRD
 70
     0
  9
$DIMCLRE
 70
     0
  9
$DIMCLRT
 70
     0
  9
$DIMTFAC
 40
1.0
  9
$DIMGAP
 40
1.524
  9
$DIMJUST
 70
     0
  9
$DIMSD1
 70
     0
  9
$DIMSD2
 70
     0
  9
$DIMTOLJ
 70
     0
  9
$DIMTZIN
 70
     0
  9
$DIMALTZ
 70
     0
  9
$DIMALTTZ
 70
     0
  9
$DIMUPT
 70
     0
  9
$DIMDEC
 70
     2
  9
$DIMTDEC
 70
     2
  9
$DIMALTU
 70
     2
  9
$DIMALTTD
 70
     3
  9
$DIMTXSTY
  7
Standard
  9
$DIMAUNIT
 70
     0
  9
$DIMADEC
 70
     2
  9
$DIMALTRND
 40
0.0
  9
$DIMAZIN
 70
     0
  9
$DIMDSEP
 70
    44
  9
$DIMATFIT
 70
     3
  9
$DIMFRAC
 70
     0
  9
$DIMLDRBLK
  1

  9
$DIMLUNIT
 70
     2
  9
$DIMLWD
 70
    -2
  9
$DIMLWE
 70
    -2
  9
$DIMTMOVE
 70
     0
  9
$LUNITS
 70
     2
  9
$LUPREC
 70
     2
  9
$SKETCHINC
 40
1.0
  9
$FILLETRAD
 40
10.0
  9
$AUNITS
 70
     0
  9
$AUPREC
 70
     2
  9
$MENU
  1
.
  9
$ELEVATION
 40
0.0
  9
$PELEVATION
 40
0.0
  9
$THICKNESS
 40
0.0
  9
$LIMCHECK
 70
     0
  9
$CHAMFERA
 40
0.0
  9
$CHAMFERB
 40
0.0
  9
$CHAMFERC
 40
0.0
  9
$CHAMFERD
 40
0.0
  9
$SKPOLY
 70
     0
  9
$TDCREATE
 40
2458234.787382928
  9
$TDUCREATE
 40
2458234.558216262
  9
$TDUPDATE
 40
2458234.787436042
  9
$TDUUPDATE
 40
2458234.558269375
  9
$TDINDWG
 40
0.0000000116
  9
$TDUSRTIMER
 40
0.0000000116
  9
$USRTIMER
 70
     1
  9
$ANGBASE
 50
0.0
  9
$ANGDIR
 70
     0
  9
$PDMODE
 70
     0
  9
$PDSIZE
 40
-1.0
  9
$PLINEWID
 40
0.0
  9
$SPLFRAME
 70
     0
  9
$SPLINETYPE
 70
     6
  9
$SPLINESEGS
 70
     8
  9
$HANDSEED
  5
F3
  9
$SURFTAB1
 70
     6
  9
$SURFTAB2
 70
     6
  9
$SURFTYPE
 70
     6
  9
$SURFU
 70
     6
  9
$SURFV
 70
     6
  9
$UCSBASE
  2

  9
$UCSNAME
  2

  9
$UCSORG
 10
0.0
 20
0.0
 30
0.0
  9
$UCSXDIR
 10
1.0
 20
0.0
 30
0.0
  9
$UCSYDIR
 10
0.0
 20
1.0
 30
0.0
  9
$UCSORTHOREF
  2

  9
$UCSORTHOVIEW
 70
     0
  9
$UCSORGTOP
 10
0.0
 20
0.0
 30
0.0
  9
$UCSORGBOTTOM
 10
0.0
 20
0.0
 30
0.0
  9
$UCSORGLEFT
 10
0.0
 20
0.0
 30
0.0
  9
$UCSORGRIGHT
 10
0.0
 20
0.0
 30
0.0
  9
$UCSORGFRONT
 10
0.0
 20
0.0
 30
0.0
  9
$UCSORGBACK
 10
0.0
 20
0.0
 30
0.0
  9
$PUCSBASE
  2

  9
$PUCSNAME
  2

  9
$PUCSORG
 10
0.0
 20
0.0
 30
0.0
  9
$PUCSXDIR
 10
1.0
 20
0.0
 30
0.0
  9
$PUCSYDIR
 10
0.0
 20
1.0
 30
0.0
  9
$PUCSORTHOREF
  2

  9
$PUCSORTHOVIEW
 70
     0
  9
$PUCSORGTOP
 10
0.0
 20
0.0
 30
0.0
  9
$PUCSORGBOTTOM
 10
0.0
 20
0.0
 30
0.0
  9
$PUCSORGLEFT
 10
0.0
 20
0.0
 30
0.0
  9
$PUCSORGRIGHT
 10
0.0
 20
0.0
 30
0.0
  9
$PUCSORGFRONT
 10
0.0
 20
0.0
 30
0.0
  9
$PUCSORGBACK
 10
0.0
 20
0.0
 30
0.0
  9
$USERI1
 70
     0
  9
$USERI2
 70
     0
  9
$USERI3
 70
     0
  9
$USERI4
 70
     0
  9
$USERI5
 70
     0
  9
$USERR1
 40
0.0
  9
$USERR2
 40
0.0
  9
$USERR3
 40
0.0
  9
$USERR4
 40
0.0
  9
$USERR5
 40
0.0
  9
$WORLDVIEW
 70
     1
  9
$SHADEDGE
 70
     3
  9
$SHADEDIF
 70
    70
  9
$TILEMODE
 70
     1
  9
$MAXACTVP
 70
    64
  9
$PINSBASE
 10
0.0
 20
0.0
 30
0.0
  9
$PLIMCHECK
 70
     0
  9
$PEXTMIN
 10
1.0000000000E+20
 20
1.0000000000E+20
 30
1.0000000000E+20
  9
$PEXTMAX
 10
-1.0000000000E+20
 20
-1.0000000000E+20
 30
-1.0000000000E+20
  9
$PLIMMIN
 10
0.0
 20
0.0
  9
$PLIMMAX
 10
420.0
 20
297.0
  9
$UNITMODE
 70
     0
  9
$VISRETAIN
 70
     1
  9
$PLINEGEN
 70
     0
  9
$PSLTSCALE
 70
     1
  9
$TREEDEPTH
 70
  3020
  9
$CMLSTYLE
  2
Standard
  9
$CMLJUST
 70
     0
  9
$CMLSCALE
 40
20.0
  9
$PROXYGRAPHICS
 70
     1
  9
$MEASUREMENT
 70
     1
  9
$CELWEIGHT
370
    -1
  9
$ENDCAPS
280
     0
  9
$JOINSTYLE
280
     0
  9
$LWDISPLAY
290
     1
  9
$INSUNITS
 70
     4
  9
$HYPERLINKBASE
  1

  9
$STYLESHEET
  1

  9
$XEDIT
290
     1
  9
$CEPSNTYPE
380
     0
  9
$PSTYLEMODE
290
     1
  9
$FINGERPRINTGUID
  2
{A0159B70-F1C9-43CD-A50A-6D9206AF2631}
  9
$VERSIONGUID
  2
{FAEB1C32-E019-11D5-929B-00C0DF256EC4}
  9
$EXTNAMES
290
     1
  9
$PSVPSCALE
 40
0.0
  9
$OLESTARTUP
290
     0
  0
ENDSEC
  0
SECTION
  2
CLASSES
  0
CLASS
  1
ACDBDICTIONARYWDFLT
  2
AcDbDictionaryWithDefault
  3
ObjectDBX Classes
 90
        0
280
     0
281
     0
  0
CLASS
  1
VISUALSTYLE
  2
AcDbVisualStyle
  3
ObjectDBX Classes
 90
     4095
280
     0
281
     0
  0
CLASS
  1
MATERIAL
  2
AcDbMaterial
  3
ObjectDBX Classes
 90
     1153
280
     0
281
     0
  0
CLASS
  1
SCALE
  2
AcDbScale
  3
ObjectDBX Classes
 90
     1153
280
     0
281
     0
  0
CLASS
  1
SUN
  2
AcDbSun
  3
SCENEOE
 90
     1153
280
     0
281
     0
  0
CLASS
  1
ACDBPLACEHOLDER
  2
AcDbPlaceHolder
  3
ObjectDBX Classes
 90
        0
280
     0
281
     0
  0
CLASS
  1
LAYOUT
  2
AcDbLayout
  3
ObjectDBX Classes
 90
        0
280
     0
281
     0
  0
ENDSEC
  0
SECTION
  2
TABLES
  0
TABLE
  2
VPORT
  5
8
330
0
100
AcDbSymbolTable
 70
     1
  0
VPORT
  5
29
330
8
100
AcDbSymbolTableRecord
100
AcDbViewportTableRecord
  2
*Active
 70
     0
 10
0.0
 20
0.0
 11
1.0
 21
1.0
 12
-2502.9520366325
 22
451.7067487753
 13
0.0
 23
0.0
 14
10.0
 24
10.0
 15
10.0
 25
10.0
 16
0.0
 26
0.0
 36
1.0
 17
0.0
 27
0.0
 37
0.0
 40
918.9684401151
 41
1.3487484013
 42
50.0
 43
0.0
 44
0.0
 50
0.0
 51
0.0
 71
     0
 72
   100
 73
     1
 74
     3
 75
     0
 76
     0
 77
     0
 78
     0
281
     0
 65
     1
110
0.0
120
0.0
130
0.0
111
1.0
121
0.0
131
0.0
112
0.0
122
1.0
132
0.0
 79
     0
146
0.0
  0
ENDTAB
  0
TABLE
  2
LTYPE
  5
5
330
0
100
AcDbSymbolTable
 70
     6
  0
LTYPE
  5
14
330
5
100
AcDbSymbolTableRecord
100
AcDbLinetypeTableRecord
  2
ByBlock
 70
     0
  3

 72
    65
 73
     0
 40
0.0
  0
LTYPE
  5
15
330
5
100
AcDbSymbolTableRecord
100
AcDbLinetypeTableRecord
  2
ByLayer
 70
     0
  3

 72
    65
 73
     0
 40
0.0
  0
LTYPE
  5
16
330
5
100
AcDbSymbolTableRecord
100
AcDbLinetypeTableRecord
  2
Continuous
 70
     0
  3
Solid line
 72
    65
 73
     0
 40
0.0
  0
LTYPE
  5
6A
330
5
100
AcDbSymbolTableRecord
100
AcDbLinetypeTableRecord
  2
HIDDEN
 70
     0
  3
Hidden __ __ __ __ __ __ __ __ __ __ __ __ __ __
 72
    65
 73
     2
 40
1.905
 49
1.27
 74
     0
 49
-0.635
 74
     0
  0
LTYPE
  5
6B
330
5
100
AcDbSymbolTableRecord
100
AcDbLinetypeTableRecord
  2
PHANTOM
 70
     0
  3
Phantom ______  __  __  ______  __  __  ______
 72
    65
 73
     6
 40
12.7
 49
6.35
 74
     0
 49
-1.27
 74
     0
 49
1.27
 74
     0
 49
-1.27
 74
     0
 49
1.27
 74
     0
 49
-1.27
 74
     0
  0
LTYPE
  5
6C
330
5
100
AcDbSymbolTableRecord
100
AcDbLinetypeTableRecord
  2
CENTER
 70
     0
  3
Center ____ _ ____ _ ____ _ ____ _ ____ _ ____
 72
    65
 73
     4
 40
10.16
 49
6.35
 74
     0
 49
-1.27
 74
     0
 49
1.27
 74
     0
 49
-1.27
 74
     0
  0
LTYPE
  5
6D
330
5
100
AcDbSymbolTableRecord
100
AcDbLinetypeTableRecord
  2
CENTERX2
 70
     0
  3
Center (2x) ________  __  ________  __  _____
 72
    65
 73
     4
 40
20.32
 49
12.7
 74
     0
 49
-2.54
 74
     0
 49
2.54
 74
     0
 49
-2.54
 74
     0
  0
LTYPE
  5
6E
330
5
100
AcDbSymbolTableRecord
100
AcDbLinetypeTableRecord
  2
DOT2
 70
     0
  3
Dot (.5x) ........................................
 72
    65
 73
     2
 40
0.635
 49
0.0
 74
     0
 49
-0.635
 74
     0
  0
ENDTAB
  0
TABLE
  2
LAYER
  5
2
330
0
100
AcDbSymbolTable
 70
     1
  0
LAYER
  5
10
330
2
100
AcDbSymbolTableRecord
100
AcDbLayerTableRecord
  2
0
 70
     0
 62
     7
  6
Continuous
370
    -3
390
F
  0
ENDTAB
  0
TABLE
  2
STYLE
  5
3
330
0
100
AcDbSymbolTable
 70
     1
  0
STYLE
  5
11
330
3
100
AcDbSymbolTableRecord
100
AcDbTextStyleTableRecord
  2
Standard
 70
     0
 40
0.0
 41
1.0
 50
0.0
 71
     0
 42
3.175
  3
txt
  4

  0
ENDTAB
  0
TABLE
  2
VIEW
  5
6
330
0
100
AcDbSymbolTable
 70
     0
  0
ENDTAB
  0
TABLE
  2
UCS
  5
7
330
0
100
AcDbSymbolTable
 70
     0
  0
ENDTAB
  0
TABLE
  2
APPID
  5
9
330
0
100
AcDbSymbolTable
 70
     1
  0
APPID
  5
12
330
9
100
AcDbSymbolTableRecord
100
AcDbRegAppTableRecord
  2
ACAD
 70
     0
  0
ENDTAB
  0
TABLE
  2
DIMSTYLE
  5
A
330
0
100
AcDbSymbolTable
 70
     1
100
AcDbDimStyleTable
  0
DIMSTYLE
105
27
330
A
100
AcDbSymbolTableRecord
100
AcDbDimStyleTableRecord
  2
ISO-25
 70
     0
 41
2.5
 42
0.625
 43
3.75
 44
1.25
 73
     0
 74
     0
 77
     1
 78
     8
140
2.5
141
2.5
143
0.0393700787
147
0.625
171
     3
172
     1
178
     0
271
     2
272
     2
274
     3
278
    44
283
     0
284
     8
340
11
  0
ENDTAB
  0
TABLE
  2
BLOCK_RECORD
  5
1
330
0
100
AcDbSymbolTable
 70
     1
  0
BLOCK_RECORD
  5
1F
330
1
100
AcDbSymbolTableRecord
100
AcDbBlockTableRecord
  2
*Model_Space
340
22
  0
BLOCK_RECORD
  5
1B
330
1
100
AcDbSymbolTableRecord
100
AcDbBlockTableRecord
  2
*Paper_Space
340
1E
  0
BLOCK_RECORD
  5
23
330
1
100
AcDbSymbolTableRecord
100
AcDbBlockTableRecord
  2
*Paper_Space0
340
26
  0
ENDTAB
  0
ENDSEC
  0
SECTION
  2
BLOCKS
  0
BLOCK
  5
20
330
1F
100
AcDbEntity
  8
0
100
AcDbBlockBegin
  2
*Model_Space
 70
     0
 10
0.0
 20
0.0
 30
0.0
  3
*Model_Space
  1
*Model_Space
  0
ENDBLK
  5
21
330
1F
100
AcDbEntity
  8
0
100
AcDbBlockEnd
  0
BLOCK
  5
1C
330
1B
100
AcDbEntity
 67
     1
  8
0
100
AcDbBlockBegin
  2
*Paper_Space
 70
     0
 10
0.0
 20
0.0
 30
0.0
  3
*Paper_Space
  1
*Paper_Space
  0
ENDBLK
  5
1D
330
1B
100
AcDbEntity
 67
     1
  8
0
100
AcDbBlockEnd
  0
BLOCK
  5
24
330
23
100
AcDbEntity
  8
0
100
AcDbBlockBegin
  2
*Paper_Space0
 70
     0
 10
0.0
 20
0.0
 30
0.0
  3
*Paper_Space0
  1
*Paper_Space0
  0
ENDBLK
  5
25
330
23
100
AcDbEntity
  8
0
100
AcDbBlockEnd
  0
ENDSEC
  0
SECTION
  2
ENTITIES
  0
LWPOLYLINE
  5
6F
330
1F
100
AcDbEntity
  8
0
  6
Continuous
 62
     7
100
AcDbPolyline
 90
       16
 70
   128
 43
0.0
 10
-2029.6678273688
 20
796.8123000019
 10
-2028.5817490423
 20
807.1822949173
 10
-2025.3721060902
 20
817.1008431362
 10
-2020.179175311
 20
826.1344565071
 10
-2013.2299126982
 20
833.8883227775
 10
-2004.8280343743
 20
840.0235607842
 10
-1995.3407427387
 20
844.2720311863
 10
-1985.182677961
 20
846.4480554406
 10
-1974.7977962157
 20
846.4565308457
 10
-1964.6399666673
 20
844.2970869855
 10
-1955.1531352098
 20
840.064101919
 10
-1946.7519219007
 20
833.9425774056
 10
-1939.8035000751
 20
826.200053441
 10
-1934.611549109
 20
817.1749154752
 10
-1931.4029821734
 20
807.2616053446
 10
-1930.3180290398
 20
796.8933822714
  0
LWPOLYLINE
  5
70
330
1F
100
AcDbEntity
  8
0
  6
Continuous
 62
     7
100
AcDbPolyline
 90
       17
 70
   128
 43
0.0
 10
-1974.27821528
 20
795.1033572459
 10
-1975.3819625281
 20
793.0403142125
 10
-1977.1876875018
 20
791.5576938427
 10
-1979.4204849429
 20
790.8812116477
 10
-1981.7404316814
 20
791.1138559095
 10
-1983.7943368566
 20
792.2202086481
 10
-1985.2695120244
 20
794.0318376882
 10
-1985.9413751379
 20
796.2729389308
 10
-1985.7076411285
 20
798.6023250275
 10
-1984.6038938805
 20
800.6653680608
 10
-1982.7981689068
 20
802.1479884307
 10
-1980.5653714656
 20
802.8244706256
 10
-1978.2454247272
 20
802.5918263638
 10
-1976.191519552
 20
801.4854736252
 10
-1974.7163443842
 20
799.6738445851
 10
-1974.0444812707
 20
797.4327433425
 10
-1974.27821528
 20
795.1033572459
  0
LWPOLYLINE
  5
71
330
1F
100
AcDbEntity
  8
0
  6
Continuous
 62
     7
100
AcDbPolyline
 90
       16
 70
   128
 43
0.0
 10
-2033.3032706553
 20
595.8399529237
 10
-2032.2171923288
 20
606.209947839
 10
-2029.0075493767
 20
616.128496058
 10
-2023.8146185975
 20
625.1621094289
 10
-2016.8653559847
 20
632.9159756993
 10
-2008.4634776608
 20
639.051213706
 10
-1998.9761860252
 20
643.299684108
 10
-1988.8181212475
 20
645.4757083624
 10
-1978.4332395022
 20
645.4841837674
 10
-1968.2754099539
 20
643.3247399072
 10
-1958.7885784963
 20
639.0917548407
 10
-1950.3873651872
 20
632.9702303274
 10
-1943.4389433616
 20
625.2277063628
 10
-1938.2469923955
 20
616.2025683969
 10
-1935.0384254599
 20
606.2892582664
 10
-1933.9534723263
 20
595.9210351931
  0
LWPOLYLINE
  5
72
330
1F
100
AcDbEntity
  8
0
  6
Continuous
 62
     7
100
AcDbPolyline
 90
       17
 70
   128
 43
0.0
 10
-1977.6524437718
 20
595.8853711874
 10
-1978.1074587571
 20
593.5890070866
 10
-1979.4029826588
 20
591.6415011049
 10
-1981.341783707
 20
590.3393433738
 10
-1983.6286970174
 20
589.8807756037
 10
-1985.9155607692
 20
590.3356105809
 10
-1987.8542206869
 20
591.6346038029
 10
-1989.1495333718
 20
593.5799953273
 10
-1989.6042992099
 20
595.8756169294
 10
-1989.1492842246
 20
598.1719810302
 10
-1987.8537603228
 20
600.1194870119
 10
-1985.9149592746
 20
601.421644743
 10
-1983.6280459643
 20
601.8802125131
 10
-1981.3411822124
 20
601.425377536
 10
-1979.4025222948
 20
600.1263843139
 10
-1978.1072096098
 20
598.1809927895
 10
-1977.6524437718
 20
595.8853711874
  0
LWPOLYLINE
  5
73
330
1F
100
AcDbEntity
  8
0
  6
Continuous
 62
     7
100
AcDbPolyline
 90
       17
 70
   128
 43
0.0
 10
-3054.8583075107
 20
132.9097318889
 10
-3055.4561706033
 20
131.7922502459
 10
-3056.4342716308
 20
130.9891642122
 10
-3057.6437035781
 20
130.6227363566
 10
-3058.9003413947
 20
130.7487519984
 10
-3060.0128733646
 20
131.3480263985
 10
-3060.8119265805
 20
132.3293254619
 10
-3061.1758524336
 20
133.5432553016
 10
-3061.0492465119
 20
134.805006104
 10
-3060.4513834192
 20
135.9224877471
 10
-3059.4732823918
 20
136.7255737807
 10
-3058.2638504445
 20
137.0920016363
 10
-3057.0072126279
 20
136.9659859945
 10
-3055.894680658
 20
136.3667115944
 10
-3055.0956274421
 20
135.3854125311
 10
-3054.7317015889
 20
134.1714826913
 10
-3054.8583075107
 20
132.9097318889
  0
LWPOLYLINE
  5
74
330
1F
100
AcDbEntity
  8
0
  6
Continuous
 62
     7
100
AcDbPolyline
 90
       17
 70
   128
 43
0.0
 10
-3054.845286449
 20
372.8984700752
 10
-3055.4431495417
 20
371.7809884322
 10
-3056.4212505691
 20
370.9779023985
 10
-3057.6306825164
 20
370.6114745429
 10
-3058.8873203331
 20
370.7374901847
 10
-3059.999852303
 20
371.3367645848
 10
-3060.7989055189
 20
372.3180636482
 10
-3061.162831372
 20
373.5319934879
 10
-3061.0362254503
 20
374.7937442903
 10
-3060.4383623576
 20
375.9112259334
 10
-3059.4602613302
 20
376.714311967
 10
-3058.2508293829
 20
377.0807398226
 10
-3056.9941915662
 20
376.9547241808
 10
-3055.8816595963
 20
376.3554497807
 10
-3055.0826063804
 20
375.3741507174
 10
-3054.7186805273
 20
374.1602208776
 10
-3054.845286449
 20
372.8984700752
  0
LWPOLYLINE
  5
75
330
1F
100
AcDbEntity
  8
0
  6
Continuous
 62
     7
100
AcDbPolyline
 90
       17
 70
   128
 43
0.0
 10
-2965.2063706634
 20
372.9716270939
 10
-2965.8042337561
 20
371.8541454509
 10
-2966.7823347836
 20
371.0510594172
 10
-2967.9917667308
 20
370.6846315616
 10
-2969.2484045475
 20
370.8106472034
 10
-2970.3609365174
 20
371.4099216035
 10
-2971.1599897333
 20
372.3912206669
 10
-2971.5239155864
 20
373.6051505066
 10
-2971.3973096647
 20
374.866901309
 10
-2970.799446572
 20
375.9843829521
 10
-2969.8213455446
 20
376.7874689857
 10
-2968.6119135973
 20
377.1538968413
 10
-2967.3552757807
 20
377.0278811995
 10
-2966.2427438107
 20
376.4286067994
 10
-2965.4436905949
 20
375.4473077361
 10
-2965.0797647417
 20
374.2333778963
 10
-2965.2063706634
 20
372.9716270939
  0
LWPOLYLINE
  5
76
330
1F
100
AcDbEntity
  8
0
  6
Continuous
 62
     7
100
AcDbPolyline
 90
       17
 70
   128
 43
0.0
 10
-2965.2193917251
 20
132.9828888238
 10
-2965.8172548178
 20
131.8654071807
 10
-2966.7953558452
 20
131.0623211471
 10
-2968.0047877925
 20
130.6958932915
 10
-2969.2614256091
 20
130.8219089333
 10
-2970.3739575791
 20
131.4211833333
 10
-2971.1730107949
 20
132.4024823967
 10
-2971.5369366481
 20
133.6164122365
 10
-2971.4103307264
 20
134.8781630388
 10
-2970.8124676337
 20
135.9956446819
 10
-2969.8343666062
 20
136.7987307156
 10
-2968.624934659
 20
137.1651585711
 10
-2967.3682968423
 20
137.0391429293
 10
-2966.2557648724
 20
136.4398685293
 10
-2965.4567116565
 20
135.4585694659
 10
-2965.0927858034
 20
134.2446396261
 10
-2965.2193917251
 20
132.9828888238
  0
LWPOLYLINE
  5
77
330
1F
100
AcDbEntity
  8
0
  6
Continuous
 62
     7
100
AcDbPolyline
 90
       16
 70
   128
 43
0.0
 10
-2033.4639672716
 20
409.8325683645
 10
-2032.3778889451
 20
420.2025632799
 10
-2029.168245993
 20
430.1211114988
 10
-2023.9753152138
 20
439.1547248697
 10
-2017.026052601
 20
446.9085911401
 10
-2008.6241742771
 20
453.0438291468
 10
-1999.1368826415
 20
457.2922995489
 10
-1988.9788178638
 20
459.4683238032
 10
-1978.5939361185
 20
459.4767992083
 10
-1968.4361065701
 20
457.3173553481
 10
-1958.9492751126
 20
453.0843702816
 10
-1950.5480618035
 20
446.9628457682
 10
-1943.5996399779
 20
439.2203218036
 10
-1938.4076890118
 20
430.1951838378
 10
-1935.1991220762
 20
420.2818737072
 10
-1934.1141689426
 20
409.913650634
  0
LWPOLYLINE
  5
78
330
1F
100
AcDbEntity
  8
0
  6
Continuous
 62
     7
100
AcDbPolyline
 90
       17
 70
   128
 43
0.0
 10
-1977.8131403881
 20
409.8779866282
 10
-1978.2681553733
 20
407.5816225275
 10
-1979.5636792751
 20
405.6341165457
 10
-1981.5024803233
 20
404.3319588146
 10
-1983.7893936336
 20
403.8733910446
 10
-1986.0762573855
 20
404.3282260217
 10
-1988.0149173031
 20
405.6272192438
 10
-1989.3102299881
 20
407.5726107681
 10
-1989.7649958261
 20
409.8682323703
 10
-1989.3099808409
 20
412.1645964711
 10
-1988.0144569391
 20
414.1121024528
 10
-1986.0756558909
 20
415.4142601839
 10
-1983.7887425806
 20
415.8728279539
 10
-1981.5018788287
 20
415.4179929768
 10
-1979.5632189111
 20
414.1189997547
 10
-1978.2679062261
 20
412.1736082304
 10
-1977.8131403881
 20
409.8779866282
  0
LWPOLYLINE
  5
79
330
1F
100
AcDbEntity
  8
0
  6
Continuous
 62
     7
100
AcDbPolyline
 90
       16
 70
   128
 43
0.0
 10
-2033.471948949
 20
262.7237735957
 10
-2032.3858706225
 20
273.0937685111
 10
-2029.1762276704
 20
283.01231673
 10
-2023.9832968912
 20
292.0459301009
 10
-2017.0340342784
 20
299.7997963713
 10
-2008.6321559545
 20
305.935034378
 10
-1999.1448643189
 20
310.1835047801
 10
-1988.9867995412
 20
312.3595290344
 10
-1978.6019177959
 20
312.3680044395
 10
-1968.4440882475
 20
310.2085605793
 10
-1958.95725679
 20
305.9755755128
 10
-1950.5560434809
 20
299.8540509994
 10
-1943.6076216553
 20
292.1115270348
 10
-1938.4156706892
 20
283.086389069
 10
-1935.2071037536
 20
273.1730789384
 10
-1934.12215062
 20
262.8048558652
  0
LWPOLYLINE
  5
7A
330
1F
100
AcDbEntity
  8
0
  6
Continuous
 62
     7
100
AcDbPolyline
 90
       17
 70
   128
 43
0.0
 10
-1977.8211220654
 20
262.7691918594
 10
-1978.2761370507
 20
260.4728277587
 10
-1979.5716609525
 20
258.5253217769
 10
-1981.5104620007
 20
257.2231640458
 10
-1983.797375311
 20
256.7645962758
 10
-1986.0842390629
 20
257.2194312529
 10
-1988.0228989805
 20
258.518424475
 10
-1989.3182116655
 20
260.4638159993
 10
-1989.7729775035
 20
262.7594376015
 10
-1989.3179625183
 20
265.0558017023
 10
-1988.0224386165
 20
267.003307684
 10
-1986.0836375683
 20
268.3054654151
 10
-1983.7967242579
 20
268.7640331851
 10
-1981.5098605061
 20
268.309198208
 10
-1979.5712005884
 20
267.0102049859
 10
-1978.2758879035
 20
265.0648134616
 10
-1977.8211220654
 20
262.7691918594
  0
LWPOLYLINE
  5
7B
330
1F
100
AcDbEntity
  8
0
  6
Continuous
 62
     7
100
AcDbPolyline
 90
       17
 70
   128
 43
0.0
 10
-2575.5361008731
 20
353.6607266923
 10
-2576.6398481211
 20
351.5976836589
 10
-2578.4455730949
 20
350.1150632891
 10
-2580.678370536
 20
349.4385810941
 10
-2582.9983172745
 20
349.6712253559
 10
-2585.0522224497
 20
350.7775780945
 10
-2586.5273976174
 20
352.5892071346
 10
-2587.1992607309
 20
354.8303083772
 10
-2586.9655267216
 20
357.1596944739
 10
-2585.8617794736
 20
359.2227375073
 10
-2584.0560544998
 20
360.7053578771
 10
-2581.8232570587
 20
361.381840072
 10
-2579.5033103203
 20
361.1491958102
 10
-2577.449405145
 20
360.0428430716
 10
-2575.9742299773
 20
358.2312140316
 10
-2575.3023668638
 20
355.9901127889
 10
-2575.5361008731
 20
353.6607266923
  0
LWPOLYLINE
  5
7C
330
1F
100
AcDbEntity
  8
0
  6
Continuous
 62
     7
100
AcDbPolyline
 90
       14
 70
   128
 43
0.0
 10
-2332.6348482072
 20
791.4588829322
 10
-2335.2843372412
 20
800.9941098565
 10
-2335.792013902
 20
810.88207317
 10
-2334.1332967204
 20
820.6440022602
 10
-2330.3885000155
 20
829.8072290334
 10
-2324.7389451125
 20
837.9280742853
 10
-2317.4581808482
 20
844.6133304431
 10
-2308.8987384623
 20
849.539300494
 10
-2299.4750621983
 20
852.4674712454
 10
-2289.6434421044
 20
853.2560620233
 10
-2279.8799206805
 20
851.8668896267
 10
-2270.6572431202
 20
848.3672171408
 10
-2262.4219672077
 20
842.9264970896
 10
-2255.5728411953
 20
835.8081666227
  0
LWPOLYLINE
  5
7D
330
1F
100
AcDbEntity
  8
0
  6
Continuous
 62
     7
100
AcDbPolyline
 90
       14
 70
   128
 43
0.0
 10
-2205.7987181756
 20
370.0166930138
 10
-2208.7496041693
 20
360.6980839113
 10
-2213.7105845748
 20
352.2819795654
 10
-2220.4277909539
 20
345.1990576023
 10
-2228.5574834504
 20
339.811772656
 10
-2237.6836410023
 20
336.3958084629
 10
-2247.3392504037
 20
335.125970288
 10
-2257.0302047891
 20
336.0672396083
 10
-2266.2605885828
 20
339.1714488133
 10
-2274.5580550056
 20
344.2797460877
 10
-2281.4979974939
 20
351.1307243418
 10
-2286.7252781081
 20
359.3737982059
 10
-2289.9724010194
 20
368.5871445491
 10
-2291.0732010841
 20
378.2992884503
  0
LWPOLYLINE
  5
7E
330
1F
100
AcDbEntity
  8
0
  6
Continuous
 62
     7
100
AcDbPolyline
 90
       14
 70
   128
 43
0.0
 10
-2206.1889006821
 20
807.8706732737
 10
-2208.8383897162
 20
817.405900198
 10
-2209.346066377
 20
827.2938635115
 10
-2207.6873491954
 20
837.0557926018
 10
-2203.9425524904
 20
846.219019375
 10
-2198.2929975875
 20
854.3398646269
 10
-2191.0122333231
 20
861.0251207846
 10
-2182.4527909373
 20
865.9510908356
 10
-2173.0291146733
 20
868.879261587
 10
-2163.1974945794
 20
869.6678523649
 10
-2153.4339731554
 20
868.2786799683
 10
-2144.2112955952
 20
864.7790074824
 10
-2135.9760196826
 20
859.3382874312
 10
-2129.1268936703
 20
852.2199569643
  0
LWPOLYLINE
  5
7F
330
1F
100
AcDbEntity
  8
0
  6
Continuous
 62
     7
100
AcDbPolyline
 90
       14
 70
   128
 43
0.0
 10
-2079.3527706506
 20
386.4284833554
 10
-2082.3036566442
 20
377.1098742529
 10
-2087.2646370497
 20
368.6937699069
 10
-2093.9818434289
 20
361.6108479439
 10
-2102.1115359254
 20
356.2235629976
 10
-2111.2376934773
 20
352.8075988045
 10
-2120.8933028787
 20
351.5377606296
 10
-2130.5842572641
 20
352.4790299499
 10
-2139.8146410578
 20
355.5832391549
 10
-2148.1121074805
 20
360.6915364293
 10
-2155.0520499688
 20
367.5425146834
 10
-2160.279330583
 20
375.7855885475
 10
-2163.5264534943
 20
384.9989348907
 10
-2164.627253559
 20
394.7110787918
  0
LWPOLYLINE
  5
80
330
1F
100
AcDbEntity
  8
0
  6
Continuous
 62
     7
100
AcDbPolyline
 90
       17
 70
   128
 43
0.0
 10
-2158.8892112327
 20
822.9414174848
 10
-2159.9929584807
 20
820.8783744514
 10
-2161.7986834545
 20
819.3957540816
 10
-2164.0314808956
 20
818.7192718867
 10
-2166.351427634
 20
818.9519161485
 10
-2168.4053328093
 20
820.0582688871
 10
-2169.880507977
 20
821.8698979271
 10
-2170.5523710905
 20
824.1109991698
 10
-2170.3186370812
 20
826.4403852664
 10
-2169.2148898332
 20
828.5034282998
 10
-2167.4091648594
 20
829.9860486696
 10
-2165.1763674183
 20
830.6625308646
 10
-2162.8564206798
 20
830.4298866028
 10
-2160.8025155046
 20
829.3235338642
 10
-2159.3273403369
 20
827.5119048241
 10
-2158.6554772234
 20
825.2708035815
 10
-2158.8892112327
 20
822.9414174848
  0
LWPOLYLINE
  5
81
330
1F
100
AcDbEntity
  8
0
  6
Continuous
 62
     7
100
AcDbPolyline
 90
       17
 70
   128
 43
0.0
 10
-2623.9600120083
 20
210.4537525941
 10
-2625.0637592563
 20
208.3907095607
 10
-2626.86948423
 20
206.9080891909
 10
-2629.1022816712
 20
206.231606996
 10
-2631.4222284096
 20
206.4642512578
 10
-2633.4761335848
 20
207.5706039964
 10
-2634.9513087526
 20
209.3822330364
 10
-2635.6231718661
 20
211.6233342791
 10
-2635.3894378568
 20
213.9527203757
 10
-2634.2856906087
 20
216.0157634091
 10
-2632.479965635
 20
217.4983837789
 10
-2630.2471681939
 20
218.1748659739
 10
-2627.9272214554
 20
217.9422217121
 10
-2625.8733162802
 20
216.8358689735
 10
-2624.3981411124
 20
215.0242399334
 10
-2623.7262779989
 20
212.7831386908
 10
-2623.9600120083
 20
210.4537525941
  0
LWPOLYLINE
  5
82
330
1F
100
AcDbEntity
  8
0
  6
Continuous
 62
     7
100
AcDbPolyline
 90
       17
 70
   128
 43
0.0
 10
-2464.6924468981
 20
45.0043989617
 10
-2465.2903099908
 20
43.8869173186
 10
-2466.2684110182
 20
43.083831285
 10
-2467.4778429655
 20
42.7174034294
 10
-2468.7344807821
 20
42.8434190712
 10
-2469.8470127521
 20
43.4426934712
 10
-2470.6460659679
 20
44.4239925346
 10
-2471.0099918211
 20
45.6379223744
 10
-2470.8833858994
 20
46.8996731767
 10
-2470.2855228067
 20
48.0171548198
 10
-2469.3074217792
 20
48.8202408535
 10
-2468.0979898319
 20
49.1866687091
 10
-2466.8413520153
 20
49.0606530672
 10
-2465.7288200454
 20
48.4613786672
 10
-2464.9297668295
 20
47.4800796038
 10
-2464.5658409764
 20
46.266149764
 10
-2464.6924468981
 20
45.0043989617
  0
LWPOLYLINE
  5
83
330
1F
100
AcDbEntity
  8
0
  6
Continuous
 62
     7
100
AcDbPolyline
 90
       17
 70
   128
 43
0.0
 10
-2464.6794258364
 20
284.993137148
 10
-2465.2772889291
 20
283.8756555049
 10
-2466.2553899566
 20
283.0725694713
 10
-2467.4648219038
 20
282.7061416157
 10
-2468.7214597205
 20
282.8321572575
 10
-2469.8339916904
 20
283.4314316575
 10
-2470.6330449063
 20
284.4127307209
 10
-2470.9969707594
 20
285.6266605607
 10
-2470.8703648377
 20
286.888411363
 10
-2470.272501745
 20
288.0058930061
 10
-2469.2944007176
 20
288.8089790398
 10
-2468.0849687703
 20
289.1754068954
 10
-2466.8283309537
 20
289.0493912535
 10
-2465.7157989837
 20
288.4501168535
 10
-2464.9167457679
 20
287.4688177901
 10
-2464.5528199147
 20
286.2548879503
 10
-2464.6794258364
 20
284.993137148
  0
LWPOLYLINE
  5
84
330
1F
100
AcDbEntity
  8
0
  6
Continuous
 62
     7
100
AcDbPolyline
 90
       17
 70
   128
 43
0.0
 10
-2375.0405100509
 20
285.0662941667
 10
-2375.6383731436
 20
283.9488125236
 10
-2376.616474171
 20
283.14572649
 10
-2377.8259061183
 20
282.7792986344
 10
-2379.0825439349
 20
282.9053142762
 10
-2380.1950759048
 20
283.5045886762
 10
-2380.9941291207
 20
284.4858877396
 10
-2381.3580549739
 20
285.6998175794
 10
-2381.2314490521
 20
286.9615683817
 10
-2380.6335859595
 20
288.0790500248
 10
-2379.655484932
 20
288.8821360585
 10
-2378.4460529847
 20
289.2485639141
 10
-2377.1894151681
 20
289.1225482722
 10
-2376.0768831982
 20
288.5232738722
 10
-2375.2778299823
 20
287.5419748088
 10
-2374.9139041291
 20
286.328044969
 10
-2375.0405100509
 20
285.0662941667
  0
LWPOLYLINE
  5
85
330
1F
100
AcDbEntity
  8
0
  6
Continuous
 62
     7
100
AcDbPolyline
 90
       17
 70
   128
 43
0.0
 10
-2375.0535311125
 20
45.0775558965
 10
-2375.6513942052
 20
43.9600742535
 10
-2376.6294952326
 20
43.1569882198
 10
-2377.8389271799
 20
42.7905603642
 10
-2379.0955649966
 20
42.916576006
 10
-2380.2080969665
 20
43.5158504061
 10
-2381.0071501824
 20
44.4971494695
 10
-2381.3710760355
 20
45.7110793092
 10
-2381.2444701138
 20
46.9728301116
 10
-2380.6466070211
 20
48.0903117547
 10
-2379.6685059937
 20
48.8933977883
 10
-2378.4590740464
 20
49.2598256439
 10
-2377.2024362297
 20
49.1338100021
 10
-2376.0899042598
 20
48.534535602
 10
-2375.2908510439
 20
47.5532365387
 10
-2374.9269251908
 20
46.3393066989
 10
-2375.0535311125
 20
45.0775558965
  0
LWPOLYLINE
  5
86
330
1F
100
AcDbEntity
  8
0
  6
Continuous
 62
     7
100
AcDbPolyline
 90
       17
 70
   128
 43
0.0
 10
-2033.7941513957
 20
122.5484196669
 10
-2034.8978986437
 20
120.4853766335
 10
-2036.7036236175
 20
119.0027562637
 10
-2038.9364210586
 20
118.3262740687
 10
-2041.256367797
 20
118.5589183305
 10
-2043.3102729723
 20
119.6652710691
 10
-2044.78544814
 20
121.4769001092
 10
-2045.4573112535
 20
123.7180013518
 10
-2045.2235772442
 20
126.0473874485
 10
-2044.1198299962
 20
128.1104304819
 10
-2042.3141050224
 20
129.5930508517
 10
-2040.0813075813
 20
130.2695330466
 10
-2037.7613608429
 20
130.0368887848
 10
-2035.7074556676
 20
128.9305360462
 10
-2034.2322804999
 20
127.1189070062
 10
-2033.5604173864
 20
124.8778057635
 10
-2033.7941513957
 20
122.5484196669
  0
LWPOLYLINE
  5
87
330
1F
100
AcDbEntity
  8
0
  6
Continuous
 62
     7
100
AcDbPolyline
 90
       17
 70
   128
 43
0.0
 10
-2285.3351587577
 20
806.5296271433
 10
-2286.4389060058
 20
804.4665841099
 10
-2288.2446309795
 20
802.98396374
 10
-2290.4774284206
 20
802.3074815451
 10
-2292.7973751591
 20
802.5401258069
 10
-2294.8512803343
 20
803.6464785455
 10
-2296.3264555021
 20
805.4581075856
 10
-2296.9983186156
 20
807.6992088282
 10
-2296.7645846062
 20
810.0285949248
 10
-2295.6608373582
 20
812.0916379582
 10
-2293.8551123845
 20
813.574258328
 10
-2291.6223149433
 20
814.250740523
 10
-2289.3023682049
 20
814.0180962612
 10
-2287.2484630297
 20
812.9117435226
 10
-2285.7732878619
 20
811.1001144825
 10
-2285.1014247484
 20
808.8590132399
 10
-2285.3351587577
 20
806.5296271433
  0
LWPOLYLINE
  5
88
330
1F
100
AcDbEntity
  8
0
  6
Continuous
 62
     7
100
AcDbPolyline
 90
       17
 70
   128
 43
0.0
 10
-2242.3152329216
 20
376.5849334161
 10
-2243.4189801696
 20
374.5218903827
 10
-2245.2247051434
 20
373.0392700129
 10
-2247.4575025845
 20
372.3627878179
 10
-2249.7774493229
 20
372.5954320797
 10
-2251.8313544981
 20
373.7017848183
 10
-2253.3065296659
 20
375.5134138584
 10
-2253.9783927794
 20
377.754515101
 10
-2253.7446587701
 20
380.0839011977
 10
-2252.640911522
 20
382.146944231
 10
-2250.8351865483
 20
383.6295646009
 10
-2248.6023891072
 20
384.3060467958
 10
-2246.2824423687
 20
384.073402534
 10
-2244.2285371935
 20
382.9670497954
 10
-2242.7533620258
 20
381.1554207554
 10
-2242.0814989122
 20
378.9143195127
 10
-2242.3152329216
 20
376.5849334161
  0
LWPOLYLINE
  5
89
330
1F
100
AcDbEntity
  8
0
  6
Continuous
 62
     7
100
AcDbPolyline
 90
       17
 70
   128
 43
0.0
 10
-2139.9626041192
 20
297.8809777953
 10
-2141.0663513672
 20
295.8179347619
 10
-2142.872076341
 20
294.3353143921
 10
-2145.1048737821
 20
293.6588321971
 10
-2147.4248205206
 20
293.8914764589
 10
-2149.4787256958
 20
294.9978291975
 10
-2150.9539008635
 20
296.8094582376
 10
-2151.625763977
 20
299.0505594802
 10
-2151.3920299677
 20
301.3799455769
 10
-2150.2882827197
 20
303.4429886102
 10
-2148.4825577459
 20
304.9256089801
 10
-2146.2497603048
 20
305.602091175
 10
-2143.9298135664
 20
305.3694469132
 10
-2141.8759083911
 20
304.2630941746
 10
-2140.4007332234
 20
302.4514651345
 10
-2139.7288701099
 20
300.2103638919
 10
-2139.9626041192
 20
297.8809777953
  0
LWPOLYLINE
  5
8A
330
1F
100
AcDbEntity
  8
0
  6
Continuous
 62
     7
100
AcDbPolyline
 90
       17
 70
   128
 43
0.0
 10
-2115.8692853965
 20
392.9967237576
 10
-2116.9730326446
 20
390.9336807243
 10
-2118.7787576183
 20
389.4510603544
 10
-2121.0115550594
 20
388.7745781595
 10
-2123.3315017979
 20
389.0072224213
 10
-2125.3854069731
 20
390.1135751599
 10
-2126.8605821409
 20
391.9252042
 10
-2127.5324452544
 20
394.1663054426
 10
-2127.2987112451
 20
396.4956915392
 10
-2126.194963997
 20
398.5587345726
 10
-2124.3892390233
 20
400.0413549424
 10
-2122.1564415822
 20
400.7178371374
 10
-2119.8364948437
 20
400.4851928756
 10
-2117.7825896685
 20
399.378840137
 10
-2116.3074145007
 20
397.5672110969
 10
-2115.6355513872
 20
395.3261098543
 10
-2115.8692853965
 20
392.9967237576
  0
LINE
  5
8B
330
1F
100
AcDbEntity
  8
0
  6
Continuous
 62
     7
100
AcDbLine
 10
-2029.6717879417
 20
723.8157254703
 30
0.0
 11
-1930.3219896127
 21
723.8968077397
 31
0.0
  0
LINE
  5
8C
330
1F
100
AcDbEntity
  8
0
  6
Continuous
 62
     7
100
AcDbLine
 10
-2029.6717879417
 20
723.8157254703
 30
0.0
 11
-2029.6678273688
 21
796.8123000019
 31
0.0
  0
LINE
  5
8D
330
1F
100
AcDbEntity
  8
0
  6
Continuous
 62
     7
100
AcDbLine
 10
-1930.3219896127
 20
723.8968077397
 30
0.0
 11
-1930.3180290398
 21
796.8933822714
 31
0.0
  0
LINE
  5
8E
330
1F
100
AcDbEntity
  8
0
  6
Continuous
 62
     7
100
AcDbLine
 10
-2033.3072312282
 20
522.843378392
 30
0.0
 11
-1933.9574328992
 21
522.9244606615
 31
0.0
  0
LINE
  5
8F
330
1F
100
AcDbEntity
  8
0
  6
Continuous
 62
     7
100
AcDbLine
 10
-2033.3072312282
 20
522.843378392
 30
0.0
 11
-2033.3032706553
 21
595.8399529237
 31
0.0
  0
LINE
  5
90
330
1F
100
AcDbEntity
  8
0
  6
Continuous
 62
     7
100
AcDbLine
 10
-1933.9574328992
 20
522.9244606615
 30
0.0
 11
-1933.9534723263
 21
595.9210351931
 31
0.0
  0
LINE
  5
91
330
1F
100
AcDbEntity
  8
0
  6
Continuous
 62
     7
100
AcDbLine
 10
-2033.4679278445
 20
336.8359938329
 30
0.0
 11
-1934.1181295155
 21
336.9170761023
 31
0.0
  0
LINE
  5
92
330
1F
100
AcDbEntity
  8
0
  6
Continuous
 62
     7
100
AcDbLine
 10
-3110.4802735775
 20
901.1897914273
 30
0.0
 11
-3110.5291025586
 21
1.2320232287
 31
0.0
  0
LINE
  5
93
330
1F
100
AcDbEntity
  8
0
  6
Continuous
 62
     7
100
AcDbLine
 10
-3110.5291025586
 20
1.2320232287
 30
0.0
 11
-1895.4237996876
 21
2.2237061233
 31
0.0
  0
LINE
  5
94
330
1F
100
AcDbEntity
  8
0
  6
Continuous
 62
     7
100
AcDbLine
 10
-3077.8594299246
 20
393.8289116855
 30
0.0
 11
-3077.8746211632
 21
113.8420503843
 31
0.0
  0
LINE
  5
95
330
1F
100
AcDbEntity
  8
0
  6
Continuous
 62
     7
100
AcDbLine
 10
-3110.4802735775
 20
901.1897914273
 30
0.0
 11
-1895.3749707064
 21
902.181474322
 31
0.0
  0
LINE
  5
96
330
1F
100
AcDbEntity
  8
0
  6
Continuous
 62
     7
100
AcDbLine
 10
-1895.4237996876
 20
2.2237061233
 30
0.0
 11
-1895.3749707064
 21
902.181474322
 31
0.0
  0
LINE
  5
97
330
1F
100
AcDbEntity
  8
0
  6
Continuous
 62
     7
100
AcDbLine
 10
-3077.8746211632
 20
113.8420503843
 30
0.0
 11
-2779.0782352113
 21
114.0859068338
 31
0.0
  0
LINE
  5
98
330
1F
100
AcDbEntity
  8
0
  6
Continuous
 62
     7
100
AcDbLine
 10
-2779.0782352113
 20
114.0859068338
 30
0.0
 11
-2779.0748714371
 21
176.082995954
 31
0.0
  0
LINE
  5
99
330
1F
100
AcDbEntity
  8
0
  6
Continuous
 62
     7
100
AcDbLine
 10
-2680.4454458097
 20
571.1338942346
 30
0.0
 11
-2661.5216746994
 21
571.1493384764
 31
0.0
  0
LINE
  5
9A
330
1F
100
AcDbEntity
  8
0
  6
Continuous
 62
     7
100
AcDbLine
 10
-2779.0708562405
 20
250.0795235617
 30
0.0
 11
-2579.8732656059
 21
250.2420945281
 31
0.0
  0
LINE
  5
9B
330
1F
100
AcDbEntity
  8
0
  6
Continuous
 62
     7
100
AcDbLine
 10
-2779.0748714371
 20
176.082995954
 30
0.0
 11
-2579.8772804332
 21
176.2455669206
 31
0.0
  0
LINE
  5
9C
330
1F
100
AcDbEntity
  8
0
  6
Continuous
 62
     7
100
AcDbLine
 10
-2579.8772804332
 20
176.2455669206
 30
0.0
 11
-2579.8732656059
 21
250.2420945281
 31
0.0
  0
LINE
  5
9D
330
1F
100
AcDbEntity
  8
0
  6
Continuous
 62
     7
100
AcDbLine
 10
-2033.4679278445
 20
336.8359938329
 30
0.0
 11
-2033.4639672716
 21
409.8325683645
 31
0.0
  0
LINE
  5
9E
330
1F
100
AcDbEntity
  8
0
  6
Continuous
 62
     7
100
AcDbLine
 10
-1934.1181295155
 20
336.9170761023
 30
0.0
 11
-1934.1141689426
 21
409.913650634
 31
0.0
  0
LINE
  5
9F
330
1F
100
AcDbEntity
  8
0
  6
Continuous
 62
     7
100
AcDbLine
 10
-2033.4759095219
 20
189.7271990641
 30
0.0
 11
-1934.1261111929
 21
189.8082813335
 31
0.0
  0
LINE
  5
A0
330
1F
100
AcDbEntity
  8
0
  6
Continuous
 62
     7
100
AcDbLine
 10
-2033.4759095219
 20
189.7271990641
 30
0.0
 11
-2033.471948949
 21
262.7237735957
 31
0.0
  0
LINE
  5
A1
330
1F
100
AcDbEntity
  8
0
  6
Continuous
 62
     7
100
AcDbLine
 10
-1934.1261111929
 20
189.8082813335
 30
0.0
 11
-1934.12215062
 21
262.8048558652
 31
0.0
  0
LINE
  5
A2
330
1F
100
AcDbEntity
  8
0
  6
Continuous
 62
     7
100
AcDbLine
 10
-3085.8006039857
 20
790.8442023814
 30
0.0
 11
-3085.798976353
 21
820.8427946547
 31
0.0
  0
LINE
  5
A3
330
1F
100
AcDbEntity
  8
0
  6
Continuous
 62
     7
100
AcDbLine
 10
-3085.8006039857
 20
790.8442023814
 30
0.0
 11
-3073.8487485476
 21
790.8539566394
 31
0.0
  0
LINE
  5
A4
330
1F
100
AcDbEntity
  8
0
  6
Continuous
 62
     7
100
AcDbLine
 10
-2776.0602893143
 20
571.0558601707
 30
0.0
 11
-2757.136518204
 21
571.0713044125
 31
0.0
  0
LINE
  5
A5
330
1F
100
AcDbEntity
  8
0
  6
Continuous
 62
     7
100
AcDbLine
 10
-3085.8195930339
 20
440.8606258597
 30
0.0
 11
-2936.421400058
 21
440.9825540845
 31
0.0
  0
LINE
  5
A6
330
1F
100
AcDbEntity
  8
0
  6
Continuous
 62
     7
100
AcDbLine
 10
-3085.8195930339
 20
440.8606258597
 30
0.0
 11
-3085.8179654012
 21
470.859218133
 31
0.0
  0
LINE
  5
A7
330
1F
100
AcDbEntity
  8
0
  6
Continuous
 62
     7
100
AcDbLine
 10
-3085.798976353
 20
820.8427946547
 30
0.0
 11
-2936.400783377
 21
820.9647228794
 31
0.0
  0
LINE
  5
A8
330
1F
100
AcDbEntity
  8
0
  6
Continuous
 62
     7
100
AcDbLine
 10
-2388.6280258128
 20
441.4296242419
 30
0.0
 11
-2388.6263981801
 21
471.4282165152
 31
0.0
  0
LINE
  5
A9
330
1F
100
AcDbEntity
  8
0
  6
Continuous
 62
     7
100
AcDbLine
 10
-2814.903819488
 20
571.0241588323
 30
0.0
 11
-2795.9800483778
 21
571.0396030741
 31
0.0
  0
LINE
  5
AA
330
1F
100
AcDbEntity
  8
0
  6
Continuous
 62
     7
100
AcDbLine
 10
-2814.903819488
 20
571.0241588323
 30
0.0
 11
-2814.8983940457
 21
671.0194664099
 31
0.0
  0
LINE
  5
AB
330
1F
100
AcDbEntity
  8
0
  6
Continuous
 62
     7
100
AcDbLine
 10
-2814.8983940457
 20
671.0194664099
 30
0.0
 11
-2795.9746229354
 21
671.0349106517
 31
0.0
  0
LINE
  5
AC
330
1F
100
AcDbEntity
  8
0
  6
Continuous
 62
     7
100
AcDbLine
 10
-2795.9800483778
 20
571.0396030741
 30
0.0
 11
-2795.9746229354
 21
671.0349106517
 31
0.0
  0
LINE
  5
AD
330
1F
100
AcDbEntity
  8
0
  6
Continuous
 62
     7
100
AcDbLine
 10
-2776.0602893143
 20
571.0558601707
 30
0.0
 11
-2776.0548638719
 21
671.0511677484
 31
0.0
  0
LINE
  5
AE
330
1F
100
AcDbEntity
  8
0
  6
Continuous
 62
     7
100
AcDbLine
 10
-2776.0548638719
 20
671.0511677484
 30
0.0
 11
-2757.1310927617
 21
671.0666119902
 31
0.0
  0
LINE
  5
AF
330
1F
100
AcDbEntity
  8
0
  6
Continuous
 62
     7
100
AcDbLine
 10
-2757.136518204
 20
571.0713044125
 30
0.0
 11
-2757.1310927617
 21
671.0666119902
 31
0.0
  0
LINE
  5
B0
330
1F
100
AcDbEntity
  8
0
  6
Continuous
 62
     7
100
AcDbLine
 10
-2719.2889759835
 20
571.1021928961
 30
0.0
 11
-2700.3652048731
 21
571.1176371379
 31
0.0
  0
LINE
  5
B1
330
1F
100
AcDbEntity
  8
0
  6
Continuous
 62
     7
100
AcDbLine
 10
-2719.2889759835
 20
571.1021928961
 30
0.0
 11
-2719.2835505411
 21
671.0975004738
 31
0.0
  0
LINE
  5
B2
330
1F
100
AcDbEntity
  8
0
  6
Continuous
 62
     7
100
AcDbLine
 10
-2719.2835505411
 20
671.0975004738
 30
0.0
 11
-2700.3597794308
 21
671.1129447156
 31
0.0
  0
LINE
  5
B3
330
1F
100
AcDbEntity
  8
0
  6
Continuous
 62
     7
100
AcDbLine
 10
-2700.3652048731
 20
571.1176371379
 30
0.0
 11
-2700.3597794308
 21
671.1129447156
 31
0.0
  0
LINE
  5
B4
330
1F
100
AcDbEntity
  8
0
  6
Continuous
 62
     7
100
AcDbLine
 10
-3085.8079283329
 20
655.8505371516
 30
0.0
 11
-3085.8033167069
 21
740.8465485926
 31
0.0
  0
LINE
  5
B5
330
1F
100
AcDbEntity
  8
0
  6
Continuous
 62
     7
100
AcDbLine
 10
-2680.4454458097
 20
571.1338942346
 30
0.0
 11
-2680.4400203673
 21
671.1292018122
 31
0.0
  0
LINE
  5
B6
330
1F
100
AcDbEntity
  8
0
  6
Continuous
 62
     7
100
AcDbLine
 10
-2680.4400203673
 20
671.1292018122
 30
0.0
 11
-2661.5162492571
 21
671.144646054
 31
0.0
  0
LINE
  5
B7
330
1F
100
AcDbEntity
  8
0
  6
Continuous
 62
     7
100
AcDbLine
 10
-2661.5216746994
 20
571.1493384764
 30
0.0
 11
-2661.5162492571
 21
671.144646054
 31
0.0
  0
LINE
  5
B8
330
1F
100
AcDbEntity
  8
0
  6
Continuous
 62
     7
100
AcDbLine
 10
-3077.8594299246
 20
393.8289116855
 30
0.0
 11
-2968.3007550756
 21
393.918325717
 31
0.0
  0
LINE
  5
B9
330
1F
100
AcDbEntity
  8
0
  6
Continuous
 62
     7
100
AcDbLine
 10
-3085.8033167069
 20
740.8465485926
 30
0.0
 11
-3073.8514612688
 21
740.8563028506
 31
0.0
  0
LINE
  5
BA
330
1F
100
AcDbEntity
  8
0
  6
Continuous
 62
     7
100
AcDbLine
 10
-2487.6935693121
 20
305.9235787583
 30
0.0
 11
-2487.7087605506
 21
25.9367174571
 31
0.0
  0
LINE
  5
BB
330
1F
100
AcDbEntity
  8
0
  6
Continuous
 62
     7
100
AcDbLine
 10
-2487.7087605506
 20
25.9367174571
 30
0.0
 11
-2188.9123745987
 21
26.1805739066
 31
0.0
  0
LINE
  5
BC
330
1F
100
AcDbEntity
  8
0
  6
Continuous
 62
     7
100
AcDbLine
 10
-2188.9123745987
 20
26.1805739066
 30
0.0
 11
-2188.9090108246
 21
88.1776630267
 31
0.0
  0
LINE
  5
BD
330
1F
100
AcDbEntity
  8
0
  6
Continuous
 62
     7
100
AcDbLine
 10
-2188.9049956279
 20
162.1741906345
 30
0.0
 11
-1989.7074049933
 21
162.3367616008
 31
0.0
  0
LINE
  5
BE
330
1F
100
AcDbEntity
  8
0
  6
Continuous
 62
     7
100
AcDbLine
 10
-2188.9090108246
 20
88.1776630267
 30
0.0
 11
-1989.7114198206
 21
88.3402339934
 31
0.0
  0
LINE
  5
BF
330
1F
100
AcDbEntity
  8
0
  6
Continuous
 62
     7
100
AcDbLine
 10
-1989.7114198206
 20
88.3402339934
 30
0.0
 11
-1989.7074049933
 21
162.3367616008
 31
0.0
  0
LINE
  5
C0
330
1F
100
AcDbEntity
  8
0
  6
Continuous
 62
     7
100
AcDbLine
 10
-2487.6935693121
 20
305.9235787583
 30
0.0
 11
-2378.134894463
 21
306.0129927897
 31
0.0
  0
LINE
  5
C1
330
1F
100
AcDbEntity
  8
0
  6
Continuous
 62
     7
100
AcDbLine
 10
-3073.8487485476
 20
790.8539566394
 30
0.0
 11
-3073.8514612688
 21
740.8563028506
 31
0.0
  0
LINE
  5
C2
330
1F
100
AcDbEntity
  8
0
  6
Continuous
 62
     7
100
AcDbLine
 10
-3085.8079283329
 20
655.8505371516
 30
0.0
 11
-3073.8560728948
 21
655.8602914096
 31
0.0
  0
LINE
  5
C3
330
1F
100
AcDbEntity
  8
0
  6
Continuous
 62
     7
100
AcDbLine
 10
-3085.81525268
 20
520.8568719218
 30
0.0
 11
-3085.810641054
 21
605.8528833628
 31
0.0
  0
LINE
  5
C4
330
1F
100
AcDbEntity
  8
0
  6
Continuous
 62
     7
100
AcDbLine
 10
-3085.810641054
 20
605.8528833628
 30
0.0
 11
-3073.858785616
 21
605.8626376208
 31
0.0
  0
LINE
  5
C5
330
1F
100
AcDbEntity
  8
0
  6
Continuous
 62
     7
100
AcDbLine
 10
-2531.4534235524
 20
318.452589521
 30
0.0
 11
-2629.0602429633
 21
318.3729297474
 31
0.0
  0
LINE
  5
C6
330
1F
100
AcDbEntity
  8
0
  6
Continuous
 62
     7
100
AcDbLine
 10
-2531.4534235524
 20
318.452589521
 30
0.0
 11
-2531.449408725
 21
392.4491171284
 31
0.0
  0
LINE
  5
C7
330
1F
100
AcDbEntity
  8
0
  6
Continuous
 62
     7
100
AcDbLine
 10
-2531.449408725
 20
392.4491171284
 30
0.0
 11
-2629.056228136
 21
392.3694573549
 31
0.0
  0
LINE
  5
C8
330
1F
100
AcDbEntity
  8
0
  6
Continuous
 62
     7
100
AcDbLine
 10
-2629.0602429633
 20
318.3729297474
 30
0.0
 11
-2629.056228136
 21
392.3694573549
 31
0.0
  0
LINE
  5
C9
330
1F
100
AcDbEntity
  8
0
  6
Continuous
 62
     7
100
AcDbLine
 10
-3073.8560728948
 20
655.8602914096
 30
0.0
 11
-3073.858785616
 21
605.8626376208
 31
0.0
  0
LINE
  5
CA
330
1F
100
AcDbEntity
  8
0
  6
Continuous
 62
     7
100
AcDbLine
 10
-3085.81525268
 20
520.8568719218
 30
0.0
 11
-3073.8633972419
 21
520.8666261798
 31
0.0
  0
LINE
  5
CB
330
1F
100
AcDbEntity
  8
0
  6
Continuous
 62
     7
100
AcDbLine
 10
-2836.8226047406
 20
441.0638395676
 30
0.0
 11
-2637.625014106
 21
441.226410534
 31
0.0
  0
LINE
  5
CC
330
1F
100
AcDbEntity
  8
0
  6
Continuous
 62
     7
100
AcDbLine
 10
-3085.8179654012
 20
470.859218133
 30
0.0
 11
-3073.8661099631
 21
470.868972391
 31
0.0
  0
LINE
  5
CD
330
1F
100
AcDbEntity
  8
0
  6
Continuous
 62
     7
100
AcDbLine
 10
-2095.8799267985
 20
262.6728406239
 30
0.0
 11
-2193.4867462094
 21
262.5931808504
 31
0.0
  0
LINE
  5
CE
330
1F
100
AcDbEntity
  8
0
  6
Continuous
 62
     7
100
AcDbLine
 10
-2095.8799267985
 20
262.6728406239
 30
0.0
 11
-2095.8759119711
 21
336.6693682314
 31
0.0
  0
LINE
  5
CF
330
1F
100
AcDbEntity
  8
0
  6
Continuous
 62
     7
100
AcDbLine
 10
-2095.8759119711
 20
336.6693682314
 30
0.0
 11
-2193.4827313821
 21
336.5897084579
 31
0.0
  0
LINE
  5
D0
330
1F
100
AcDbEntity
  8
0
  6
Continuous
 62
     7
100
AcDbLine
 10
-2193.4867462094
 20
262.5931808504
 30
0.0
 11
-2193.4827313821
 21
336.5897084579
 31
0.0
  0
LINE
  5
D1
330
1F
100
AcDbEntity
  8
0
  6
Continuous
 62
     7
100
AcDbLine
 10
-3073.8633972419
 20
520.8666261798
 30
0.0
 11
-3073.8661099631
 21
470.868972391
 31
0.0
  0
LINE
  5
D2
330
1F
100
AcDbEntity
  8
0
  6
Continuous
 62
     7
100
AcDbLine
 10
-2637.624363053
 20
453.2258474433
 30
0.0
 11
-2538.0255677357
 21
453.3071329264
 31
0.0
  0
LINE
  5
D3
330
1F
100
AcDbEntity
  8
0
  6
Continuous
 62
     7
100
AcDbLine
 10
-2637.624363053
 20
453.2258474433
 30
0.0
 11
-2637.625014106
 21
441.226410534
 31
0.0
  0
LINE
  5
D4
330
1F
100
AcDbEntity
  8
0
  6
Continuous
 62
     7
100
AcDbLine
 10
-2400.5608922026
 20
791.4034465056
 30
0.0
 11
-2388.6090367646
 21
791.4132007636
 31
0.0
  0
LINE
  5
D5
330
1F
100
AcDbEntity
  8
0
  6
Continuous
 62
     7
100
AcDbLine
 10
-2538.0255677357
 20
453.3071329264
 30
0.0
 11
-2538.0262187887
 21
441.3076960171
 31
0.0
  0
LINE
  5
D6
330
1F
100
AcDbEntity
  8
0
  6
Continuous
 62
     7
100
AcDbLine
 10
-2538.0262187887
 20
441.3076960171
 30
0.0
 11
-2388.6280258128
 21
441.4296242419
 31
0.0
  0
LINE
  5
D7
330
1F
100
AcDbEntity
  8
0
  6
Continuous
 62
     7
100
AcDbLine
 10
-2936.421400058
 20
440.9825540845
 30
0.0
 11
-2936.4207490049
 21
452.9819909938
 31
0.0
  0
LINE
  5
D8
330
1F
100
AcDbEntity
  8
0
  6
Continuous
 62
     7
100
AcDbLine
 10
-2936.4207490049
 20
452.9819909938
 30
0.0
 11
-2836.8219536876
 21
453.0632764769
 31
0.0
  0
LINE
  5
D9
330
1F
100
AcDbEntity
  8
0
  6
Continuous
 62
     7
100
AcDbLine
 10
-2836.8226047406
 20
441.0638395676
 30
0.0
 11
-2836.8219536876
 21
453.0632764769
 31
0.0
  0
LINE
  5
DA
330
1F
100
AcDbEntity
  8
0
  6
Continuous
 62
     7
100
AcDbLine
 10
-2400.5608922026
 20
791.4034465056
 30
0.0
 11
-2400.5636049238
 21
741.4057927168
 31
0.0
  0
LINE
  5
DB
330
1F
100
AcDbEntity
  8
0
  6
Continuous
 62
     7
100
AcDbLine
 10
-2400.5636049238
 20
741.4057927168
 30
0.0
 11
-2388.6117494857
 21
741.4155469747
 31
0.0
  0
LINE
  5
DC
330
1F
100
AcDbEntity
  8
0
  6
Continuous
 62
     7
100
AcDbLine
 10
-2400.5682165498
 20
656.4097812758
 30
0.0
 11
-2388.6163611117
 21
656.4195355338
 31
0.0
  0
LINE
  5
DD
330
1F
100
AcDbEntity
  8
0
  6
Continuous
 62
     7
100
AcDbLine
 10
-2400.5682165498
 20
656.4097812758
 30
0.0
 11
-2400.570929271
 21
606.412127487
 31
0.0
  0
LINE
  5
DE
330
1F
100
AcDbEntity
  8
0
  6
Continuous
 62
     7
100
AcDbLine
 10
-2400.570929271
 20
606.412127487
 30
0.0
 11
-2388.6190738329
 21
606.421881745
 31
0.0
  0
LINE
  5
DF
330
1F
100
AcDbEntity
  8
0
  6
Continuous
 62
     7
100
AcDbLine
 10
-2400.5782536182
 20
471.4184622572
 30
0.0
 11
-2388.6263981801
 21
471.4282165152
 31
0.0
  0
LINE
  5
E0
330
1F
100
AcDbEntity
  8
0
  6
Continuous
 62
     7
100
AcDbLine
 10
-2400.575540897
 20
521.416116046
 30
0.0
 11
-2400.5782536182
 21
471.4184622572
 31
0.0
  0
LINE
  5
E1
330
1F
100
AcDbEntity
  8
0
  6
Continuous
 62
     7
100
AcDbLine
 10
-2400.575540897
 20
521.416116046
 30
0.0
 11
-2388.6236854589
 21
521.425870304
 31
0.0
  0
LINE
  5
E2
330
1F
100
AcDbEntity
  8
0
  6
Continuous
 62
     7
100
AcDbLine
 10
-2836.8019880597
 20
821.0460083626
 30
0.0
 11
-2836.8026391128
 21
809.0465714533
 31
0.0
  0
LINE
  5
E3
330
1F
100
AcDbEntity
  8
0
  6
Continuous
 62
     7
100
AcDbLine
 10
-2936.4014344301
 20
808.9652859701
 30
0.0
 11
-2836.8026391128
 21
809.0465714533
 31
0.0
  0
LINE
  5
E4
330
1F
100
AcDbEntity
  8
0
  6
Continuous
 62
     7
100
AcDbLine
 10
-2936.400783377
 20
820.9647228794
 30
0.0
 11
-2936.4014344301
 21
808.9652859701
 31
0.0
  0
LINE
  5
E5
330
1F
100
AcDbEntity
  8
0
  6
Continuous
 62
     7
100
AcDbLine
 10
-2538.0062531609
 20
809.2904279028
 30
0.0
 11
-2538.0056021078
 21
821.2898648121
 31
0.0
  0
LINE
  5
E6
330
1F
100
AcDbEntity
  8
0
  6
Continuous
 62
     7
100
AcDbLine
 10
-2637.6050484782
 20
809.2091424196
 30
0.0
 11
-2538.0062531609
 21
809.2904279028
 31
0.0
  0
LINE
  5
E7
330
1F
100
AcDbEntity
  8
0
  6
Continuous
 62
     7
100
AcDbLine
 10
-2637.6050484782
 20
809.2091424196
 30
0.0
 11
-2637.6043974251
 21
821.2085793289
 31
0.0
  0
LINE
  5
E8
330
1F
100
AcDbEntity
  8
0
  6
Continuous
 62
     7
100
AcDbLine
 10
-2836.8019880597
 20
821.0460083626
 30
0.0
 11
-2637.6043974251
 21
821.2085793289
 31
0.0
  0
LINE
  5
E9
330
1F
100
AcDbEntity
  8
0
  6
Continuous
 62
     7
100
AcDbLine
 10
-2538.0056021078
 20
821.2898648121
 30
0.0
 11
-2388.6074091319
 21
821.4117930368
 31
0.0
  0
LINE
  5
EA
330
1F
100
AcDbEntity
  8
0
  6
Continuous
 62
     7
100
AcDbLine
 10
-2388.6236854589
 20
521.425870304
 30
0.0
 11
-2388.6190738329
 21
606.421881745
 31
0.0
  0
LINE
  5
EB
330
1F
100
AcDbEntity
  8
0
  6
Continuous
 62
     7
100
AcDbLine
 10
-2388.6163611117
 20
656.4195355338
 30
0.0
 11
-2388.6117494857
 21
741.4155469747
 31
0.0
  0
LINE
  5
EC
330
1F
100
AcDbEntity
  8
0
  6
Continuous
 62
     7
100
AcDbLine
 10
-2388.6090367646
 20
791.4132007636
 30
0.0
 11
-2388.6074091319
 21
821.4117930368
 31
0.0
  0
LWPOLYLINE
  5
ED
330
1F
100
AcDbEntity
  8
0
  6
Continuous
 62
     7
100
AcDbPolyline
 90
       14
 70
   128
 43
0.0
 10
-2129.1256371463
 20
852.2199579898
 10
-2115.7343055494
 20
831.9178627606
 10
-2103.4082469525
 20
807.6106291873
 10
-2092.2603037607
 20
780.0484776715
 10
-2082.4020618549
 20
749.9816296404
 10
-2073.9451071163
 20
718.1603065212
 10
-2065.1756818789
 20
675.0879548121
 10
-2059.20657193
 20
631.8352451128
 10
-2055.9842893476
 20
589.1128458296
 10
-2055.4129493151
 20
544.3943247393
 10
-2057.6451062617
 20
501.2615406871
 10
-2062.499781355
 20
460.2195809327
 10
-2069.7959957621
 20
421.7735327355
 10
-2079.3527706506
 20
386.4284833554
  0
LWPOLYLINE
  5
EE
330
1F
100
AcDbEntity
  8
0
  6
Continuous
 62
     7
100
AcDbPolyline
 90
       11
 70
   128
 43
0.0
 10
-2968.2994959286
 20
393.9183267446
 10
-2940.3580404694
 20
392.9308728559
 10
-2911.3865497843
 20
387.8621514488
 10
-2882.56887223
 20
378.8275903258
 10
-2855.0875970164
 20
365.9426183177
 10
-2830.1253133531
 20
349.3226642546
 10
-2813.0496039394
 20
333.7191174685
 10
-2798.8326787989
 20
315.9370402928
 10
-2788.048162654
 20
296.032422441
 10
-2781.2696802271
 20
274.0612536262
 10
-2779.0708562405
 20
250.0795235617
  0
LWPOLYLINE
  5
EF
330
1F
100
AcDbEntity
  8
0
  6
Continuous
 62
     7
100
AcDbPolyline
 90
       11
 70
   128
 43
0.0
 10
-2378.1332529866
 20
306.0129941294
 10
-2350.1921798568
 20
305.0255399287
 10
-2321.2206891717
 20
299.9568185215
 10
-2292.4030116174
 20
290.9222573986
 10
-2264.9217364038
 20
278.0372853904
 10
-2239.9594527405
 20
261.4173313274
 10
-2222.8837433268
 20
245.8137845412
 10
-2208.6668181863
 20
228.0317073656
 10
-2197.8823020414
 20
208.1270895137
 10
-2191.1038196145
 20
186.1559206989
 10
-2188.9049956279
 20
162.1741906345
  0
LWPOLYLINE
  5
F0
330
1F
100
AcDbEntity
  8
0
  6
Continuous
 62
     7
100
AcDbPolyline
 90
       14
 70
   128
 43
0.0
 10
-2255.5722048151
 20
835.8081671421
 10
-2242.1802530744
 20
815.506072419
 10
-2229.8541944775
 20
791.1988388457
 10
-2218.7062512857
 20
763.6366873299
 10
-2208.84800938
 20
733.5698392988
 10
-2200.3910546414
 20
701.7485161796
 10
-2191.6216294039
 20
658.6761644706
 10
-2185.6525194551
 20
615.4234547712
 10
-2182.4302368727
 20
572.701055488
 10
-2181.8588968401
 20
527.9825343978
 10
-2184.0910537868
 20
484.8497503456
 10
-2188.94572888
 20
443.8077905911
 10
-2196.2419432872
 20
405.3617423939
 10
-2205.7987181756
 20
370.0166930138
  0
LWPOLYLINE
  5
F1
330
1F
100
AcDbEntity
  8
0
  6
Continuous
 62
     7
100
AcDbPolyline
 90
       12
 70
   128
 43
0.0
 10
-2332.633886783
 20
791.4588837168
 10
-2319.4478860782
 20
758.6894568906
 10
-2305.6814759549
 20
722.150059191
 10
-2293.306747716
 20
682.8192562922
 10
-2284.293401874
 20
641.675497366
 10
-2279.8437007197
 20
599.6342591832
 10
-2279.1289537703
 20
557.4443680044
 10
-2280.8329991734
 20
518.1774874234
 10
-2283.8524225386
 20
480.0247302677
 10
-2287.2142479335
 20
443.5909054471
 10
-2289.9454994261
 20
409.4808218713
 10
-2291.0732010841
 20
378.2992884503
  0
LWPOLYLINE
  5
F2
330
1F
100
AcDbEntity
  8
0
  6
Continuous
 62
     7
100
AcDbPolyline
 90
       12
 70
   128
 43
0.0
 10
-2206.1873191141
 20
807.8706745645
 10
-2193.0019385531
 20
775.1012472321
 10
-2179.2355284299
 20
738.5618495326
 10
-2166.860800191
 20
699.2310466338
 10
-2157.8474543489
 20
658.0872877075
 10
-2153.3977531946
 20
616.0460495248
 10
-2152.6830062452
 20
573.8561583459
 10
-2154.3870516484
 20
534.589277765
 10
-2157.4064750135
 20
496.4365206093
 10
-2160.7683004085
 20
460.0026957886
 10
-2163.499551901
 20
425.8926122129
 10
-2164.627253559
 20
394.7110787918
  0
ENDSEC
  0
SECTION
  2
OBJECTS
  0
DICTIONARY
  5
C
330
0
100
AcDbDictionary
281
     1
  3
ACAD_GROUP
350
D
  3
ACAD_LAYOUT
350
1A
  3
ACAD_MLINESTYLE
350
17
  3
ACAD_PLOTSETTINGS
350
19
  3
ACAD_PLOTSTYLENAME
350
E
  3
ACAD_SCALELIST
350
47
  0
DICTIONARY
  5
D
102
{ACAD_REACTORS
330
C
102
}
330
C
100
AcDbDictionary
281
     1
  0
DICTIONARY
  5
1A
102
{ACAD_REACTORS
330
C
102
}
330
C
100
AcDbDictionary
281
     1
  3
Layout1
350
1E
  3
Layout2
350
26
  3
Model
350
22
  0
DICTIONARY
  5
17
102
{ACAD_REACTORS
330
C
102
}
330
C
100
AcDbDictionary
281
     1
  3
Standard
350
18
  0
DICTIONARY
  5
19
102
{ACAD_REACTORS
330
C
102
}
330
C
100
AcDbDictionary
281
     1
  0
ACDBDICTIONARYWDFLT
  5
E
102
{ACAD_REACTORS
330
C
102
}
330
C
100
AcDbDictionary
281
     1
  3
Normal
350
F
100
AcDbDictionaryWithDefault
340
F
  0
DICTIONARY
  5
47
102
{ACAD_REACTORS
330
C
102
}
330
C
100
AcDbDictionary
281
     1
  3
A0
350
48
  3
A1
350
49
  3
A2
350
4A
  3
A3
350
4B
  3
A4
350
4C
  3
A5
350
4D
  3
A6
350
4E
  3
A7
350
4F
  3
A8
350
50
  3
A9
350
51
  3
B0
350
52
  3
B1
350
53
  3
B2
350
54
  3
B3
350
55
  3
B4
350
56
  3
B5
350
57
  3
B6
350
58
  3
B7
350
59
  3
B8
350
5A
  3
B9
350
5B
  3
C0
350
5C
  3
C1
350
5D
  3
C2
350
5E
  3
C3
350
5F
  3
C4
350
60
  3
C5
350
61
  3
C6
350
62
  3
C7
350
63
  3
C8
350
64
  3
C9
350
65
  3
D0
350
66
  3
D1
350
67
  3
D2
350
68
  0
LAYOUT
  5
1E
102
{ACAD_REACTORS
330
1A
102
}
330
1A
100
AcDbPlotSettings
  1

  2
none_device
  4

  6

 40
0.0
 41
0.0
 42
0.0
 43
0.0
 44
0.0
 45
0.0
 46
0.0
 47
0.0
 48
0.0
 49
0.0
140
0.0
141
0.0
142
1.0
143
1.0
 70
   688
 72
     1
 73
     0
 74
     5
  7

 75
    16
147
1.0
148
0.0
149
0.0
100
AcDbLayout
  1
Layout1
 70
     1
 71
     1
 10
0.0
 20
0.0
 11
420.0
 21
297.0
 12
0.0
 22
0.0
 32
0.0
 14
1.0000000000E+20
 24
1.0000000000E+20
 34
1.0000000000E+20
 15
-1.0000000000E+20
 25
-1.0000000000E+20
 35
-1.0000000000E+20
146
0.0
 13
0.0
 23
0.0
 33
0.0
 16
1.0
 26
0.0
 36
0.0
 17
0.0
 27
1.0
 37
0.0
 76
     0
330
1B
  0
LAYOUT
  5
26
102
{ACAD_REACTORS
330
1A
102
}
330
1A
100
AcDbPlotSettings
  1

  2
none_device
  4

  6

 40
0.0
 41
0.0
 42
0.0
 43
0.0
 44
0.0
 45
0.0
 46
0.0
 47
0.0
 48
0.0
 49
0.0
140
0.0
141
0.0
142
1.0
143
1.0
 70
   688
 72
     1
 73
     0
 74
     5
  7

 75
    16
147
1.0
148
0.0
149
0.0
100
AcDbLayout
  1
Layout2
 70
     1
 71
     2
 10
0.0
 20
0.0
 11
0.0
 21
0.0
 12
0.0
 22
0.0
 32
0.0
 14
0.0
 24
0.0
 34
0.0
 15
0.0
 25
0.0
 35
0.0
146
0.0
 13
0.0
 23
0.0
 33
0.0
 16
1.0
 26
0.0
 36
0.0
 17
0.0
 27
1.0
 37
0.0
 76
     0
330
23
  0
LAYOUT
  5
22
102
{ACAD_REACTORS
330
1A
102
}
330
1A
100
AcDbPlotSettings
  1

  2
none_device
  4
ANSI_A_(11.00_x_8.50_Inches)
  6

 40
6.35
 41
19.05
 42
6.35000508
 43
19.05000254
 44
279.4
 45
215.9
 46
703.097927288
 47
-13.9221813348
 48
0.0
 49
0.0
140
0.0
141
0.0
142
0.0089618261
143
1.0
 70
  1696
 72
     0
 73
     0
 74
     0
  7

 75
     0
147
0.0179189148
148
-1300.4909072572
149
0.0
100
AcDbLayout
  1
Model
 70
     1
 71
     0
 10
0.0
 20
0.0
 11
420.0
 21
297.0
 12
0.0
 22
0.0
 32
0.0
 14
-3110.5291025586
 24
1.2320232287
 34
0.0
 15
-1895.3749707064
 25
902.181474322
 35
0.0
146
0.0
 13
0.0
 23
0.0
 33
0.0
 16
1.0
 26
0.0
 36
0.0
 17
0.0
 27
1.0
 37
0.0
 76
     0
330
1F
331
29
  0
MLINESTYLE
  5
18
102
{ACAD_REACTORS
330
17
102
}
330
17
100
AcDbMlineStyle
  2
Standard
 70
     0
  3

 62
   256
 51
90.0
 52
90.0
 71
     2
 49
0.5
 62
   256
  6
BYLAYER
 49
-0.5
 62
   256
  6
BYLAYER
  0
ACDBPLACEHOLDER
  5
F
102
{ACAD_REACTORS
330
E
102
}
330
E
  0
SCALE
  5
48
102
{ACAD_REACTORS
330
47
102
}
330
47
100
AcDbScale
 70
     0
300
1:1
140
1.0
141
1.0
290
     1
  0
SCALE
  5
49
102
{ACAD_REACTORS
330
47
102
}
330
47
100
AcDbScale
 70
     0
300
1:2
140
1.0
141
2.0
290
     0
  0
SCALE
  5
4A
102
{ACAD_REACTORS
330
47
102
}
330
47
100
AcDbScale
 70
     0
300
1:4
140
1.0
141
4.0
290
     0
  0
SCALE
  5
4B
102
{ACAD_REACTORS
330
47
102
}
330
47
100
AcDbScale
 70
     0
300
1:5
140
1.0
141
5.0
290
     0
  0
SCALE
  5
4C
102
{ACAD_REACTORS
330
47
102
}
330
47
100
AcDbScale
 70
     0
300
1:8
140
1.0
141
8.0
290
     0
  0
SCALE
  5
4D
102
{ACAD_REACTORS
330
47
102
}
330
47
100
AcDbScale
 70
     0
300
1:10
140
1.0
141
10.0
290
     0
  0
SCALE
  5
4E
102
{ACAD_REACTORS
330
47
102
}
330
47
100
AcDbScale
 70
     0
300
1:16
140
1.0
141
16.0
290
     0
  0
SCALE
  5
4F
102
{ACAD_REACTORS
330
47
102
}
330
47
100
AcDbScale
 70
     0
300
1:20
140
1.0
141
20.0
290
     0
  0
SCALE
  5
50
102
{ACAD_REACTORS
330
47
102
}
330
47
100
AcDbScale
 70
     0
300
1:30
140
1.0
141
30.0
290
     0
  0
SCALE
  5
51
102
{ACAD_REACTORS
330
47
102
}
330
47
100
AcDbScale
 70
     0
300
1:40
140
1.0
141
40.0
290
     0
  0
SCALE
  5
52
102
{ACAD_REACTORS
330
47
102
}
330
47
100
AcDbScale
 70
     0
300
1:50
140
1.0
141
50.0
290
     0
  0
SCALE
  5
53
102
{ACAD_REACTORS
330
47
102
}
330
47
100
AcDbScale
 70
     0
300
1:100
140
1.0
141
100.0
290
     0
  0
SCALE
  5
54
102
{ACAD_REACTORS
330
47
102
}
330
47
100
AcDbScale
 70
     0
300
2:1
140
2.0
141
1.0
290
     0
  0
SCALE
  5
55
102
{ACAD_REACTORS
330
47
102
}
330
47
100
AcDbScale
 70
     0
300
4:1
140
4.0
141
1.0
290
     0
  0
SCALE
  5
56
102
{ACAD_REACTORS
330
47
102
}
330
47
100
AcDbScale
 70
     0
300
8:1
140
8.0
141
1.0
290
     0
  0
SCALE
  5
57
102
{ACAD_REACTORS
330
47
102
}
330
47
100
AcDbScale
 70
     0
300
10:1
140
10.0
141
1.0
290
     0
  0
SCALE
  5
58
102
{ACAD_REACTORS
330
47
102
}
330
47
100
AcDbScale
 70
     0
300
100:1
140
100.0
141
1.0
290
     0
  0
SCALE
  5
59
102
{ACAD_REACTORS
330
47
102
}
330
47
100
AcDbScale
 70
     0
300
1/128" = 1'-0"
140
0.0078125
141
12.0
290
     0
  0
SCALE
  5
5A
102
{ACAD_REACTORS
330
47
102
}
330
47
100
AcDbScale
 70
     0
300
1/64" = 1'-0"
140
0.015625
141
12.0
290
     0
  0
SCALE
  5
5B
102
{ACAD_REACTORS
330
47
102
}
330
47
100
AcDbScale
 70
     0
300
1/32" = 1'-0"
140
0.03125
141
12.0
290
     0
  0
SCALE
  5
5C
102
{ACAD_REACTORS
330
47
102
}
330
47
100
AcDbScale
 70
     0
300
1/16" = 1'-0"
140
0.0625
141
12.0
290
     0
  0
SCALE
  5
5D
102
{ACAD_REACTORS
330
47
102
}
330
47
100
AcDbScale
 70
     0
300
3/32" = 1'-0"
140
0.09375
141
12.0
290
     0
  0
SCALE
  5
5E
102
{ACAD_REACTORS
330
47
102
}
330
47
100
AcDbScale
 70
     0
300
1/8" = 1'-0"
140
0.125
141
12.0
290
     0
  0
SCALE
  5
5F
102
{ACAD_REACTORS
330
47
102
}
330
47
100
AcDbScale
 70
     0
300
3/16" = 1'-0"
140
0.1875
141
12.0
290
     0
  0
SCALE
  5
60
102
{ACAD_REACTORS
330
47
102
}
330
47
100
AcDbScale
 70
     0
300
1/4" = 1'-0"
140
0.25
141
12.0
290
     0
  0
SCALE
  5
61
102
{ACAD_REACTORS
330
47
102
}
330
47
100
AcDbScale
 70
     0
300
3/8" = 1'-0"
140
0.375
141
12.0
290
     0
  0
SCALE
  5
62
102
{ACAD_REACTORS
330
47
102
}
330
47
100
AcDbScale
 70
     0
300
1/2" = 1'-0"
140
0.5
141
12.0
290
     0
  0
SCALE
  5
63
102
{ACAD_REACTORS
330
47
102
}
330
47
100
AcDbScale
 70
     0
300
3/4" = 1'-0"
140
0.75
141
12.0
290
     0
  0
SCALE
  5
64
102
{ACAD_REACTORS
330
47
102
}
330
47
100
AcDbScale
 70
     0
300
1" = 1'-0"
140
1.0
141
12.0
290
     0
  0
SCALE
  5
65
102
{ACAD_REACTORS
330
47
102
}
330
47
100
AcDbScale
 70
     0
300
1-1/2" = 1'-0"
140
1.5
141
12.0
290
     0
  0
SCALE
  5
66
102
{ACAD_REACTORS
330
47
102
}
330
47
100
AcDbScale
 70
     0
300
3" = 1'-0"
140
3.0
141
12.0
290
     0
  0
SCALE
  5
67
102
{ACAD_REACTORS
330
47
102
}
330
47
100
AcDbScale
 70
     0
300
6" = 1'-0"
140
6.0
141
12.0
290
     0
  0
SCALE
  5
68
102
{ACAD_REACTORS
330
47
102
}
330
47
100
AcDbScale
 70
     0
300
1'-0" = 1'-0"
140
12.0
141
12.0
290
     0
  0
ENDSEC
  0
EOF
