  0
SECTION
  2
HEADER
  9
$ACADVER
  1
AC1021
  9
$ACADMAINTVER
 70
    25
  9
$DWGCODEPAGE
  3
ANSI_1252
  9
$INSBASE
 10
0.0
 20
0.0
 30
0.0
  9
$EXTMIN
 10
-11.958
 20
-2.051905511811023
 30
0.0
  9
$EXTMAX
 10
-5.240724409448819
 20
8.800074803149606
 30
0.0
  9
$LIMMIN
 10
0.0
 20
0.0
  9
$LIMMAX
 10
12.0
 20
9.0
  9
$ORTHOMODE
 70
     0
  9
$REGENMODE
 70
     1
  9
$FILLMODE
 70
     1
  9
$QTEXTMODE
 70
     0
  9
$MIRRTEXT
 70
     1
  9
$LTSCALE
 40
1.0
  9
$ATTMODE
 70
     1
  9
$TEXTSIZE
 40
0.2
  9
$TRACEWID
 40
0.05
  9
$TEXTSTYLE
  7
Standard
  9
$CLAYER
  8
0
  9
$CELTYPE
  6
ByLayer
  9
$CECOLOR
 62
   256
  9
$CELTSCALE
 40
1.0
  9
$DISPSILH
 70
     0
  9
$DIMSCALE
 40
1.0
  9
$DIMASZ
 40
0.18
  9
$DIMEXO
 40
0.0625
  9
$DIMDLI
 40
0.38
  9
$DIMRND
 40
0.0
  9
$DIMDLE
 40
0.0
  9
$DIMEXE
 40
0.18
  9
$DIMTP
 40
0.0
  9
$DIMTM
 40
0.0
  9
$DIMTXT
 40
0.18
  9
$DIMCEN
 40
0.09
  9
$DIMTSZ
 40
0.0
  9
$DIMTOL
 70
     0
  9
$DIMLIM
 70
     0
  9
$DIMTIH
 70
     1
  9
$DIMTOH
 70
     1
  9
$DIMSE1
 70
     0
  9
$DIMSE2
 70
     0
  9
$DIMTAD
 70
     0
  9
$DIMZIN
 70
     0
  9
$DIMBLK
  1

  9
$DIMASO
 70
     1
  9
$DIMSHO
 70
     1
  9
$DIMPOST
  1

  9
$DIMAPOST
  1

  9
$DIMALT
 70
     0
  9
$DIMALTD
 70
     2
  9
$DIMALTF
 40
25.4
  9
$DIMLFAC
 40
1.0
  9
$DIMTOFL
 70
     0
  9
$DIMTVP
 40
0.0
  9
$DIMTIX
 70
     0
  9
$DIMSOXD
 70
     0
  9
$DIMSAH
 70
     0
  9
$DIMBLK1
  1

  9
$DIMBLK2
  1

  9
$DIMSTYLE
  2
Standard
  9
$DIMCLRD
 70
     0
  9
$DIMCLRE
 70
     0
  9
$DIMCLRT
 70
     0
  9
$DIMTFAC
 40
1.0
  9
$DIMGAP
 40
0.09
  9
$DIMJUST
 70
     0
  9
$DIMSD1
 70
     0
  9
$DIMSD2
 70
     0
  9
$DIMTOLJ
 70
     1
  9
$DIMTZIN
 70
     0
  9
$DIMALTZ
 70
     0
  9
$DIMALTTZ
 70
     0
  9
$DIMUPT
 70
     0
  9
$DIMDEC
 70
     4
  9
$DIMTDEC
 70
     4
  9
$DIMALTU
 70
     2
  9
$DIMALTTD
 70
     2
  9
$DIMTXSTY
  7
Standard
  9
$DIMAUNIT
 70
     0
  9
$DIMADEC
 70
     0
  9
$DIMALTRND
 40
0.0
  9
$DIMAZIN
 70
     0
  9
$DIMDSEP
 70
    46
  9
$DIMATFIT
 70
     3
  9
$DIMFRAC
 70
     0
  9
$DIMLDRBLK
  1

  9
$DIMLUNIT
 70
     2
  9
$DIMLWD
 70
    -2
  9
$DIMLWE
 70
    -2
  9
$DIMTMOVE
 70
     0
  9
$DIMFXL
 40
1.0
  9
$DIMFXLON
 70
     0
  9
$DIMJOGANG
 40
0.7853981633974483
  9
$DIMTFILL
 70
     0
  9
$DIMTFILLCLR
 70
     0
  9
$DIMARCSYM
 70
     0
  9
$DIMLTYPE
  6

  9
$DIMLTEX1
  6

  9
$DIMLTEX2
  6

  9
$LUNITS
 70
     2
  9
$LUPREC
 70
     4
  9
$SKETCHINC
 40
0.1
  9
$FILLETRAD
 40
0.5
  9
$AUNITS
 70
     0
  9
$AUPREC
 70
     0
  9
$MENU
  1
.
  9
$ELEVATION
 40
0.0
  9
$PELEVATION
 40
0.0
  9
$THICKNESS
 40
0.0
  9
$LIMCHECK
 70
     0
  9
$CHAMFERA
 40
0.5
  9
$CHAMFERB
 40
0.5
  9
$CHAMFERC
 40
1.0
  9
$CHAMFERD
 40
0.0
  9
$SKPOLY
 70
     0
  9
$TDCREATE
 40
2455793.044764132
  9
$TDUCREATE
 40
2455793.253097465
  9
$TDUPDATE
 40
2455793.044764143
  9
$TDUUPDATE
 40
2455793.253097477
  9
$TDINDWG
 40
0.0000000116
  9
$TDUSRTIMER
 40
0.0000000116
  9
$USRTIMER
 70
     1
  9
$ANGBASE
 50
0.0
  9
$ANGDIR
 70
     0
  9
$PDMODE
 70
     0
  9
$PDSIZE
 40
0.0
  9
$PLINEWID
 40
0.0
  9
$SPLFRAME
 70
     0
  9
$SPLINETYPE
 70
     6
  9
$SPLINESEGS
 70
     8
  9
$HANDSEED
  5
7A
  9
$SURFTAB1
 70
     6
  9
$SURFTAB2
 70
     6
  9
$SURFTYPE
 70
     6
  9
$SURFU
 70
     6
  9
$SURFV
 70
     6
  9
$UCSBASE
  2

  9
$UCSNAME
  2

  9
$UCSORG
 10
0.0
 20
0.0
 30
0.0
  9
$UCSXDIR
 10
1.0
 20
0.0
 30
0.0
  9
$UCSYDIR
 10
0.0
 20
1.0
 30
0.0
  9
$UCSORTHOREF
  2

  9
$UCSORTHOVIEW
 70
     0
  9
$UCSORGTOP
 10
0.0
 20
0.0
 30
0.0
  9
$UCSORGBOTTOM
 10
0.0
 20
0.0
 30
0.0
  9
$UCSORGLEFT
 10
0.0
 20
0.0
 30
0.0
  9
$UCSORGRIGHT
 10
0.0
 20
0.0
 30
0.0
  9
$UCSORGFRONT
 10
0.0
 20
0.0
 30
0.0
  9
$UCSORGBACK
 10
0.0
 20
0.0
 30
0.0
  9
$PUCSBASE
  2

  9
$PUCSNAME
  2

  9
$PUCSORG
 10
0.0
 20
0.0
 30
0.0
  9
$PUCSXDIR
 10
1.0
 20
0.0
 30
0.0
  9
$PUCSYDIR
 10
0.0
 20
1.0
 30
0.0
  9
$PUCSORTHOREF
  2

  9
$PUCSORTHOVIEW
 70
     0
  9
$PUCSORGTOP
 10
0.0
 20
0.0
 30
0.0
  9
$PUCSORGBOTTOM
 10
0.0
 20
0.0
 30
0.0
  9
$PUCSORGLEFT
 10
0.0
 20
0.0
 30
0.0
  9
$PUCSORGRIGHT
 10
0.0
 20
0.0
 30
0.0
  9
$PUCSORGFRONT
 10
0.0
 20
0.0
 30
0.0
  9
$PUCSORGBACK
 10
0.0
 20
0.0
 30
0.0
  9
$USERI1
 70
     0
  9
$USERI2
 70
     0
  9
$USERI3
 70
     0
  9
$USERI4
 70
     0
  9
$USERI5
 70
     0
  9
$USERR1
 40
0.0
  9
$USERR2
 40
0.0
  9
$USERR3
 40
0.0
  9
$USERR4
 40
0.0
  9
$USERR5
 40
0.0
  9
$WORLDVIEW
 70
     1
  9
$SHADEDGE
 70
     3
  9
$SHADEDIF
 70
    70
  9
$TILEMODE
 70
     1
  9
$MAXACTVP
 70
    64
  9
$PINSBASE
 10
0.0
 20
0.0
 30
0.0
  9
$PLIMCHECK
 70
     0
  9
$PEXTMIN
 10
1.000000000000000E+20
 20
1.000000000000000E+20
 30
1.000000000000000E+20
  9
$PEXTMAX
 10
-1.000000000000000E+20
 20
-1.000000000000000E+20
 30
-1.000000000000000E+20
  9
$PLIMMIN
 10
0.0
 20
0.0
  9
$PLIMMAX
 10
12.0
 20
9.0
  9
$UNITMODE
 70
     0
  9
$VISRETAIN
 70
     1
  9
$PLINEGEN
 70
     0
  9
$PSLTSCALE
 70
     1
  9
$TREEDEPTH
 70
  3020
  9
$CMLSTYLE
  2
Standard
  9
$CMLJUST
 70
     0
  9
$CMLSCALE
 40
1.0
  9
$PROXYGRAPHICS
 70
     1
  9
$MEASUREMENT
 70
     0
  9
$CELWEIGHT
370
    -1
  9
$ENDCAPS
280
     0
  9
$JOINSTYLE
280
     0
  9
$LWDISPLAY
290
     0
  9
$INSUNITS
 70
     1
  9
$HYPERLINKBASE
  1

  9
$STYLESHEET
  1

  9
$XEDIT
290
     1
  9
$CEPSNTYPE
380
     0
  9
$PSTYLEMODE
290
     1
  9
$FINGERPRINTGUID
  2
{E63E93AA-459C-4305-AC40-8993BF86A89B}
  9
$VERSIONGUID
  2
{FAEB1C32-E019-11D5-929B-00C0DF256EC4}
  9
$EXTNAMES
290
     1
  9
$PSVPSCALE
 40
0.0
  9
$OLESTARTUP
290
     0
  9
$SORTENTS
280
   127
  9
$INDEXCTL
280
     0
  9
$HIDETEXT
280
     1
  9
$XCLIPFRAME
290
     0
  9
$HALOGAP
280
     0
  9
$OBSCOLOR
 70
   257
  9
$OBSLTYPE
280
     0
  9
$INTERSECTIONDISPLAY
280
     0
  9
$INTERSECTIONCOLOR
 70
   257
  9
$DIMASSOC
280
     2
  9
$PROJECTNAME
  1

  9
$CAMERADISPLAY
290
     0
  9
$LENSLENGTH
 40
50.0
  9
$CAMERAHEIGHT
 40
0.0
  9
$STEPSPERSEC
 40
2.0
  9
$STEPSIZE
 40
6.0
  9
$3DDWFPREC
 40
2.0
  9
$PSOLWIDTH
 40
0.25
  9
$PSOLHEIGHT
 40
4.0
  9
$LOFTANG1
 40
1.570796326794897
  9
$LOFTANG2
 40
1.570796326794897
  9
$LOFTMAG1
 40
0.0
  9
$LOFTMAG2
 40
0.0
  9
$LOFTPARAM
 70
     7
  9
$LOFTNORMALS
280
     1
  9
$LATITUDE
 40
37.795
  9
$LONGITUDE
 40
-122.394
  9
$NORTHDIRECTION
 40
0.0
  9
$TIMEZONE
 70
 -8000
  9
$LIGHTGLYPHDISPLAY
280
     1
  9
$TILEMODELIGHTSYNCH
280
     1
  9
$SOLIDHIST
280
     1
  9
$SHOWHIST
280
     1
  9
$DWFFRAME
280
     2
  9
$DGNFRAME
280
     2
  9
$REALWORLDSCALE
290
     1
  9
$INTERFERECOLOR
 62
   256
  9
$CSHADOW
280
     0
  9
$SHADOWPLANELOCATION
 40
0.0
  0
ENDSEC
  0
SECTION
  2
CLASSES
  0
CLASS
  1
ACDBDICTIONARYWDFLT
  2
AcDbDictionaryWithDefault
  3
ObjectDBX Classes
 90
        0
 91
        4
280
     0
281
     0
  0
CLASS
  1
VISUALSTYLE
  2
AcDbVisualStyle
  3
ObjectDBX Classes
 90
     4095
 91
        4
280
     0
281
     0
  0
CLASS
  1
MATERIAL
  2
AcDbMaterial
  3
ObjectDBX Classes
 90
     1153
 91
        4
280
     0
281
     0
  0
ENDSEC
  0
SECTION
  2
TABLES
  0
TABLE
  2
VPORT
  5
8
330
0
100
AcDbSymbolTable
 70
     1
  0
VPORT
  5
29
330
8
100
AcDbSymbolTableRecord
100
AcDbViewportTableRecord
  2
*Active
 70
     0
 10
0.0
 20
0.0
 11
1.0
 21
1.0
 12
10.42990654205607
 22
4.5
 13
0.0
 23
0.0
 14
0.5
 24
0.5
 15
0.5
 25
0.5
 16
0.0
 26
0.0
 36
1.0
 17
0.0
 27
0.0
 37
0.0
 40
9.0
 41
1.972972972850329
 42
50.0
 43
0.0
 44
0.0
 50
0.0
 51
0.0
 71
     0
 72
   100
 73
     1
 74
     3
 75
     0
 76
     0
 77
     0
 78
     0
281
     0
 65
     1
110
0.0
120
0.0
130
0.0
111
1.0
121
0.0
131
0.0
112
0.0
122
1.0
132
0.0
 79
     0
146
0.0
 60
     3
 61
     5
292
     1
282
     1
141
0.0
142
0.0
 63
   250
  0
ENDTAB
  0
TABLE
  2
LTYPE
  5
5
330
0
100
AcDbSymbolTable
 70
     1
  0
LTYPE
  5
14
330
5
100
AcDbSymbolTableRecord
100
AcDbLinetypeTableRecord
  2
ByBlock
 70
     0
  3

 72
    65
 73
     0
 40
0.0
  0
LTYPE
  5
15
330
5
100
AcDbSymbolTableRecord
100
AcDbLinetypeTableRecord
  2
ByLayer
 70
     0
  3

 72
    65
 73
     0
 40
0.0
  0
LTYPE
  5
16
330
5
100
AcDbSymbolTableRecord
100
AcDbLinetypeTableRecord
  2
Continuous
 70
     0
  3
Solid line
 72
    65
 73
     0
 40
0.0
  0
ENDTAB
  0
TABLE
  2
LAYER
  5
2
330
0
100
AcDbSymbolTable
 70
     2
  0
LAYER
  5
10
330
2
100
AcDbSymbolTableRecord
100
AcDbLayerTableRecord
  2
0
 70
     0
 62
     7
  6
Continuous
370
    -3
390
F
347
3E
  0
LAYER
  5
40
330
2
100
AcDbSymbolTableRecord
100
AcDbLayerTableRecord
  2
Layer 1
 70
     0
 62
     7
  6
Continuous
370
    -3
390
F
347
3E
  0
ENDTAB
  0
TABLE
  2
STYLE
  5
3
330
0
100
AcDbSymbolTable
 70
     1
  0
STYLE
  5
11
330
3
100
AcDbSymbolTableRecord
100
AcDbTextStyleTableRecord
  2
Standard
 70
     0
 40
0.0
 41
1.0
 50
0.0
 71
     0
 42
0.2
  3
txt
  4

  0
ENDTAB
  0
TABLE
  2
VIEW
  5
6
330
0
100
AcDbSymbolTable
 70
     0
  0
ENDTAB
  0
TABLE
  2
UCS
  5
7
330
0
100
AcDbSymbolTable
 70
     0
  0
ENDTAB
  0
TABLE
  2
APPID
  5
9
330
0
100
AcDbSymbolTable
 70
     2
  0
APPID
  5
12
330
9
100
AcDbSymbolTableRecord
100
AcDbRegAppTableRecord
  2
ACAD
 70
     0
  0
APPID
  5
3F
330
9
100
AcDbSymbolTableRecord
100
AcDbRegAppTableRecord
  2
ODA
 70
     0
  0
ENDTAB
  0
TABLE
  2
DIMSTYLE
  5
A
330
0
100
AcDbSymbolTable
 70
     1
100
AcDbDimStyleTable
  0
DIMSTYLE
105
27
330
A
100
AcDbSymbolTableRecord
100
AcDbDimStyleTableRecord
  2
Standard
 70
     0
178
     0
340
11
  0
ENDTAB
  0
TABLE
  2
BLOCK_RECORD
  5
1
330
0
100
AcDbSymbolTable
 70
     1
  0
BLOCK_RECORD
  5
1F
330
1
100
AcDbSymbolTableRecord
100
AcDbBlockTableRecord
  2
*Model_Space
340
22
 70
     0
280
     1
281
     0
  0
BLOCK_RECORD
  5
1B
330
1
100
AcDbSymbolTableRecord
100
AcDbBlockTableRecord
  2
*Paper_Space
340
1E
 70
     0
280
     1
281
     0
  0
BLOCK_RECORD
  5
23
330
1
100
AcDbSymbolTableRecord
100
AcDbBlockTableRecord
  2
*Paper_Space0
340
26
 70
     0
280
     1
281
     0
  0
ENDTAB
  0
ENDSEC
  0
SECTION
  2
BLOCKS
  0
BLOCK
  5
20
330
1F
100
AcDbEntity
  8
0
100
AcDbBlockBegin
  2
*Model_Space
 70
     0
 10
0.0
 20
0.0
 30
0.0
  3
*Model_Space
  1

  0
ENDBLK
  5
21
330
1F
100
AcDbEntity
  8
0
100
AcDbBlockEnd
  0
BLOCK
  5
1C
330
1B
100
AcDbEntity
 67
     1
  8
0
100
AcDbBlockBegin
  2
*Paper_Space
 70
     0
 10
0.0
 20
0.0
 30
0.0
  3
*Paper_Space
  1

  0
ENDBLK
  5
1D
330
1B
100
AcDbEntity
 67
     1
  8
0
100
AcDbBlockEnd
  0
BLOCK
  5
24
330
23
100
AcDbEntity
  8
0
100
AcDbBlockBegin
  2
*Paper_Space0
 70
     0
 10
0.0
 20
0.0
 30
0.0
  3
*Paper_Space0
  1

  0
ENDBLK
  5
25
330
23
100
AcDbEntity
  8
0
100
AcDbBlockEnd
  0
ENDSEC
  0
SECTION
  2
ENTITIES
  0
SPLINE
  5
41
330
1F
100
AcDbEntity
  8
Layer 1
 62
   250
100
AcDbSpline
210
0.0
220
0.0
230
1.0
 70
    11
 71
     3
 72
   408
 73
   404
 74
     0
 42
0.0000000001
 43
0.0000000001
 40
0.0
 40
0.0
 40
0.0
 40
0.0
 40
0.0098039215686275
 40
0.0098039215686275
 40
0.0098039215686275
 40
0.0098039215686275
 40
0.0196078431372549
 40
0.0196078431372549
 40
0.0196078431372549
 40
0.0196078431372549
 40
0.0294117647058824
 40
0.0294117647058824
 40
0.0294117647058824
 40
0.0294117647058824
 40
0.0392156862745098
 40
0.0392156862745098
 40
0.0392156862745098
 40
0.0392156862745098
 40
0.0490196078431373
 40
0.0490196078431373
 40
0.0490196078431373
 40
0.0490196078431373
 40
0.0588235294117647
 40
0.0588235294117647
 40
0.0588235294117647
 40
0.0588235294117647
 40
0.0686274509803922
 40
0.0686274509803922
 40
0.0686274509803922
 40
0.0686274509803922
 40
0.0784313725490196
 40
0.0784313725490196
 40
0.0784313725490196
 40
0.0784313725490196
 40
0.0882352941176471
 40
0.0882352941176471
 40
0.0882352941176471
 40
0.0882352941176471
 40
0.0980392156862745
 40
0.0980392156862745
 40
0.0980392156862745
 40
0.0980392156862745
 40
0.107843137254902
 40
0.107843137254902
 40
0.107843137254902
 40
0.107843137254902
 40
0.1176470588235294
 40
0.1176470588235294
 40
0.1176470588235294
 40
0.1176470588235294
 40
0.1274509803921569
 40
0.1274509803921569
 40
0.1274509803921569
 40
0.1274509803921569
 40
0.1372549019607843
 40
0.1372549019607843
 40
0.1372549019607843
 40
0.1372549019607843
 40
0.1470588235294118
 40
0.1470588235294118
 40
0.1470588235294118
 40
0.1470588235294118
 40
0.1568627450980392
 40
0.1568627450980392
 40
0.1568627450980392
 40
0.1568627450980392
 40
0.1666666666666667
 40
0.1666666666666667
 40
0.1666666666666667
 40
0.1666666666666667
 40
0.1764705882352941
 40
0.1764705882352941
 40
0.1764705882352941
 40
0.1764705882352941
 40
0.1862745098039216
 40
0.1862745098039216
 40
0.1862745098039216
 40
0.1862745098039216
 40
0.196078431372549
 40
0.196078431372549
 40
0.196078431372549
 40
0.196078431372549
 40
0.2058823529411765
 40
0.2058823529411765
 40
0.2058823529411765
 40
0.2058823529411765
 40
0.2156862745098039
 40
0.2156862745098039
 40
0.2156862745098039
 40
0.2156862745098039
 40
0.2254901960784314
 40
0.2254901960784314
 40
0.2254901960784314
 40
0.2254901960784314
 40
0.2352941176470588
 40
0.2352941176470588
 40
0.2352941176470588
 40
0.2352941176470588
 40
0.2450980392156863
 40
0.2450980392156863
 40
0.2450980392156863
 40
0.2450980392156863
 40
0.2549019607843137
 40
0.2549019607843137
 40
0.2549019607843137
 40
0.2549019607843137
 40
0.2647058823529412
 40
0.2647058823529412
 40
0.2647058823529412
 40
0.2647058823529412
 40
0.2745098039215687
 40
0.2745098039215687
 40
0.2745098039215687
 40
0.2745098039215687
 40
0.2843137254901961
 40
0.2843137254901961
 40
0.2843137254901961
 40
0.2843137254901961
 40
0.2941176470588235
 40
0.2941176470588235
 40
0.2941176470588235
 40
0.2941176470588235
 40
0.303921568627451
 40
0.303921568627451
 40
0.303921568627451
 40
0.303921568627451
 40
0.3137254901960784
 40
0.3137254901960784
 40
0.3137254901960784
 40
0.3137254901960784
 40
0.3235294117647059
 40
0.3235294117647059
 40
0.3235294117647059
 40
0.3235294117647059
 40
0.3333333333333333
 40
0.3333333333333333
 40
0.3333333333333333
 40
0.3333333333333333
 40
0.3431372549019608
 40
0.3431372549019608
 40
0.3431372549019608
 40
0.3431372549019608
 40
0.3529411764705883
 40
0.3529411764705883
 40
0.3529411764705883
 40
0.3529411764705883
 40
0.3627450980392157
 40
0.3627450980392157
 40
0.3627450980392157
 40
0.3627450980392157
 40
0.3725490196078431
 40
0.3725490196078431
 40
0.3725490196078431
 40
0.3725490196078431
 40
0.3823529411764706
 40
0.3823529411764706
 40
0.3823529411764706
 40
0.3823529411764706
 40
0.392156862745098
 40
0.392156862745098
 40
0.392156862745098
 40
0.392156862745098
 40
0.4019607843137255
 40
0.4019607843137255
 40
0.4019607843137255
 40
0.4019607843137255
 40
0.4117647058823529
 40
0.4117647058823529
 40
0.4117647058823529
 40
0.4117647058823529
 40
0.4215686274509804
 40
0.4215686274509804
 40
0.4215686274509804
 40
0.4215686274509804
 40
0.4313725490196079
 40
0.4313725490196079
 40
0.4313725490196079
 40
0.4313725490196079
 40
0.4411764705882353
 40
0.4411764705882353
 40
0.4411764705882353
 40
0.4411764705882353
 40
0.4509803921568628
 40
0.4509803921568628
 40
0.4509803921568628
 40
0.4509803921568628
 40
0.4607843137254902
 40
0.4607843137254902
 40
0.4607843137254902
 40
0.4607843137254902
 40
0.4705882352941176
 40
0.4705882352941176
 40
0.4705882352941176
 40
0.4705882352941176
 40
0.4803921568627451
 40
0.4803921568627451
 40
0.4803921568627451
 40
0.4803921568627451
 40
0.4901960784313725
 40
0.4901960784313725
 40
0.4901960784313725
 40
0.4901960784313725
 40
0.5
 40
0.5
 40
0.5
 40
0.5
 40
0.5098039215686274
 40
0.5098039215686274
 40
0.5098039215686274
 40
0.5098039215686274
 40
0.5196078431372549
 40
0.5196078431372549
 40
0.5196078431372549
 40
0.5196078431372549
 40
0.5294117647058824
 40
0.5294117647058824
 40
0.5294117647058824
 40
0.5294117647058824
 40
0.5392156862745098
 40
0.5392156862745098
 40
0.5392156862745098
 40
0.5392156862745098
 40
0.5490196078431373
 40
0.5490196078431373
 40
0.5490196078431373
 40
0.5490196078431373
 40
0.5588235294117647
 40
0.5588235294117647
 40
0.5588235294117647
 40
0.5588235294117647
 40
0.5686274509803921
 40
0.5686274509803921
 40
0.5686274509803921
 40
0.5686274509803921
 40
0.5784313725490197
 40
0.5784313725490197
 40
0.5784313725490197
 40
0.5784313725490197
 40
0.5882352941176471
 40
0.5882352941176471
 40
0.5882352941176471
 40
0.5882352941176471
 40
0.5980392156862745
 40
0.5980392156862745
 40
0.5980392156862745
 40
0.5980392156862745
 40
0.6078431372549019
 40
0.6078431372549019
 40
0.6078431372549019
 40
0.6078431372549019
 40
0.6176470588235294
 40
0.6176470588235294
 40
0.6176470588235294
 40
0.6176470588235294
 40
0.6274509803921569
 40
0.6274509803921569
 40
0.6274509803921569
 40
0.6274509803921569
 40
0.6372549019607843
 40
0.6372549019607843
 40
0.6372549019607843
 40
0.6372549019607843
 40
0.6470588235294118
 40
0.6470588235294118
 40
0.6470588235294118
 40
0.6470588235294118
 40
0.6568627450980392
 40
0.6568627450980392
 40
0.6568627450980392
 40
0.6568627450980392
 40
0.6666666666666666
 40
0.6666666666666666
 40
0.6666666666666666
 40
0.6666666666666666
 40
0.6764705882352942
 40
0.6764705882352942
 40
0.6764705882352942
 40
0.6764705882352942
 40
0.6862745098039216
 40
0.6862745098039216
 40
0.6862745098039216
 40
0.6862745098039216
 40
0.696078431372549
 40
0.696078431372549
 40
0.696078431372549
 40
0.696078431372549
 40
0.7058823529411765
 40
0.7058823529411765
 40
0.7058823529411765
 40
0.7058823529411765
 40
0.7156862745098039
 40
0.7156862745098039
 40
0.7156862745098039
 40
0.7156862745098039
 40
0.7254901960784313
 40
0.7254901960784313
 40
0.7254901960784313
 40
0.7254901960784313
 40
0.7352941176470589
 40
0.7352941176470589
 40
0.7352941176470589
 40
0.7352941176470589
 40
0.7450980392156863
 40
0.7450980392156863
 40
0.7450980392156863
 40
0.7450980392156863
 40
0.7549019607843137
 40
0.7549019607843137
 40
0.7549019607843137
 40
0.7549019607843137
 40
0.7647058823529411
 40
0.7647058823529411
 40
0.7647058823529411
 40
0.7647058823529411
 40
0.7745098039215687
 40
0.7745098039215687
 40
0.7745098039215687
 40
0.7745098039215687
 40
0.7843137254901961
 40
0.7843137254901961
 40
0.7843137254901961
 40
0.7843137254901961
 40
0.7941176470588235
 40
0.7941176470588235
 40
0.7941176470588235
 40
0.7941176470588235
 40
0.803921568627451
 40
0.803921568627451
 40
0.803921568627451
 40
0.803921568627451
 40
0.8137254901960784
 40
0.8137254901960784
 40
0.8137254901960784
 40
0.8137254901960784
 40
0.8235294117647058
 40
0.8235294117647058
 40
0.8235294117647058
 40
0.8235294117647058
 40
0.8333333333333334
 40
0.8333333333333334
 40
0.8333333333333334
 40
0.8333333333333334
 40
0.8431372549019608
 40
0.8431372549019608
 40
0.8431372549019608
 40
0.8431372549019608
 40
0.8529411764705882
 40
0.8529411764705882
 40
0.8529411764705882
 40
0.8529411764705882
 40
0.8627450980392157
 40
0.8627450980392157
 40
0.8627450980392157
 40
0.8627450980392157
 40
0.8725490196078431
 40
0.8725490196078431
 40
0.8725490196078431
 40
0.8725490196078431
 40
0.8823529411764706
 40
0.8823529411764706
 40
0.8823529411764706
 40
0.8823529411764706
 40
0.8921568627450981
 40
0.8921568627450981
 40
0.8921568627450981
 40
0.8921568627450981
 40
0.9019607843137255
 40
0.9019607843137255
 40
0.9019607843137255
 40
0.9019607843137255
 40
0.9117647058823529
 40
0.9117647058823529
 40
0.9117647058823529
 40
0.9117647058823529
 40
0.9215686274509803
 40
0.9215686274509803
 40
0.9215686274509803
 40
0.9215686274509803
 40
0.9313725490196079
 40
0.9313725490196079
 40
0.9313725490196079
 40
0.9313725490196079
 40
0.9411764705882353
 40
0.9411764705882353
 40
0.9411764705882353
 40
0.9411764705882353
 40
0.9509803921568627
 40
0.9509803921568627
 40
0.9509803921568627
 40
0.9509803921568627
 40
0.9607843137254902
 40
0.9607843137254902
 40
0.9607843137254902
 40
0.9607843137254902
 40
0.9705882352941176
 40
0.9705882352941176
 40
0.9705882352941176
 40
0.9705882352941176
 40
0.9803921568627451
 40
0.9803921568627451
 40
0.9803921568627451
 40
0.9803921568627451
 40
1.0
 40
1.0
 40
1.0
 40
1.0
 10
-9.018893700787402
 20
6.742952755905512
 30
0.0
 10
-9.020610236220472
 20
6.741645669291339
 30
0.0
 10
-9.022322834645669
 20
6.740338582677166
 30
0.0
 10
-9.024035433070866
 20
6.739023622047244
 30
0.0
 10
-9.024035433070866
 20
6.739023622047244
 30
0.0
 10
-9.115527559055119
 20
6.668767716535433
 30
0.0
 10
-9.198307086614173
 20
6.587007874015748
 30
0.0
 10
-9.270062992125984
 20
6.504145669291338
 30
0.0
 10
-9.270062992125984
 20
6.504145669291338
 30
0.0
 10
-9.434102362204724
 20
6.314708661417323
 30
0.0
 10
-9.552248031496063
 20
6.088992125984252
 30
0.0
 10
-9.627720472440945
 20
5.8506968503937
 30
0.0
 10
-9.627720472440945
 20
5.8506968503937
 30
0.0
 10
-9.757748031496064
 20
5.440169291338583
 30
0.0
 10
-9.80512598425197
 20
5.01061811023622
 30
0.0
 10
-9.88027559055118
 20
4.588228346456693
 30
0.0
 10
-9.88027559055118
 20
4.588228346456693
 30
0.0
 10
-9.923141732283465
 20
4.347279527559055
 30
0.0
 10
-10.0773031496063
 20
4.144645669291338
 30
0.0
 10
-10.23227559055118
 20
3.962964566929134
 30
0.0
 10
-10.23227559055118
 20
3.962964566929134
 30
0.0
 10
-10.33632677165354
 20
3.840984251968504
 30
0.0
 10
-10.45124803149606
 20
3.729661417322835
 30
0.0
 10
-10.56824803149606
 20
3.620374015748031
 30
0.0
 10
-10.56824803149606
 20
3.620374015748031
 30
0.0
 10
-10.71403543307087
 20
4.036948818897637
 30
0.0
 10
-10.82814173228346
 20
4.464527559055118
 30
0.0
 10
-10.89084645669291
 20
4.893811023622047
 30
0.0
 10
-10.89084645669291
 20
4.893811023622047
 30
0.0
 10
-10.97752755905512
 20
5.487255905511811
 30
0.0
 10
-10.96465748031496
 20
6.096909448818898
 30
0.0
 10
-10.77861023622047
 20
6.669433070866142
 30
0.0
 10
-10.77861023622047
 20
6.669433070866142
 30
0.0
 10
-10.77861023622047
 20
6.669433070866142
 30
0.0
 10
-10.71517716535433
 20
6.360078740157481
 30
0.0
 10
-10.71517716535433
 20
6.360078740157481
 30
0.0
 10
-10.71517716535433
 20
6.360078740157481
 30
0.0
 10
-10.6869094488189
 20
6.222216535433071
 30
0.0
 10
-10.63309842519685
 20
6.065736220472441
 30
0.0
 10
-10.54722834645669
 20
5.952484251968504
 30
0.0
 10
-10.54722834645669
 20
5.952484251968504
 30
0.0
 10
-10.51846850393701
 20
5.914562992125984
 30
0.0
 10
-10.45228346456693
 20
5.840834645669291
 30
0.0
 10
-10.39721653543307
 20
5.847598425196851
 30
0.0
 10
-10.39721653543307
 20
5.847598425196851
 30
0.0
 10
-10.33284645669291
 20
5.8555
 30
0.0
 10
-10.28129527559055
 20
5.970185039370079
 30
0.0
 10
-10.26316141732283
 20
6.021212598425197
 30
0.0
 10
-10.26316141732283
 20
6.021212598425197
 30
0.0
 10
-10.20681102362205
 20
6.179767716535433
 30
0.0
 10
-10.20211417322835
 20
6.374259842519685
 30
0.0
 10
-10.22243307086614
 20
6.539712598425197
 30
0.0
 10
-10.22243307086614
 20
6.539712598425197
 30
0.0
 10
-10.22672834645669
 20
6.574720472440945
 30
0.0
 10
-10.23224803149606
 20
6.609586614173228
 30
0.0
 10
-10.23902755905512
 20
6.644196850393701
 30
0.0
 10
-10.23902755905512
 20
6.644196850393701
 30
0.0
 10
-10.23902755905512
 20
6.644196850393701
 30
0.0
 10
-10.2984094488189
 20
6.947188976377952
 30
0.0
 10
-10.2984094488189
 20
6.947188976377952
 30
0.0
 10
-10.2984094488189
 20
6.947188976377952
 30
0.0
 10
-10.2984094488189
 20
6.947188976377952
 30
0.0
 10
-10.02352362204724
 20
6.806594488188976
 30
0.0
 10
-10.02352362204724
 20
6.806594488188976
 30
0.0
 10
-10.02352362204724
 20
6.806594488188976
 30
0.0
 10
-9.992125984251969
 20
6.790531496062992
 30
0.0
 10
-9.960133858267717
 20
6.775618110236221
 30
0.0
 10
-9.927669291338583
 20
6.761838582677165
 30
0.0
 10
-9.927669291338583
 20
6.761838582677165
 30
0.0
 10
-9.774216535433071
 20
6.696704724409448
 30
0.0
 10
-9.585972440944882
 20
6.647606299212598
 30
0.0
 10
-9.418023622047244
 20
6.658066929133859
 30
0.0
 10
-9.418023622047244
 20
6.658066929133859
 30
0.0
 10
-9.36398031496063
 20
6.661437007874015
 30
0.0
 10
-9.239527559055118
 20
6.679377952755906
 30
0.0
 10
-9.214188976377953
 20
6.739074803149606
 30
0.0
 10
-9.214188976377953
 20
6.739074803149606
 30
0.0
 10
-9.188818897637795
 20
6.798842519685039
 30
0.0
 10
-9.262377952755905
 20
6.900736220472441
 30
0.0
 10
-9.297515748031497
 20
6.941972440944882
 30
0.0
 10
-9.297515748031497
 20
6.941972440944882
 30
0.0
 10
-9.406653543307087
 20
7.070055118110236
 30
0.0
 10
-9.572740157480315
 20
7.171362204724409
 30
0.0
 10
-9.726188976377953
 20
7.236496062992126
 30
0.0
 10
-9.726188976377953
 20
7.236496062992126
 30
0.0
 10
-9.758653543307087
 20
7.250279527559055
 30
0.0
 10
-9.791610236220473
 20
7.262929133858267
 30
0.0
 10
-9.824976377952757
 20
7.274366141732283
 30
0.0
 10
-9.824976377952757
 20
7.274366141732283
 30
0.0
 10
-9.824976377952757
 20
7.274366141732283
 30
0.0
 10
-10.11701968503937
 20
7.374448818897638
 30
0.0
 10
-10.11701968503937
 20
7.374448818897638
 30
0.0
 10
-10.11701968503937
 20
7.374448818897638
 30
0.0
 10
-10.11701968503937
 20
7.374448818897638
 30
0.0
 10
-9.857858267716535
 20
7.542188976377953
 30
0.0
 10
-9.857858267716535
 20
7.542188976377953
 30
0.0
 10
-9.857858267716535
 20
7.542188976377953
 30
0.0
 10
-9.828248031496063
 20
7.561354330708661
 30
0.0
 10
-9.79933464566929
 20
7.581602362204724
 30
0.0
 10
-9.771165354330709
 20
7.602830708661418
 30
0.0
 10
-9.771165354330709
 20
7.602830708661418
 30
0.0
 10
-9.638035433070867
 20
7.703149606299212
 30
0.0
 10
-9.501393700787402
 20
7.841625984251968
 30
0.0
 10
-9.42648031496063
 20
7.992311023622047
 30
0.0
 10
-9.42648031496063
 20
7.992311023622047
 30
0.0
 10
-9.402366141732283
 20
8.040818897637795
 30
0.0
 10
-9.355637795275591
 20
8.157484251968503
 30
0.0
 10
-9.394716535433071
 20
8.209338582677166
 30
0.0
 10
-9.394716535433071
 20
8.209338582677166
 30
0.0
 10
-9.433795275590551
 20
8.2611968503937
 30
0.0
 10
-9.558818897637796
 20
8.248437007874015
 30
0.0
 10
-9.612094488188976
 20
8.238629921259843
 30
0.0
 10
-9.612094488188976
 20
8.238629921259843
 30
0.0
 10
-9.777590551181103
 20
8.208149606299212
 30
0.0
 10
-9.948366141732283
 20
8.114968503937009
 30
0.0
 10
-10.08149606299213
 20
8.014649606299212
 30
0.0
 10
-10.08149606299213
 20
8.014649606299212
 30
0.0
 10
-10.10966141732283
 20
7.993425196850394
 30
0.0
 10
-10.13709448818898
 20
7.971212598425197
 30
0.0
 10
-10.1636811023622
 20
7.948035433070866
 30
0.0
 10
-10.1636811023622
 20
7.948035433070866
 30
0.0
 10
-10.1636811023622
 20
7.948035433070866
 30
0.0
 10
-10.39637795275591
 20
7.745133858267716
 30
0.0
 10
-10.39637795275591
 20
7.745133858267716
 30
0.0
 10
-10.39637795275591
 20
7.745133858267716
 30
0.0
 10
-10.39637795275591
 20
7.745133858267716
 30
0.0
 10
-10.41206299212598
 20
8.053468503937008
 30
0.0
 10
-10.41206299212598
 20
8.053468503937008
 30
0.0
 10
-10.41206299212598
 20
8.053468503937008
 30
0.0
 10
-10.41385826771653
 20
8.088696850393701
 30
0.0
 10
-10.41694094488189
 20
8.123858267716535
 30
0.0
 10
-10.42123622047244
 20
8.158866141732284
 30
0.0
 10
-10.42123622047244
 20
8.158866141732284
 30
0.0
 10
-10.44155118110236
 20
8.324318897637795
 30
0.0
 10
-10.49315354330709
 20
8.511893700787402
 30
0.0
 10
-10.58618897637795
 20
8.652106299212598
 30
0.0
 10
-10.58618897637795
 20
8.652106299212598
 30
0.0
 10
-10.61614173228346
 20
8.697248031496063
 30
0.0
 10
-10.6938188976378
 20
8.796043307086615
 30
0.0
 10
-10.75826377952756
 20
8.788129921259843
 30
0.0
 10
-10.75826377952756
 20
8.788129921259843
 30
0.0
 10
-10.82262992125984
 20
8.780228346456694
 30
0.0
 10
-10.87418503937008
 20
8.66553937007874
 30
0.0
 10
-10.89231889763779
 20
8.61451968503937
 30
0.0
 10
-10.89231889763779
 20
8.61451968503937
 30
0.0
 10
-10.94866535433071
 20
8.45596062992126
 30
0.0
 10
-10.95335826771653
 20
8.261472440944882
 30
0.0
 10
-10.93304724409449
 20
8.096011811023622
 30
0.0
 10
-10.93304724409449
 20
8.096011811023622
 30
0.0
 10
-10.92874803149606
 20
8.061007874015749
 30
0.0
 10
-10.92323228346457
 20
8.026141732283465
 30
0.0
 10
-10.91644881889764
 20
7.991535433070866
 30
0.0
 10
-10.91644881889764
 20
7.991535433070866
 30
0.0
 10
-10.91644881889764
 20
7.991535433070866
 30
0.0
 10
-10.85708661417323
 20
7.688570866141732
 30
0.0
 10
-10.85708661417323
 20
7.688570866141732
 30
0.0
 10
-10.85708661417323
 20
7.688570866141732
 30
0.0
 10
-10.85708661417323
 20
7.688570866141732
 30
0.0
 10
-11.13194881889764
 20
7.829141732283465
 30
0.0
 10
-11.13194881889764
 20
7.829141732283465
 30
0.0
 10
-11.13194881889764
 20
7.829141732283465
 30
0.0
 10
-11.16335039370079
 20
7.845204724409449
 30
0.0
 10
-11.19534645669291
 20
7.860114173228347
 30
0.0
 10
-11.22781496062992
 20
7.87390157480315
 30
0.0
 10
-11.22781496062992
 20
7.87390157480315
 30
0.0
 10
-11.38125984251968
 20
7.939035433070866
 30
0.0
 10
-11.56950393700787
 20
7.988129921259842
 30
0.0
 10
-11.73744881889764
 20
7.977669291338582
 30
0.0
 10
-11.73744881889764
 20
7.977669291338582
 30
0.0
 10
-11.79149606299213
 20
7.974303149606299
 30
0.0
 10
-11.91594881889764
 20
7.956358267716536
 30
0.0
 10
-11.94129133858268
 20
7.896657480314961
 30
0.0
 10
-11.94129133858268
 20
7.896657480314961
 30
0.0
 10
-11.96666141732283
 20
7.836889763779528
 30
0.0
 10
-11.89309842519685
 20
7.734992125984252
 30
0.0
 10
-11.85796456692913
 20
7.693755905511811
 30
0.0
 10
-11.85796456692913
 20
7.693755905511811
 30
0.0
 10
-11.74882677165354
 20
7.565677165354331
 30
0.0
 10
-11.58274015748031
 20
7.464370078740157
 30
0.0
 10
-11.42929527559055
 20
7.399240157480315
 30
0.0
 10
-11.42929527559055
 20
7.399240157480315
 30
0.0
 10
-11.39682677165354
 20
7.38546062992126
 30
0.0
 10
-11.3638779527559
 20
7.372803149606299
 30
0.0
 10
-11.33051181102362
 20
7.361370078740157
 30
0.0
 10
-11.33051181102362
 20
7.361370078740157
 30
0.0
 10
-11.33051181102362
 20
7.361370078740157
 30
0.0
 10
-11.03844094488189
 20
7.261299212598425
 30
0.0
 10
-11.03844094488189
 20
7.261299212598425
 30
0.0
 10
-11.03844094488189
 20
7.261299212598425
 30
0.0
 10
-11.03844094488189
 20
7.261299212598425
 30
0.0
 10
-11.29762992125984
 20
7.093543307086614
 30
0.0
 10
-11.29762992125984
 20
7.093543307086614
 30
0.0
 10
-11.29762992125984
 20
7.093543307086614
 30
0.0
 10
-11.32723228346457
 20
7.074377952755905
 30
0.0
 10
-11.35614566929134
 20
7.054129921259842
 30
0.0
 10
-11.38431102362205
 20
7.032905511811023
 30
0.0
 10
-11.38431102362205
 20
7.032905511811023
 30
0.0
 10
-11.51744488188976
 20
6.932582677165354
 30
0.0
 10
-11.65408661417323
 20
6.794106299212598
 30
0.0
 10
-11.729
 20
6.643425196850393
 30
0.0
 10
-11.729
 20
6.643425196850393
 30
0.0
 10
-11.75311811023622
 20
6.594917322834646
 30
0.0
 10
-11.79984251968504
 20
6.478251968503937
 30
0.0
 10
-11.76076377952756
 20
6.426393700787401
 30
0.0
 10
-11.76076377952756
 20
6.426393700787401
 30
0.0
 10
-11.72494488188976
 20
6.378858267716535
 30
0.0
 10
-11.61492913385827
 20
6.386102362204724
 30
0.0
 10
-11.56503543307087
 20
6.393503937007874
 30
0.0
 10
-11.56503543307087
 20
6.393503937007874
 30
0.0
 10
-11.4133188976378
 20
6.416011811023622
 30
0.0
 10
-11.25414173228346
 20
6.495803149606299
 30
0.0
 10
-11.12883070866142
 20
6.581657480314961
 30
0.0
 10
-11.12883070866142
 20
6.581657480314961
 30
0.0
 10
-11.12883070866142
 20
6.581657480314961
 30
0.0
 10
-10.93042125984252
 20
6.719984251968504
 30
0.0
 10
-10.93042125984252
 20
6.719984251968504
 30
0.0
 10
-10.93042125984252
 20
6.719984251968504
 30
0.0
 10
-11.12445669291339
 20
6.123562992125985
 30
0.0
 10
-11.13950787401575
 20
5.489181102362204
 30
0.0
 10
-11.04916535433071
 20
4.870685039370079
 30
0.0
 10
-11.04916535433071
 20
4.870685039370079
 30
0.0
 10
-10.98164566929134
 20
4.408417322834645
 30
0.0
 10
-10.85620866141732
 20
3.948622047244094
 30
0.0
 10
-10.69595669291339
 20
3.501846456692913
 30
0.0
 10
-10.69595669291339
 20
3.501846456692913
 30
0.0
 10
-10.76392125984252
 20
3.438748031496063
 30
0.0
 10
-10.83151181102362
 20
3.375283464566929
 30
0.0
 10
-10.89701968503937
 20
3.309783464566929
 30
0.0
 10
-10.89701968503937
 20
3.309783464566929
 30
0.0
 10
-10.96615354330709
 20
3.240657480314961
 30
0.0
 10
-11.04282283464567
 20
3.16955905511811
 30
0.0
 10
-11.0546811023622
 20
3.0665
 30
0.0
 10
-11.0546811023622
 20
3.0665
 30
0.0
 10
-11.0546811023622
 20
3.0665
 30
0.0
 10
-11.05555511811024
 20
3.058917322834646
 30
0.0
 10
-11.05555511811024
 20
3.058917322834646
 30
0.0
 10
-11.05555511811024
 20
3.058917322834646
 30
0.0
 10
-11.05555511811024
 20
3.058917322834646
 30
0.0
 10
-11.04846850393701
 20
3.056074803149606
 30
0.0
 10
-11.04846850393701
 20
3.056074803149606
 30
0.0
 10
-11.04846850393701
 20
3.056074803149606
 30
0.0
 10
-10.88322834645669
 20
2.989846456692913
 30
0.0
 10
-10.69674015748032
 20
3.019047244094488
 30
0.0
 10
-10.53408661417323
 20
3.081913385826772
 30
0.0
 10
-10.53408661417323
 20
3.081913385826772
 30
0.0
 10
-10.44982283464567
 20
2.877082677165354
 30
0.0
 10
-10.35953937007874
 20
2.675826771653543
 30
0.0
 10
-10.26558267716536
 20
2.479248031496063
 30
0.0
 10
-10.26558267716536
 20
2.479248031496063
 30
0.0
 10
-10.26558267716536
 20
2.479248031496063
 30
0.0
 10
-10.23108267716535
 20
2.407070866141732
 30
0.0
 10
-10.23108267716535
 20
2.407070866141732
 30
0.0
 10
-10.23108267716535
 20
2.407070866141732
 30
0.0
 10
-10.23108267716535
 20
2.407070866141732
 30
0.0
 10
-10.08672440944882
 20
2.476066929133858
 30
0.0
 10
-10.08672440944882
 20
2.476066929133858
 30
0.0
 10
-10.08672440944882
 20
2.476066929133858
 30
0.0
 10
-10.08672440944882
 20
2.476066929133858
 30
0.0
 10
-10.12122047244094
 20
2.548248031496063
 30
0.0
 10
-10.12122047244094
 20
2.548248031496063
 30
0.0
 10
-10.12122047244094
 20
2.548248031496063
 30
0.0
 10
-10.21574803149606
 20
2.746023622047244
 30
0.0
 10
-10.3066062992126
 20
2.948751968503937
 30
0.0
 10
-10.39123228346457
 20
3.155208661417323
 30
0.0
 10
-10.39123228346457
 20
3.155208661417323
 30
0.0
 10
-10.27585039370079
 20
3.233913385826772
 30
0.0
 10
-10.18588188976378
 20
3.345224409448819
 30
0.0
 10
-10.08206692913386
 20
3.439377952755906
 30
0.0
 10
-10.08206692913386
 20
3.439377952755906
 30
0.0
 10
-10.07033858267716
 20
3.155511811023622
 30
0.0
 10
-10.08135039370079
 20
2.86703937007874
 30
0.0
 10
-10.00825590551181
 20
2.590003937007874
 30
0.0
 10
-10.00825590551181
 20
2.590003937007874
 30
0.0
 10
-9.906866141732284
 20
2.205720472440945
 30
0.0
 10
-9.700559055118111
 20
1.85057874015748
 30
0.0
 10
-9.421318897637795
 20
1.568236220472441
 30
0.0
 10
-9.421318897637795
 20
1.568236220472441
 30
0.0
 10
-9.537350393700788
 20
1.495740157480315
 30
0.0
 10
-9.639185039370078
 20
1.387476377952756
 30
0.0
 10
-9.687318897637795
 20
1.258385826771653
 30
0.0
 10
-9.687318897637795
 20
1.258385826771653
 30
0.0
 10
-9.708818897637796
 20
1.200724409448819
 30
0.0
 10
-9.719047244094488
 20
1.140208661417323
 30
0.0
 10
-9.716255905511812
 20
1.078665354330709
 30
0.0
 10
-9.716255905511812
 20
1.078665354330709
 30
0.0
 10
-9.716255905511812
 20
1.078665354330709
 30
0.0
 10
-9.716133858267716
 20
1.075948818897638
 30
0.0
 10
-9.716133858267716
 20
1.075948818897638
 30
0.0
 10
-9.716133858267716
 20
1.075948818897638
 30
0.0
 10
-9.716133858267716
 20
1.075948818897638
 30
0.0
 10
-9.714653543307087
 20
1.073669291338583
 30
0.0
 10
-9.714653543307087
 20
1.073669291338583
 30
0.0
 10
-9.714653543307087
 20
1.073669291338583
 30
0.0
 10
-9.676413385826772
 20
1.014795275590551
 30
0.0
 10
-9.605318897637796
 20
0.9976653543307087
 30
0.0
 10
-9.541751968503936
 20
0.9811141732283465
 30
0.0
 10
-9.541751968503936
 20
0.9811141732283465
 30
0.0
 10
-9.417330708661417
 20
0.9487165354330709
 30
0.0
 10
-9.288377952755905
 20
0.9267952755905512
 30
0.0
 10
-9.159547244094489
 20
0.9267952755905512
 30
0.0
 10
-9.159547244094489
 20
0.9267952755905512
 30
0.0
 10
-9.159547244094489
 20
0.9267952755905512
 30
0.0
 10
-8.798110236220472
 20
0.9267952755905512
 30
0.0
 10
-8.798110236220472
 20
0.9267952755905512
 30
0.0
 10
-8.798110236220472
 20
0.9267952755905512
 30
0.0
 10
-8.649933070866142
 20
0.9267952755905512
 30
0.0
 10
-8.499220472440944
 20
0.9513307086614173
 30
0.0
 10
-8.361610236220473
 20
1.007452755905512
 30
0.0
 10
-8.361610236220473
 20
1.007452755905512
 30
0.0
 10
-8.304437007874016
 20
1.030767716535433
 30
0.0
 10
-8.301338582677165
 20
1.111889763779528
 30
0.0
 10
-8.244653543307086
 20
1.116673228346457
 30
0.0
 10
-8.244653543307086
 20
1.116673228346457
 30
0.0
 10
-8.231858267716536
 20
1.077181102362205
 30
0.0
 10
-8.219771653543306
 20
1.03644094488189
 30
0.0
 10
-8.176094488188976
 20
1.020523622047244
 30
0.0
 10
-8.176094488188976
 20
1.020523622047244
 30
0.0
 10
-8.008748031496063
 20
0.9595354330708662
 30
0.0
 10
-7.829334645669292
 20
0.9267952755905512
 30
0.0
 10
-7.651145669291338
 20
0.9267952755905512
 30
0.0
 10
-7.651145669291338
 20
0.9267952755905512
 30
0.0
 10
-7.651145669291338
 20
0.9267952755905512
 30
0.0
 10
-7.289232283464567
 20
0.9267952755905512
 30
0.0
 10
-7.289232283464567
 20
0.9267952755905512
 30
0.0
 10
-7.289232283464567
 20
0.9267952755905512
 30
0.0
 10
-7.142811023622047
 20
0.9267952755905512
 30
0.0
 10
-6.990141732283464
 20
0.9511968503937008
 30
0.0
 10
-6.85992125984252
 20
1.021350393700788
 30
0.0
 10
-6.85992125984252
 20
1.021350393700788
 30
0.0
 10
-6.79290157480315
 20
1.057456692913386
 30
0.0
 10
-6.814893700787402
 20
1.140586614173228
 30
0.0
 10
-6.825051181102363
 20
1.200311023622047
 30
0.0
 10
-6.825051181102363
 20
1.200311023622047
 30
0.0
 10
-6.861933070866142
 20
1.417137795275591
 30
0.0
 10
-7.057909448818898
 20
1.56403937007874
 30
0.0
 10
-7.253952755905511
 20
1.635066929133858
 30
0.0
 10
-7.253952755905511
 20
1.635066929133858
 30
0.0
 10
-7.106366141732283
 20
1.815196850393701
 30
0.0
 10
-6.977472440944882
 20
2.011279527559055
 30
0.0
 10
-6.873948818897638
 20
2.219948818897638
 30
0.0
 10
-6.873948818897638
 20
2.219948818897638
 30
0.0
 10
-6.695712598425197
 20
2.579216535433071
 30
0.0
 10
-6.706476377952756
 20
2.994515748031496
 30
0.0
 10
-6.703948818897638
 20
3.385452755905512
 30
0.0
 10
-6.703948818897638
 20
3.385452755905512
 30
0.0
 10
-6.703763779527559
 20
3.414122047244094
 30
0.0
 10
-6.691318897637795
 20
3.441755905511811
 30
0.0
 10
-6.68098031496063
 20
3.468625984251969
 30
0.0
 10
-6.68098031496063
 20
3.468625984251969
 30
0.0
 10
-6.506716535433071
 20
3.317192913385827
 30
0.0
 10
-6.374248031496063
 20
3.12142125984252
 30
0.0
 10
-6.172834645669291
 20
3.001090551181103
 30
0.0
 10
-6.172834645669291
 20
3.001090551181103
 30
0.0
 10
-5.988066929133859
 20
2.890700787401575
 30
0.0
 10
-5.734161417322834
 20
2.85061811023622
 30
0.0
 10
-5.543681102362204
 20
2.969759842519685
 30
0.0
 10
-5.543681102362204
 20
2.969759842519685
 30
0.0
 10
-5.543681102362204
 20
2.969759842519685
 30
0.0
 10
-5.538984251968504
 20
2.972696850393701
 30
0.0
 10
-5.538984251968504
 20
2.972696850393701
 30
0.0
 10
-5.538984251968504
 20
2.972696850393701
 30
0.0
 10
-5.538984251968504
 20
2.972696850393701
 30
0.0
 10
-5.538984251968504
 20
3.058232283464567
 30
0.0
 10
-5.538984251968504
 20
3.058232283464567
 30
0.0
 10
-5.538984251968504
 20
3.058232283464567
 30
0.0
 10
-5.538984251968504
 20
3.058232283464567
 30
0.0
 10
-5.540358267716536
 20
3.060574803149606
 30
0.0
 10
-5.540358267716536
 20
3.060574803149606
 30
0.0
 10
-5.540358267716536
 20
3.060574803149606
 30
0.0
 10
-5.621370078740157
 20
3.198661417322834
 30
0.0
 10
-5.742590551181102
 20
3.304803149606299
 30
0.0
 10
-5.860818897637795
 20
3.410027559055118
 30
0.0
 10
-5.860818897637795
 20
3.410027559055118
 30
0.0
 10
-6.134307086614173
 20
3.653433070866142
 30
0.0
 10
-6.422858267716536
 20
3.883468503937008
 30
0.0
 10
-6.661948818897637
 20
4.162425196850394
 30
0.0
 10
-6.661948818897637
 20
4.162425196850394
 30
0.0
 10
-6.778925196850394
 20
4.29890157480315
 30
0.0
 10
-6.889086614173229
 20
4.448129921259842
 30
0.0
 10
-6.942956692913386
 20
4.621838582677166
 30
0.0
 10
-6.942956692913386
 20
4.621838582677166
 30
0.0
 10
-7.060389763779527
 20
5.000503937007874
 30
0.0
 10
-7.104133858267716
 20
5.39634251968504
 30
0.0
 10
-7.187531496062992
 20
5.782826771653543
 30
0.0
 10
-7.187531496062992
 20
5.782826771653543
 30
0.0
 10
-7.243814960629921
 20
6.043653543307086
 30
0.0
 10
-7.346665354330709
 20
6.296948818897638
 30
0.0
 10
-7.520149606299213
 20
6.502370078740157
 30
0.0
 10
-7.520149606299213
 20
6.502370078740157
 30
0.0
 10
-7.719688976377952
 20
6.738637795275591
 30
0.0
 10
-8.010011811023622
 20
6.946795275590551
 30
0.0
 10
-8.330590551181102
 20
6.946795275590551
 30
0.0
 10
-8.330590551181102
 20
6.946795275590551
 30
0.0
 10
-8.330590551181102
 20
6.946795275590551
 30
0.0
 10
-8.486110236220473
 20
6.946795275590551
 30
0.0
 10
-8.486110236220473
 20
6.946795275590551
 30
0.0
 10
-8.486110236220473
 20
6.946795275590551
 30
0.0
 10
-8.678633858267716
 20
6.946795275590551
 30
0.0
 10
-8.857799212598426
 20
6.86403937007874
 30
0.0
 10
-9.012649606299213
 20
6.747673228346457
 30
0.0
 10
-9.012649606299213
 20
6.747673228346457
 30
0.0
 10
-9.014736220472441
 20
6.746106299212599
 30
0.0
 10
-9.016818897637796
 20
6.744531496062992
 30
0.0
 10
-9.018893700787402
 20
6.742952755905512
 30
0.0
  0
SPLINE
  5
42
330
1F
100
AcDbEntity
  8
Layer 1
 62
   250
100
AcDbSpline
210
0.0
220
0.0
230
1.0
 70
    11
 71
     3
 72
    40
 73
    36
 74
     0
 42
0.0000000001
 43
0.0000000001
 40
0.0
 40
0.0
 40
0.0
 40
0.0
 40
0.1
 40
0.1
 40
0.1
 40
0.1
 40
0.2
 40
0.2
 40
0.2
 40
0.2
 40
0.3
 40
0.3
 40
0.3
 40
0.3
 40
0.4
 40
0.4
 40
0.4
 40
0.4
 40
0.5
 40
0.5
 40
0.5
 40
0.5
 40
0.6
 40
0.6
 40
0.6
 40
0.6
 40
0.7
 40
0.7
 40
0.7
 40
0.7
 40
0.8
 40
0.8
 40
0.8
 40
0.8
 40
1.0
 40
1.0
 40
1.0
 40
1.0
 10
-9.461791338582676
 20
5.794358267716535
 30
0.0
 10
-9.431074803149606
 20
5.921401574803149
 30
0.0
 10
-9.403003937007874
 20
6.049
 30
0.0
 10
-9.344181102362205
 20
6.167015748031496
 30
0.0
 10
-9.344181102362205
 20
6.167015748031496
 30
0.0
 10
-9.22167716535433
 20
6.412803149606299
 30
0.0
 10
-9.015610236220473
 20
6.625232283464567
 30
0.0
 10
-8.752153543307086
 20
6.715622047244095
 30
0.0
 10
-8.752153543307086
 20
6.715622047244095
 30
0.0
 10
-8.463850393700788
 20
6.814535433070867
 30
0.0
 10
-8.126929133858267
 20
6.780748031496063
 30
0.0
 10
-7.875996062992126
 20
6.602712598425197
 30
0.0
 10
-7.875996062992126
 20
6.602712598425197
 30
0.0
 10
-7.610031496062992
 20
6.414007874015748
 30
0.0
 10
-7.446326771653544
 20
6.109956692913386
 30
0.0
 10
-7.38698031496063
 20
5.793023622047244
 30
0.0
 10
-7.38698031496063
 20
5.793023622047244
 30
0.0
 10
-7.383106299212598
 20
5.877102362204725
 30
0.0
 10
-7.391074803149606
 20
5.961527559055118
 30
0.0
 10
-7.409799212598426
 20
6.043744094488189
 30
0.0
 10
-7.409799212598426
 20
6.043744094488189
 30
0.0
 10
-7.514208661417323
 20
6.502173228346456
 30
0.0
 10
-7.949070866141732
 20
6.888787401574803
 30
0.0
 10
-8.428838582677166
 20
6.881437007874016
 30
0.0
 10
-8.428838582677166
 20
6.881437007874016
 30
0.0
 10
-8.49748031496063
 20
6.880385826771653
 30
0.0
 10
-8.565791338582677
 20
6.871389763779527
 30
0.0
 10
-8.6325
 20
6.855240157480315
 30
0.0
 10
-8.6325
 20
6.855240157480315
 30
0.0
 10
-8.83005905511811
 20
6.807405511811024
 30
0.0
 10
-9.01090157480315
 20
6.697775590551181
 30
0.0
 10
-9.152417322834646
 20
6.552830708661418
 30
0.0
 10
-9.152417322834646
 20
6.552830708661418
 30
0.0
 10
-9.349275590551182
 20
6.351208661417322
 30
0.0
 10
-9.473692913385827
 20
6.077405511811024
 30
0.0
 10
-9.461791338582676
 20
5.794358267716535
 30
0.0
  0
SPLINE
  5
43
330
1F
100
AcDbEntity
  8
Layer 1
 62
   250
100
AcDbSpline
210
0.0
220
0.0
230
1.0
 70
    11
 71
     3
 72
    20
 73
    16
 74
     0
 42
0.0000000001
 43
0.0000000001
 40
0.0
 40
0.0
 40
0.0
 40
0.0
 40
0.2
 40
0.2
 40
0.2
 40
0.2
 40
0.4
 40
0.4
 40
0.4
 40
0.4
 40
0.6
 40
0.6
 40
0.6
 40
0.6
 40
1.0
 40
1.0
 40
1.0
 40
1.0
 10
-8.24098031496063
 20
4.964405511811024
 30
0.0
 10
-8.29809842519685
 20
4.988110236220472
 30
0.0
 10
-8.351535433070866
 20
5.0205
 30
0.0
 10
-8.375413385826771
 20
5.081051181102362
 30
0.0
 10
-8.375413385826771
 20
5.081051181102362
 30
0.0
 10
-8.384027559055118
 20
5.102897637795276
 30
0.0
 10
-8.38867716535433
 20
5.125425196850394
 30
0.0
 10
-8.3903031496063
 20
5.148228346456693
 30
0.0
 10
-8.3903031496063
 20
5.148228346456693
 30
0.0
 10
-8.39125590551181
 20
5.119897637795275
 30
0.0
 10
-8.387421259842519
 20
5.091913385826771
 30
0.0
 10
-8.375007874015749
 20
5.064622047244095
 30
0.0
 10
-8.375007874015749
 20
5.064622047244095
 30
0.0
 10
-8.34990157480315
 20
5.00942125984252
 30
0.0
 10
-8.297972440944882
 20
4.976665354330708
 30
0.0
 10
-8.24098031496063
 20
4.964405511811024
 30
0.0
  0
SPLINE
  5
44
330
1F
100
AcDbEntity
  8
Layer 1
 62
   250
100
AcDbSpline
210
0.0
220
0.0
230
1.0
 70
    11
 71
     3
 72
   208
 73
   204
 74
     0
 42
0.0000000001
 43
0.0000000001
 40
0.0
 40
0.0
 40
0.0
 40
0.0
 40
0.0192307692307692
 40
0.0192307692307692
 40
0.0192307692307692
 40
0.0192307692307692
 40
0.0384615384615385
 40
0.0384615384615385
 40
0.0384615384615385
 40
0.0384615384615385
 40
0.0576923076923077
 40
0.0576923076923077
 40
0.0576923076923077
 40
0.0576923076923077
 40
0.0769230769230769
 40
0.0769230769230769
 40
0.0769230769230769
 40
0.0769230769230769
 40
0.0961538461538462
 40
0.0961538461538462
 40
0.0961538461538462
 40
0.0961538461538462
 40
0.1153846153846154
 40
0.1153846153846154
 40
0.1153846153846154
 40
0.1153846153846154
 40
0.1346153846153846
 40
0.1346153846153846
 40
0.1346153846153846
 40
0.1346153846153846
 40
0.1538461538461539
 40
0.1538461538461539
 40
0.1538461538461539
 40
0.1538461538461539
 40
0.1730769230769231
 40
0.1730769230769231
 40
0.1730769230769231
 40
0.1730769230769231
 40
0.1923076923076923
 40
0.1923076923076923
 40
0.1923076923076923
 40
0.1923076923076923
 40
0.2115384615384615
 40
0.2115384615384615
 40
0.2115384615384615
 40
0.2115384615384615
 40
0.2307692307692308
 40
0.2307692307692308
 40
0.2307692307692308
 40
0.2307692307692308
 40
0.25
 40
0.25
 40
0.25
 40
0.25
 40
0.2692307692307692
 40
0.2692307692307692
 40
0.2692307692307692
 40
0.2692307692307692
 40
0.2884615384615384
 40
0.2884615384615384
 40
0.2884615384615384
 40
0.2884615384615384
 40
0.3076923076923077
 40
0.3076923076923077
 40
0.3076923076923077
 40
0.3076923076923077
 40
0.3269230769230769
 40
0.3269230769230769
 40
0.3269230769230769
 40
0.3269230769230769
 40
0.3461538461538461
 40
0.3461538461538461
 40
0.3461538461538461
 40
0.3461538461538461
 40
0.3653846153846154
 40
0.3653846153846154
 40
0.3653846153846154
 40
0.3653846153846154
 40
0.3846153846153846
 40
0.3846153846153846
 40
0.3846153846153846
 40
0.3846153846153846
 40
0.4038461538461539
 40
0.4038461538461539
 40
0.4038461538461539
 40
0.4038461538461539
 40
0.4230769230769231
 40
0.4230769230769231
 40
0.4230769230769231
 40
0.4230769230769231
 40
0.4423076923076923
 40
0.4423076923076923
 40
0.4423076923076923
 40
0.4423076923076923
 40
0.4615384615384616
 40
0.4615384615384616
 40
0.4615384615384616
 40
0.4615384615384616
 40
0.4807692307692308
 40
0.4807692307692308
 40
0.4807692307692308
 40
0.4807692307692308
 40
0.5
 40
0.5
 40
0.5
 40
0.5
 40
0.5192307692307693
 40
0.5192307692307693
 40
0.5192307692307693
 40
0.5192307692307693
 40
0.5384615384615384
 40
0.5384615384615384
 40
0.5384615384615384
 40
0.5384615384615384
 40
0.5576923076923077
 40
0.5576923076923077
 40
0.5576923076923077
 40
0.5576923076923077
 40
0.5769230769230769
 40
0.5769230769230769
 40
0.5769230769230769
 40
0.5769230769230769
 40
0.5961538461538461
 40
0.5961538461538461
 40
0.5961538461538461
 40
0.5961538461538461
 40
0.6153846153846154
 40
0.6153846153846154
 40
0.6153846153846154
 40
0.6153846153846154
 40
0.6346153846153846
 40
0.6346153846153846
 40
0.6346153846153846
 40
0.6346153846153846
 40
0.6538461538461539
 40
0.6538461538461539
 40
0.6538461538461539
 40
0.6538461538461539
 40
0.6730769230769231
 40
0.6730769230769231
 40
0.6730769230769231
 40
0.6730769230769231
 40
0.6923076923076923
 40
0.6923076923076923
 40
0.6923076923076923
 40
0.6923076923076923
 40
0.7115384615384616
 40
0.7115384615384616
 40
0.7115384615384616
 40
0.7115384615384616
 40
0.7307692307692307
 40
0.7307692307692307
 40
0.7307692307692307
 40
0.7307692307692307
 40
0.75
 40
0.75
 40
0.75
 40
0.75
 40
0.7692307692307693
 40
0.7692307692307693
 40
0.7692307692307693
 40
0.7692307692307693
 40
0.7884615384615384
 40
0.7884615384615384
 40
0.7884615384615384
 40
0.7884615384615384
 40
0.8076923076923077
 40
0.8076923076923077
 40
0.8076923076923077
 40
0.8076923076923077
 40
0.8269230769230769
 40
0.8269230769230769
 40
0.8269230769230769
 40
0.8269230769230769
 40
0.8461538461538461
 40
0.8461538461538461
 40
0.8461538461538461
 40
0.8461538461538461
 40
0.8653846153846154
 40
0.8653846153846154
 40
0.8653846153846154
 40
0.8653846153846154
 40
0.8846153846153846
 40
0.8846153846153846
 40
0.8846153846153846
 40
0.8846153846153846
 40
0.9038461538461539
 40
0.9038461538461539
 40
0.9038461538461539
 40
0.9038461538461539
 40
0.9230769230769231
 40
0.9230769230769231
 40
0.9230769230769231
 40
0.9230769230769231
 40
0.9423076923076923
 40
0.9423076923076923
 40
0.9423076923076923
 40
0.9423076923076923
 40
0.9615384615384616
 40
0.9615384615384616
 40
0.9615384615384616
 40
0.9615384615384616
 40
1.0
 40
1.0
 40
1.0
 40
1.0
 10
-8.355275590551182
 20
5.332633858267717
 30
0.0
 10
-8.354090551181102
 20
5.335838582677165
 30
0.0
 10
-8.352897637795275
 20
5.339023622047244
 30
0.0
 10
-8.3516968503937
 20
5.342185039370078
 30
0.0
 10
-8.3516968503937
 20
5.342185039370078
 30
0.0
 10
-8.3516968503937
 20
5.342185039370078
 30
0.0
 10
-8.350767716535433
 20
5.344633858267716
 30
0.0
 10
-8.350767716535433
 20
5.344633858267716
 30
0.0
 10
-8.350767716535433
 20
5.344633858267716
 30
0.0
 10
-8.350767716535433
 20
5.344633858267716
 30
0.0
 10
-8.348759842519685
 20
5.346311023622047
 30
0.0
 10
-8.348759842519685
 20
5.346311023622047
 30
0.0
 10
-8.348759842519685
 20
5.346311023622047
 30
0.0
 10
-8.321102362204725
 20
5.36942125984252
 30
0.0
 10
-8.288291338582678
 20
5.384066929133859
 30
0.0
 10
-8.252771653543308
 20
5.389885826771653
 30
0.0
 10
-8.252771653543308
 20
5.389885826771653
 30
0.0
 10
-8.152393700787401
 20
5.406338582677165
 30
0.0
 10
-8.043948818897638
 20
5.35103937007874
 30
0.0
 10
-7.998370078740157
 20
5.26007874015748
 30
0.0
 10
-7.998370078740157
 20
5.26007874015748
 30
0.0
 10
-7.976767716535433
 20
5.216964566929134
 30
0.0
 10
-7.969885826771653
 20
5.168303149606299
 30
0.0
 10
-7.977062992125984
 20
5.120736220472441
 30
0.0
 10
-7.977062992125984
 20
5.120736220472441
 30
0.0
 10
-7.991881889763779
 20
5.022511811023622
 30
0.0
 10
-8.063988188976378
 20
4.936771653543307
 30
0.0
 10
-8.161354330708662
 20
4.912303149606299
 30
0.0
 10
-8.161354330708662
 20
4.912303149606299
 30
0.0
 10
-8.240492125984252
 20
4.892413385826772
 30
0.0
 10
-8.31559842519685
 20
4.92536220472441
 30
0.0
 10
-8.378271653543306
 20
4.971594488188976
 30
0.0
 10
-8.378271653543306
 20
4.971594488188976
 30
0.0
 10
-8.364897637795275
 20
4.909437007874016
 30
0.0
 10
-8.356586614173228
 20
4.844007874015748
 30
0.0
 10
-8.325484251968504
 20
4.788342519685039
 30
0.0
 10
-8.325484251968504
 20
4.788342519685039
 30
0.0
 10
-8.242204724409449
 20
4.692720472440945
 30
0.0
 10
-8.123996062992125
 20
4.630625984251968
 30
0.0
 10
-7.999779527559055
 20
4.608318897637795
 30
0.0
 10
-7.999779527559055
 20
4.608318897637795
 30
0.0
 10
-7.999779527559055
 20
4.608318897637795
 30
0.0
 10
-7.993346456692914
 20
4.607161417322835
 30
0.0
 10
-7.993346456692914
 20
4.607161417322835
 30
0.0
 10
-7.993346456692914
 20
4.607161417322835
 30
0.0
 10
-7.993346456692914
 20
4.607161417322835
 30
0.0
 10
-7.991822834645669
 20
4.600807086614173
 30
0.0
 10
-7.991822834645669
 20
4.600807086614173
 30
0.0
 10
-7.991822834645669
 20
4.600807086614173
 30
0.0
 10
-7.972094488188977
 20
4.518433070866141
 30
0.0
 10
-8.001425196850393
 20
4.436692913385826
 30
0.0
 10
-8.030862204724409
 20
4.360625984251969
 30
0.0
 10
-8.030862204724409
 20
4.360625984251969
 30
0.0
 10
-8.08248031496063
 20
4.227255905511811
 30
0.0
 10
-8.153248031496062
 20
4.099763779527559
 30
0.0
 10
-8.247192913385827
 20
3.991444881889764
 30
0.0
 10
-8.247192913385827
 20
3.991444881889764
 30
0.0
 10
-8.284023622047243
 20
3.94898031496063
 30
0.0
 10
-8.326464566929134
 20
3.907791338582677
 30
0.0
 10
-8.380948818897638
 20
3.889629921259842
 30
0.0
 10
-8.380948818897638
 20
3.889629921259842
 30
0.0
 10
-8.380948818897638
 20
3.889629921259842
 30
0.0
 10
-8.383464566929133
 20
3.888791338582677
 30
0.0
 10
-8.383464566929133
 20
3.888791338582677
 30
0.0
 10
-8.383464566929133
 20
3.888791338582677
 30
0.0
 10
-8.383464566929133
 20
3.888791338582677
 30
0.0
 10
-8.386062992125984
 20
3.889311023622047
 30
0.0
 10
-8.386062992125984
 20
3.889311023622047
 30
0.0
 10
-8.386062992125984
 20
3.889311023622047
 30
0.0
 10
-8.484830708661418
 20
3.908968503937008
 30
0.0
 10
-8.566452755905512
 20
3.973724409448819
 30
0.0
 10
-8.629409448818897
 20
4.049692913385827
 30
0.0
 10
-8.629409448818897
 20
4.049692913385827
 30
0.0
 10
-8.717740157480314
 20
4.156287401574803
 30
0.0
 10
-8.807566929133857
 20
4.27448031496063
 30
0.0
 10
-8.822929133858267
 20
4.416681102362205
 30
0.0
 10
-8.822929133858267
 20
4.416681102362205
 30
0.0
 10
-8.822929133858267
 20
4.416681102362205
 30
0.0
 10
-8.823606299212598
 20
4.42294094488189
 30
0.0
 10
-8.823606299212598
 20
4.42294094488189
 30
0.0
 10
-8.823606299212598
 20
4.42294094488189
 30
0.0
 10
-8.823606299212598
 20
4.42294094488189
 30
0.0
 10
-8.81825590551181
 20
4.426255905511811
 30
0.0
 10
-8.81825590551181
 20
4.426255905511811
 30
0.0
 10
-8.81825590551181
 20
4.426255905511811
 30
0.0
 10
-8.733653543307087
 20
4.478665354330708
 30
0.0
 10
-8.644161417322834
 20
4.53607874015748
 30
0.0
 10
-8.595724409448819
 20
4.626251968503937
 30
0.0
 10
-8.595724409448819
 20
4.626251968503937
 30
0.0
 10
-8.547885826771653
 20
4.715299212598425
 30
0.0
 10
-8.506299212598424
 20
4.810212598425196
 30
0.0
 10
-8.491149606299212
 20
4.910677165354331
 30
0.0
 10
-8.491149606299212
 20
4.910677165354331
 30
0.0
 10
-8.560129921259843
 20
4.831748031496063
 30
0.0
 10
-8.674523622047245
 20
4.780685039370079
 30
0.0
 10
-8.769153543307086
 20
4.848842519685039
 30
0.0
 10
-8.769153543307086
 20
4.848842519685039
 30
0.0
 10
-8.80011811023622
 20
4.871145669291338
 30
0.0
 10
-8.82579527559055
 20
4.899279527559055
 30
0.0
 10
-8.845641732283465
 20
4.93184251968504
 30
0.0
 10
-8.845641732283465
 20
4.93184251968504
 30
0.0
 10
-8.894712598425198
 20
5.012362204724409
 30
0.0
 10
-8.904712598425197
 20
5.113444881889764
 30
0.0
 10
-8.885448818897638
 20
5.204586614173229
 30
0.0
 10
-8.885448818897638
 20
5.204586614173229
 30
0.0
 10
-8.867031496062992
 20
5.291732283464567
 30
0.0
 10
-8.820795275590552
 20
5.375279527559055
 30
0.0
 10
-8.748374015748032
 20
5.428763779527559
 30
0.0
 10
-8.748374015748032
 20
5.428763779527559
 30
0.0
 10
-8.67814566929134
 20
5.480633858267717
 30
0.0
 10
-8.590110236220472
 20
5.460110236220473
 30
0.0
 10
-8.513413385826771
 20
5.43711811023622
 30
0.0
 10
-8.513413385826771
 20
5.43711811023622
 30
0.0
 10
-8.54155905511811
 20
5.489594488188977
 30
0.0
 10
-8.563633858267716
 20
5.545429133858268
 30
0.0
 10
-8.59882283464567
 20
5.593622047244095
 30
0.0
 10
-8.59882283464567
 20
5.593622047244095
 30
0.0
 10
-8.672681102362205
 20
5.694775590551181
 30
0.0
 10
-8.78023622047244
 20
5.784503937007874
 30
0.0
 10
-8.910472440944883
 20
5.791370078740157
 30
0.0
 10
-8.910472440944883
 20
5.791370078740157
 30
0.0
 10
-8.952996062992126
 20
5.793610236220473
 30
0.0
 10
-8.99540157480315
 20
5.787330708661417
 30
0.0
 10
-9.035755905511811
 20
5.773889763779527
 30
0.0
 10
-9.035755905511811
 20
5.773889763779527
 30
0.0
 10
-9.125267716535433
 20
5.74407874015748
 30
0.0
 10
-9.203472440944882
 20
5.68
 30
0.0
 10
-9.257712598425197
 20
5.603570866141732
 30
0.0
 10
-9.257712598425197
 20
5.603570866141732
 30
0.0
 10
-9.29221653543307
 20
5.554944881889764
 30
0.0
 10
-9.320948818897637
 20
5.502452755905511
 30
0.0
 10
-9.343917322834645
 20
5.447444881889764
 30
0.0
 10
-9.343917322834645
 20
5.447444881889764
 30
0.0
 10
-9.414929133858267
 20
5.277377952755906
 30
0.0
 10
-9.430720472440944
 20
5.084236220472441
 30
0.0
 10
-9.399531496062993
 20
4.903295275590551
 30
0.0
 10
-9.399531496062993
 20
4.903295275590551
 30
0.0
 10
-9.36765748031496
 20
4.718370078740158
 30
0.0
 10
-9.281799212598425
 20
4.531602362204724
 30
0.0
 10
-9.124070866141732
 20
4.421641732283464
 30
0.0
 10
-9.124070866141732
 20
4.421641732283464
 30
0.0
 10
-9.124070866141732
 20
4.421641732283464
 30
0.0
 10
-9.114649606299212
 20
4.415070866141733
 30
0.0
 10
-9.114649606299212
 20
4.415070866141733
 30
0.0
 10
-9.114649606299212
 20
4.415070866141733
 30
0.0
 10
-9.114649606299212
 20
4.415070866141733
 30
0.0
 10
-9.122456692913385
 20
4.406641732283465
 30
0.0
 10
-9.122456692913385
 20
4.406641732283465
 30
0.0
 10
-9.122456692913385
 20
4.406641732283465
 30
0.0
 10
-9.380251968503938
 20
4.128314960629921
 30
0.0
 10
-9.512602362204724
 20
3.75998031496063
 30
0.0
 10
-9.587515748031496
 20
3.394070866141732
 30
0.0
 10
-9.587515748031496
 20
3.394070866141732
 30
0.0
 10
-9.647669291338582
 20
3.100244094488189
 30
0.0
 10
-9.695244094488189
 20
2.794283464566929
 30
0.0
 10
-9.634311023622047
 20
2.49640157480315
 30
0.0
 10
-9.634311023622047
 20
2.49640157480315
 30
0.0
 10
-9.53414566929134
 20
2.006744094488189
 30
0.0
 10
-9.261925196850394
 20
1.527082677165354
 30
0.0
 10
-8.822090551181102
 20
1.269185039370079
 30
0.0
 10
-8.822090551181102
 20
1.269185039370079
 30
0.0
 10
-8.515681102362205
 20
1.08951968503937
 30
0.0
 10
-8.117366141732283
 20
1.112082677165354
 30
0.0
 10
-7.813547244094488
 20
1.285562992125984
 30
0.0
 10
-7.813547244094488
 20
1.285562992125984
 30
0.0
 10
-7.491803149606299
 20
1.469275590551181
 30
0.0
 10
-7.307070866141732
 20
1.820889763779528
 30
0.0
 10
-7.221421259842519
 20
2.170137795275591
 30
0.0
 10
-7.221421259842519
 20
2.170137795275591
 30
0.0
 10
-7.095417322834646
 20
2.683937007874016
 30
0.0
 10
-7.075696850393701
 20
3.244429133858268
 30
0.0
 10
-7.275232283464567
 20
3.742759842519685
 30
0.0
 10
-7.275232283464567
 20
3.742759842519685
 30
0.0
 10
-7.406795275590551
 20
4.071326771653544
 30
0.0
 10
-7.621122047244095
 20
4.381925196850394
 30
0.0
 10
-7.930090551181102
 20
4.56540157480315
 30
0.0
 10
-7.930090551181102
 20
4.56540157480315
 30
0.0
 10
-7.930090551181102
 20
4.56540157480315
 30
0.0
 10
-7.954562992125984
 20
4.579937007874015
 30
0.0
 10
-7.954562992125984
 20
4.579937007874015
 30
0.0
 10
-7.954562992125984
 20
4.579937007874015
 30
0.0
 10
-7.954562992125984
 20
4.579937007874015
 30
0.0
 10
-7.926377952755906
 20
4.58390157480315
 30
0.0
 10
-7.926377952755906
 20
4.58390157480315
 30
0.0
 10
-7.926377952755906
 20
4.58390157480315
 30
0.0
 10
-7.847385826771654
 20
4.59501968503937
 30
0.0
 10
-7.766295275590551
 20
4.607322834645669
 30
0.0
 10
-7.694964566929134
 20
4.645228346456693
 30
0.0
 10
-7.694964566929134
 20
4.645228346456693
 30
0.0
 10
-7.518350393700787
 20
4.739082677165355
 30
0.0
 10
-7.409437007874016
 20
4.938397637795275
 30
0.0
 10
-7.415622047244095
 20
5.136968503937008
 30
0.0
 10
-7.415622047244095
 20
5.136968503937008
 30
0.0
 10
-7.422149606299213
 20
5.346645669291338
 30
0.0
 10
-7.560720472440945
 20
5.545677165354331
 30
0.0
 10
-7.758295275590551
 20
5.618700787401575
 30
0.0
 10
-7.758295275590551
 20
5.618700787401575
 30
0.0
 10
-7.986031496062992
 20
5.702870078740157
 30
0.0
 10
-8.265385826771654
 20
5.582842519685039
 30
0.0
 10
-8.352874015748032
 20
5.354708661417323
 30
0.0
 10
-8.352874015748032
 20
5.354708661417323
 30
0.0
 10
-8.353397637795275
 20
5.347381889763779
 30
0.0
 10
-8.354220472440945
 20
5.340023622047244
 30
0.0
 10
-8.355275590551182
 20
5.332633858267717
 30
0.0
  0
SPLINE
  5
45
330
1F
100
AcDbEntity
  8
Layer 1
 62
   250
100
AcDbSpline
210
0.0
220
0.0
230
1.0
 70
    11
 71
     3
 72
    52
 73
    48
 74
     0
 42
0.0000000001
 43
0.0000000001
 40
0.0
 40
0.0
 40
0.0
 40
0.0
 40
0.0769230769230769
 40
0.0769230769230769
 40
0.0769230769230769
 40
0.0769230769230769
 40
0.1538461538461539
 40
0.1538461538461539
 40
0.1538461538461539
 40
0.1538461538461539
 40
0.2307692307692308
 40
0.2307692307692308
 40
0.2307692307692308
 40
0.2307692307692308
 40
0.3076923076923077
 40
0.3076923076923077
 40
0.3076923076923077
 40
0.3076923076923077
 40
0.3846153846153846
 40
0.3846153846153846
 40
0.3846153846153846
 40
0.3846153846153846
 40
0.4615384615384616
 40
0.4615384615384616
 40
0.4615384615384616
 40
0.4615384615384616
 40
0.5384615384615384
 40
0.5384615384615384
 40
0.5384615384615384
 40
0.5384615384615384
 40
0.6153846153846154
 40
0.6153846153846154
 40
0.6153846153846154
 40
0.6153846153846154
 40
0.6923076923076923
 40
0.6923076923076923
 40
0.6923076923076923
 40
0.6923076923076923
 40
0.7692307692307693
 40
0.7692307692307693
 40
0.7692307692307693
 40
0.7692307692307693
 40
0.8461538461538461
 40
0.8461538461538461
 40
0.8461538461538461
 40
0.8461538461538461
 40
1.0
 40
1.0
 40
1.0
 40
1.0
 10
-8.504299212598426
 20
5.420669291338583
 30
0.0
 10
-8.504299212598426
 20
5.420669291338583
 30
0.0
 10
-8.505968503937007
 20
5.419129921259842
 30
0.0
 10
-8.505968503937007
 20
5.419129921259842
 30
0.0
 10
-8.505968503937007
 20
5.419129921259842
 30
0.0
 10
-8.518472440944882
 20
5.407582677165355
 30
0.0
 10
-8.53109842519685
 20
5.396177165354331
 30
0.0
 10
-8.543712598425197
 20
5.384751968503937
 30
0.0
 10
-8.543712598425197
 20
5.384751968503937
 30
0.0
 10
-8.543712598425197
 20
5.384751968503937
 30
0.0
 10
-8.548984251968504
 20
5.379972440944882
 30
0.0
 10
-8.548984251968504
 20
5.379972440944882
 30
0.0
 10
-8.548984251968504
 20
5.379972440944882
 30
0.0
 10
-8.548984251968504
 20
5.379972440944882
 30
0.0
 10
-8.555224409448819
 20
5.383389763779528
 30
0.0
 10
-8.555224409448819
 20
5.383389763779528
 30
0.0
 10
-8.555224409448819
 20
5.383389763779528
 30
0.0
 10
-8.563763779527559
 20
5.38805905511811
 30
0.0
 10
-8.572307086614174
 20
5.392732283464567
 30
0.0
 10
-8.580850393700787
 20
5.397397637795276
 30
0.0
 10
-8.580850393700787
 20
5.397397637795276
 30
0.0
 10
-8.551192913385826
 20
5.365913385826771
 30
0.0
 10
-8.523728346456693
 20
5.333244094488189
 30
0.0
 10
-8.510169291338583
 20
5.290035433070866
 30
0.0
 10
-8.510169291338583
 20
5.290035433070866
 30
0.0
 10
-8.484070866141732
 20
5.206877952755906
 30
0.0
 10
-8.485070866141733
 20
5.12142125984252
 30
0.0
 10
-8.49307874015748
 20
5.036200787401575
 30
0.0
 10
-8.49307874015748
 20
5.036200787401575
 30
0.0
 10
-8.456783464566929
 20
5.147055118110236
 30
0.0
 10
-8.461622047244095
 20
5.271334645669292
 30
0.0
 10
-8.525740157480316
 20
5.371897637795276
 30
0.0
 10
-8.525740157480316
 20
5.371897637795276
 30
0.0
 10
-8.525740157480316
 20
5.371897637795276
 30
0.0
 10
-8.535330708661418
 20
5.386944881889764
 30
0.0
 10
-8.535330708661418
 20
5.386944881889764
 30
0.0
 10
-8.535330708661418
 20
5.386944881889764
 30
0.0
 10
-8.535330708661418
 20
5.386944881889764
 30
0.0
 10
-8.517492125984251
 20
5.387275590551181
 30
0.0
 10
-8.517492125984251
 20
5.387275590551181
 30
0.0
 10
-8.517492125984251
 20
5.387275590551181
 30
0.0
 10
-8.487665354330709
 20
5.387826771653543
 30
0.0
 10
-8.495145669291338
 20
5.38767716535433
 30
0.0
 10
-8.483728346456694
 20
5.387885826771654
 30
0.0
 10
-8.483728346456694
 20
5.387885826771654
 30
0.0
 10
-8.491094488188976
 20
5.398527559055118
 30
0.0
 10
-8.497885826771654
 20
5.409492125984252
 30
0.0
 10
-8.504299212598426
 20
5.420669291338583
 30
0.0
  0
SPLINE
  5
46
330
1F
100
AcDbEntity
  8
Layer 1
 62
   250
100
AcDbSpline
210
0.0
220
0.0
230
1.0
 70
    11
 71
     3
 72
    16
 73
    12
 74
     0
 42
0.0000000001
 43
0.0000000001
 40
0.0
 40
0.0
 40
0.0
 40
0.0
 40
0.25
 40
0.25
 40
0.25
 40
0.25
 40
0.5
 40
0.5
 40
0.5
 40
0.5
 40
1.0
 40
1.0
 40
1.0
 40
1.0
 10
-8.071511811023623
 20
5.010283464566929
 30
0.0
 10
-8.045712598425197
 20
5.036858267716536
 30
0.0
 10
-8.028877952755906
 20
5.070031496062992
 30
0.0
 10
-8.02188188976378
 20
5.107122047244094
 30
0.0
 10
-8.02188188976378
 20
5.107122047244094
 30
0.0
 10
-8.001775590551182
 20
5.213688976377953
 30
0.0
 10
-8.064732283464567
 20
5.328023622047244
 30
0.0
 10
-8.169874015748032
 20
5.356275590551181
 30
0.0
 10
-8.169874015748032
 20
5.356275590551181
 30
0.0
 10
-8.090748031496062
 20
5.259228346456693
 30
0.0
 10
-8.069417322834646
 20
5.133570866141732
 30
0.0
 10
-8.071511811023623
 20
5.010283464566929
 30
0.0
  0
SPLINE
  5
47
330
1F
100
AcDbEntity
  8
Layer 1
 62
     1
370
     9
100
AcDbSpline
210
0.0
220
0.0
230
1.0
 70
    11
 71
     3
 72
    16
 73
    12
 74
     0
 42
0.0000000001
 43
0.0000000001
 40
0.0
 40
0.0
 40
0.0
 40
0.0
 40
0.25
 40
0.25
 40
0.25
 40
0.25
 40
0.5
 40
0.5
 40
0.5
 40
0.5
 40
1.0
 40
1.0
 40
1.0
 40
1.0
 10
-10.7013031496063
 20
7.354
 30
0.0
 10
-10.68728346456693
 20
7.367255905511811
 30
0.0
 10
-10.67019291338583
 20
7.377291338582677
 30
0.0
 10
-10.65121653543307
 20
7.382948818897638
 30
0.0
 10
-10.65121653543307
 20
7.382948818897638
 30
0.0
 10
-10.67256299212598
 20
7.417732283464567
 30
0.0
 10
-10.70295669291339
 20
7.450543307086614
 30
0.0
 10
-10.74103937007874
 20
7.480681102362205
 30
0.0
 10
-10.74103937007874
 20
7.480681102362205
 30
0.0
 10
-10.73398031496063
 20
7.432622047244094
 30
0.0
 10
-10.72075984251969
 20
7.389889763779528
 30
0.0
 10
-10.7013031496063
 20
7.354
 30
0.0
  0
SPLINE
  5
48
330
1F
100
AcDbEntity
  8
Layer 1
 62
     1
370
     9
100
AcDbSpline
210
0.0
220
0.0
230
1.0
 70
    11
 71
     3
 72
    20
 73
    16
 74
     0
 42
0.0000000001
 43
0.0000000001
 40
0.0
 40
0.0
 40
0.0
 40
0.0
 40
0.2
 40
0.2
 40
0.2
 40
0.2
 40
0.4
 40
0.4
 40
0.4
 40
0.4
 40
0.6
 40
0.6
 40
0.6
 40
0.6
 40
1.0
 40
1.0
 40
1.0
 40
1.0
 10
-10.73707874015748
 20
7.234228346456693
 30
0.0
 10
-10.73927559055118
 20
7.243511811023622
 30
0.0
 10
-10.74044881889764
 20
7.253192913385827
 30
0.0
 10
-10.74044881889764
 20
7.263149606299213
 30
0.0
 10
-10.74044881889764
 20
7.263149606299213
 30
0.0
 10
-10.74044881889764
 20
7.273106299212598
 30
0.0
 10
-10.73927559055118
 20
7.282791338582677
 30
0.0
 10
-10.73707874015748
 20
7.292074803149606
 30
0.0
 10
-10.73707874015748
 20
7.292074803149606
 30
0.0
 10
-10.77788188976378
 20
7.29098031496063
 30
0.0
 10
-10.82149212598425
 20
7.28105905511811
 30
0.0
 10
-10.86662992125984
 20
7.263149606299213
 30
0.0
 10
-10.86662992125984
 20
7.263149606299213
 30
0.0
 10
-10.82148818897638
 20
7.245240157480315
 30
0.0
 10
-10.77788188976378
 20
7.235322834645669
 30
0.0
 10
-10.73707874015748
 20
7.234228346456693
 30
0.0
  0
SPLINE
  5
49
330
1F
100
AcDbEntity
  8
Layer 1
 62
     1
370
     9
100
AcDbSpline
210
0.0
220
0.0
230
1.0
 70
    11
 71
     3
 72
    16
 73
    12
 74
     0
 42
0.0000000001
 43
0.0000000001
 40
0.0
 40
0.0
 40
0.0
 40
0.0
 40
0.25
 40
0.25
 40
0.25
 40
0.25
 40
0.5
 40
0.5
 40
0.5
 40
0.5
 40
1.0
 40
1.0
 40
1.0
 40
1.0
 10
-10.65121653543307
 20
7.143350393700787
 30
0.0
 10
-10.67019291338583
 20
7.149011811023622
 30
0.0
 10
-10.68728346456693
 20
7.159047244094488
 30
0.0
 10
-10.7013031496063
 20
7.172299212598425
 30
0.0
 10
-10.7013031496063
 20
7.172299212598425
 30
0.0
 10
-10.72076377952756
 20
7.136409448818898
 30
0.0
 10
-10.7339842519685
 20
7.093677165354331
 30
0.0
 10
-10.74104330708661
 20
7.04561811023622
 30
0.0
 10
-10.74104330708661
 20
7.04561811023622
 30
0.0
 10
-10.70296456692913
 20
7.075755905511811
 30
0.0
 10
-10.67256692913386
 20
7.108562992125984
 30
0.0
 10
-10.65121653543307
 20
7.143350393700787
 30
0.0
  0
SPLINE
  5
4A
330
1F
100
AcDbEntity
  8
Layer 1
 62
     1
370
     9
100
AcDbSpline
210
0.0
220
0.0
230
1.0
 70
    11
 71
     3
 72
    24
 73
    20
 74
     0
 42
0.0000000001
 43
0.0000000001
 40
0.0
 40
0.0
 40
0.0
 40
0.0
 40
0.1666666666666667
 40
0.1666666666666667
 40
0.1666666666666667
 40
0.1666666666666667
 40
0.3333333333333333
 40
0.3333333333333333
 40
0.3333333333333333
 40
0.3333333333333333
 40
0.5
 40
0.5
 40
0.5
 40
0.5
 40
0.6666666666666666
 40
0.6666666666666666
 40
0.6666666666666666
 40
0.6666666666666666
 40
1.0
 40
1.0
 40
1.0
 40
1.0
 10
-10.52959448818898
 20
7.172303149606299
 30
0.0
 10
-10.54361417322835
 20
7.159047244094488
 30
0.0
 10
-10.56070472440945
 20
7.149011811023622
 30
0.0
 10
-10.5796811023622
 20
7.143350393700787
 30
0.0
 10
-10.5796811023622
 20
7.143350393700787
 30
0.0
 10
-10.56246456692913
 20
7.115295275590551
 30
0.0
 10
-10.53935826771654
 20
7.088527559055118
 30
0.0
 10
-10.51108661417323
 20
7.063409448818898
 30
0.0
 10
-10.51108661417323
 20
7.063409448818898
 30
0.0
 10
-10.50781102362205
 20
7.0605
 30
0.0
 10
-10.50324015748031
 20
7.060035433070866
 30
0.0
 10
-10.49944488188976
 20
7.062228346456693
 30
0.0
 10
-10.49944488188976
 20
7.062228346456693
 30
0.0
 10
-10.49564960629921
 20
7.064417322834646
 30
0.0
 10
-10.49376771653543
 20
7.068610236220472
 30
0.0
 10
-10.49464960629921
 20
7.07290157480315
 30
0.0
 10
-10.49464960629921
 20
7.07290157480315
 30
0.0
 10
-10.50226771653543
 20
7.109956692913386
 30
0.0
 10
-10.51389763779528
 20
7.143354330708662
 30
0.0
 10
-10.52959448818898
 20
7.172303149606299
 30
0.0
  0
SPLINE
  5
4B
330
1F
100
AcDbEntity
  8
Layer 1
 62
     1
370
     9
100
AcDbSpline
210
0.0
220
0.0
230
1.0
 70
    11
 71
     3
 72
    28
 73
    24
 74
     0
 42
0.0000000001
 43
0.0000000001
 40
0.0
 40
0.0
 40
0.0
 40
0.0
 40
0.1428571428571428
 40
0.1428571428571428
 40
0.1428571428571428
 40
0.1428571428571428
 40
0.2857142857142857
 40
0.2857142857142857
 40
0.2857142857142857
 40
0.2857142857142857
 40
0.4285714285714285
 40
0.4285714285714285
 40
0.4285714285714285
 40
0.4285714285714285
 40
0.5714285714285714
 40
0.5714285714285714
 40
0.5714285714285714
 40
0.5714285714285714
 40
0.7142857142857143
 40
0.7142857142857143
 40
0.7142857142857143
 40
0.7142857142857143
 40
1.0
 40
1.0
 40
1.0
 40
1.0
 10
-10.49381889763779
 20
7.292074803149606
 30
0.0
 10
-10.49162204724409
 20
7.282787401574804
 30
0.0
 10
-10.49044881889764
 20
7.273106299212598
 30
0.0
 10
-10.49044881889764
 20
7.263149606299213
 30
0.0
 10
-10.49044881889764
 20
7.263149606299213
 30
0.0
 10
-10.49044881889764
 20
7.253192913385827
 30
0.0
 10
-10.49162204724409
 20
7.243511811023622
 30
0.0
 10
-10.49381889763779
 20
7.234224409448819
 30
0.0
 10
-10.49381889763779
 20
7.234224409448819
 30
0.0
 10
-10.4609094488189
 20
7.235106299212599
 30
0.0
 10
-10.42618110236221
 20
7.241732283464567
 30
0.0
 10
-10.3902874015748
 20
7.253657480314961
 30
0.0
 10
-10.3902874015748
 20
7.253657480314961
 30
0.0
 10
-10.38612598425197
 20
7.25503937007874
 30
0.0
 10
-10.38343700787402
 20
7.258767716535433
 30
0.0
 10
-10.38344094488189
 20
7.263149606299213
 30
0.0
 10
-10.38344094488189
 20
7.263149606299213
 30
0.0
 10
-10.38344094488189
 20
7.267531496062992
 30
0.0
 10
-10.38612992125984
 20
7.271255905511811
 30
0.0
 10
-10.3902874015748
 20
7.272637795275591
 30
0.0
 10
-10.3902874015748
 20
7.272637795275591
 30
0.0
 10
-10.42617716535433
 20
7.284566929133859
 30
0.0
 10
-10.46091338582677
 20
7.291192913385827
 30
0.0
 10
-10.49381889763779
 20
7.292074803149606
 30
0.0
  0
SPLINE
  5
4C
330
1F
100
AcDbEntity
  8
Layer 1
 62
     1
370
     9
100
AcDbSpline
210
0.0
220
0.0
230
1.0
 70
    11
 71
     3
 72
    16
 73
    12
 74
     0
 42
0.0000000001
 43
0.0000000001
 40
0.0
 40
0.0
 40
0.0
 40
0.0
 40
0.25
 40
0.25
 40
0.25
 40
0.25
 40
0.5
 40
0.5
 40
0.5
 40
0.5
 40
1.0
 40
1.0
 40
1.0
 40
1.0
 10
-10.5796811023622
 20
7.382948818897638
 30
0.0
 10
-10.56070078740157
 20
7.377287401574804
 30
0.0
 10
-10.54361417322835
 20
7.367251968503937
 30
0.0
 10
-10.52959448818898
 20
7.353996062992126
 30
0.0
 10
-10.52959448818898
 20
7.353996062992126
 30
0.0
 10
-10.51013779527559
 20
7.38988188976378
 30
0.0
 10
-10.49691732283465
 20
7.432618110236221
 30
0.0
 10
-10.48985826771654
 20
7.480677165354331
 30
0.0
 10
-10.48985826771654
 20
7.480677165354331
 30
0.0
 10
-10.52793700787402
 20
7.45053937007874
 30
0.0
 10
-10.55833464566929
 20
7.417732283464567
 30
0.0
 10
-10.5796811023622
 20
7.382948818897638
 30
0.0
  0
ELLIPSE
  5
4D
330
1F
100
AcDbEntity
  8
Layer 1
 62
   250
100
AcDbEllipse
 10
-9.723562992125984
 20
-0.0818897637795276
 30
0.0
 11
0.0
 21
0.3089566929133858
 31
0.0
210
0.0
220
0.0
230
1.0
 40
1.0
 41
0.0
 42
6.283185307179586
  0
ELLIPSE
  5
4E
330
1F
100
AcDbEntity
  8
Layer 1
 62
   250
100
AcDbEllipse
 10
-7.560838582677166
 20
-1.194145669291339
 30
0.0
 11
0.0
 21
0.3089566929133858
 31
0.0
210
0.0
220
0.0
230
1.0
 40
1.0
 41
0.0
 42
6.283185307179586
  0
ELLIPSE
  5
4F
330
1F
100
AcDbEntity
  8
Layer 1
 62
   250
100
AcDbEllipse
 10
-8.30234251968504
 20
-0.2054763779527559
 30
0.0
 11
0.0
 21
0.125
 31
0.0
210
0.0
220
0.0
230
1.0
 40
1.0
 41
0.0
 42
6.283185307179586
  0
ELLIPSE
  5
50
330
1F
100
AcDbEntity
  8
Layer 1
 62
   250
100
AcDbEllipse
 10
-10.62227165354331
 20
-1.310405511811024
 30
0.0
 11
0.0
 21
0.7415
 31
0.0
210
0.0
220
0.0
230
1.0
 40
1.0
 41
0.0
 42
6.283185307179586
  0
ELLIPSE
  5
51
330
1F
100
AcDbEntity
  8
Layer 1
 62
   250
100
AcDbEllipse
 10
-6.127267716535433
 20
-0.0571732283464567
 30
0.0
 11
0.0
 21
0.8865433070866142
 31
0.0
210
0.0
220
0.0
230
1.0
 40
1.0
 41
0.0
 42
6.283185307179586
  0
ELLIPSE
  5
52
330
1F
100
AcDbEntity
  8
Layer 1
 62
   250
100
AcDbEllipse
 10
-8.747248031496063
 20
-1.070562992125984
 30
0.0
 11
0.0
 21
0.5437677165354331
 31
0.0
210
0.0
220
0.0
230
1.0
 40
1.0
 41
0.0
 42
6.283185307179586
  0
LWPOLYLINE
  5
53
330
1F
100
AcDbEntity
  8
Layer 1
 62
   240
370
     9
100
AcDbPolyline
 90
        5
 70
     1
 43
0.0
 10
-9.295314960629922
 20
-0.6633464566929134
 10
-8.615314960629922
 20
-0.6633464566929134
 10
-8.615314960629922
 20
-0.4983464566929134
 10
-9.295314960629922
 20
-0.4983464566929134
 10
-9.295314960629922
 20
-0.6633464566929134
  0
LWPOLYLINE
  5
54
330
1F
100
AcDbEntity
  8
Layer 1
 62
   240
370
     9
100
AcDbPolyline
 90
        5
 70
     1
 43
0.0
 10
-8.045314960629922
 20
-0.6633464566929134
 10
-7.365314960629921
 20
-0.6633464566929134
 10
-7.365314960629921
 20
-0.4983464566929134
 10
-8.045314960629922
 20
-0.4983464566929134
 10
-8.045314960629922
 20
-0.6633464566929134
  0
ELLIPSE
  5
55
330
1F
100
AcDbEntity
  8
Layer 1
 62
     1
370
     9
100
AcDbEllipse
 10
-8.330314960629922
 20
-0.5808464566929133
 30
0.0
 11
2.966011811023622
 21
0.0
 31
0.0
210
0.0
220
0.0
230
1.0
 40
0.3875003816201134
 41
0.0
 42
6.283185307179586
  0
SPLINE
  5
56
330
1F
100
AcDbEntity
  8
Layer 1
 62
     1
370
     9
100
AcDbSpline
210
0.0
220
0.0
230
1.0
 70
    11
 71
     3
 72
   376
 73
   372
 74
     0
 42
0.0000000001
 43
0.0000000001
 40
0.0
 40
0.0
 40
0.0
 40
0.0
 40
0.0106382978723404
 40
0.0106382978723404
 40
0.0106382978723404
 40
0.0106382978723404
 40
0.0212765957446809
 40
0.0212765957446809
 40
0.0212765957446809
 40
0.0212765957446809
 40
0.0319148936170213
 40
0.0319148936170213
 40
0.0319148936170213
 40
0.0319148936170213
 40
0.0425531914893617
 40
0.0425531914893617
 40
0.0425531914893617
 40
0.0425531914893617
 40
0.0531914893617021
 40
0.0531914893617021
 40
0.0531914893617021
 40
0.0531914893617021
 40
0.0638297872340425
 40
0.0638297872340425
 40
0.0638297872340425
 40
0.0638297872340425
 40
0.074468085106383
 40
0.074468085106383
 40
0.074468085106383
 40
0.074468085106383
 40
0.0851063829787234
 40
0.0851063829787234
 40
0.0851063829787234
 40
0.0851063829787234
 40
0.0957446808510638
 40
0.0957446808510638
 40
0.0957446808510638
 40
0.0957446808510638
 40
0.1063829787234043
 40
0.1063829787234043
 40
0.1063829787234043
 40
0.1063829787234043
 40
0.1170212765957447
 40
0.1170212765957447
 40
0.1170212765957447
 40
0.1170212765957447
 40
0.1276595744680851
 40
0.1276595744680851
 40
0.1276595744680851
 40
0.1276595744680851
 40
0.1382978723404255
 40
0.1382978723404255
 40
0.1382978723404255
 40
0.1382978723404255
 40
0.148936170212766
 40
0.148936170212766
 40
0.148936170212766
 40
0.148936170212766
 40
0.1595744680851064
 40
0.1595744680851064
 40
0.1595744680851064
 40
0.1595744680851064
 40
0.1702127659574468
 40
0.1702127659574468
 40
0.1702127659574468
 40
0.1702127659574468
 40
0.1808510638297872
 40
0.1808510638297872
 40
0.1808510638297872
 40
0.1808510638297872
 40
0.1914893617021277
 40
0.1914893617021277
 40
0.1914893617021277
 40
0.1914893617021277
 40
0.2021276595744681
 40
0.2021276595744681
 40
0.2021276595744681
 40
0.2021276595744681
 40
0.2127659574468085
 40
0.2127659574468085
 40
0.2127659574468085
 40
0.2127659574468085
 40
0.2234042553191489
 40
0.2234042553191489
 40
0.2234042553191489
 40
0.2234042553191489
 40
0.2340425531914894
 40
0.2340425531914894
 40
0.2340425531914894
 40
0.2340425531914894
 40
0.2446808510638298
 40
0.2446808510638298
 40
0.2446808510638298
 40
0.2446808510638298
 40
0.2553191489361702
 40
0.2553191489361702
 40
0.2553191489361702
 40
0.2553191489361702
 40
0.2659574468085106
 40
0.2659574468085106
 40
0.2659574468085106
 40
0.2659574468085106
 40
0.2765957446808511
 40
0.2765957446808511
 40
0.2765957446808511
 40
0.2765957446808511
 40
0.2872340425531915
 40
0.2872340425531915
 40
0.2872340425531915
 40
0.2872340425531915
 40
0.2978723404255319
 40
0.2978723404255319
 40
0.2978723404255319
 40
0.2978723404255319
 40
0.3085106382978723
 40
0.3085106382978723
 40
0.3085106382978723
 40
0.3085106382978723
 40
0.3191489361702128
 40
0.3191489361702128
 40
0.3191489361702128
 40
0.3191489361702128
 40
0.3297872340425532
 40
0.3297872340425532
 40
0.3297872340425532
 40
0.3297872340425532
 40
0.3404255319148936
 40
0.3404255319148936
 40
0.3404255319148936
 40
0.3404255319148936
 40
0.351063829787234
 40
0.351063829787234
 40
0.351063829787234
 40
0.351063829787234
 40
0.3617021276595745
 40
0.3617021276595745
 40
0.3617021276595745
 40
0.3617021276595745
 40
0.3723404255319149
 40
0.3723404255319149
 40
0.3723404255319149
 40
0.3723404255319149
 40
0.3829787234042553
 40
0.3829787234042553
 40
0.3829787234042553
 40
0.3829787234042553
 40
0.3936170212765958
 40
0.3936170212765958
 40
0.3936170212765958
 40
0.3936170212765958
 40
0.4042553191489361
 40
0.4042553191489361
 40
0.4042553191489361
 40
0.4042553191489361
 40
0.4148936170212766
 40
0.4148936170212766
 40
0.4148936170212766
 40
0.4148936170212766
 40
0.425531914893617
 40
0.425531914893617
 40
0.425531914893617
 40
0.425531914893617
 40
0.4361702127659575
 40
0.4361702127659575
 40
0.4361702127659575
 40
0.4361702127659575
 40
0.4468085106382979
 40
0.4468085106382979
 40
0.4468085106382979
 40
0.4468085106382979
 40
0.4574468085106383
 40
0.4574468085106383
 40
0.4574468085106383
 40
0.4574468085106383
 40
0.4680851063829787
 40
0.4680851063829787
 40
0.4680851063829787
 40
0.4680851063829787
 40
0.4787234042553192
 40
0.4787234042553192
 40
0.4787234042553192
 40
0.4787234042553192
 40
0.4893617021276596
 40
0.4893617021276596
 40
0.4893617021276596
 40
0.4893617021276596
 40
0.5
 40
0.5
 40
0.5
 40
0.5
 40
0.5106382978723404
 40
0.5106382978723404
 40
0.5106382978723404
 40
0.5106382978723404
 40
0.5212765957446809
 40
0.5212765957446809
 40
0.5212765957446809
 40
0.5212765957446809
 40
0.5319148936170213
 40
0.5319148936170213
 40
0.5319148936170213
 40
0.5319148936170213
 40
0.5425531914893617
 40
0.5425531914893617
 40
0.5425531914893617
 40
0.5425531914893617
 40
0.5531914893617021
 40
0.5531914893617021
 40
0.5531914893617021
 40
0.5531914893617021
 40
0.5638297872340425
 40
0.5638297872340425
 40
0.5638297872340425
 40
0.5638297872340425
 40
0.574468085106383
 40
0.574468085106383
 40
0.574468085106383
 40
0.574468085106383
 40
0.5851063829787234
 40
0.5851063829787234
 40
0.5851063829787234
 40
0.5851063829787234
 40
0.5957446808510638
 40
0.5957446808510638
 40
0.5957446808510638
 40
0.5957446808510638
 40
0.6063829787234043
 40
0.6063829787234043
 40
0.6063829787234043
 40
0.6063829787234043
 40
0.6170212765957447
 40
0.6170212765957447
 40
0.6170212765957447
 40
0.6170212765957447
 40
0.6276595744680851
 40
0.6276595744680851
 40
0.6276595744680851
 40
0.6276595744680851
 40
0.6382978723404256
 40
0.6382978723404256
 40
0.6382978723404256
 40
0.6382978723404256
 40
0.648936170212766
 40
0.648936170212766
 40
0.648936170212766
 40
0.648936170212766
 40
0.6595744680851063
 40
0.6595744680851063
 40
0.6595744680851063
 40
0.6595744680851063
 40
0.6702127659574468
 40
0.6702127659574468
 40
0.6702127659574468
 40
0.6702127659574468
 40
0.6808510638297872
 40
0.6808510638297872
 40
0.6808510638297872
 40
0.6808510638297872
 40
0.6914893617021277
 40
0.6914893617021277
 40
0.6914893617021277
 40
0.6914893617021277
 40
0.7021276595744681
 40
0.7021276595744681
 40
0.7021276595744681
 40
0.7021276595744681
 40
0.7127659574468085
 40
0.7127659574468085
 40
0.7127659574468085
 40
0.7127659574468085
 40
0.723404255319149
 40
0.723404255319149
 40
0.723404255319149
 40
0.723404255319149
 40
0.7340425531914894
 40
0.7340425531914894
 40
0.7340425531914894
 40
0.7340425531914894
 40
0.7446808510638298
 40
0.7446808510638298
 40
0.7446808510638298
 40
0.7446808510638298
 40
0.7553191489361702
 40
0.7553191489361702
 40
0.7553191489361702
 40
0.7553191489361702
 40
0.7659574468085106
 40
0.7659574468085106
 40
0.7659574468085106
 40
0.7659574468085106
 40
0.776595744680851
 40
0.776595744680851
 40
0.776595744680851
 40
0.776595744680851
 40
0.7872340425531915
 40
0.7872340425531915
 40
0.7872340425531915
 40
0.7872340425531915
 40
0.7978723404255319
 40
0.7978723404255319
 40
0.7978723404255319
 40
0.7978723404255319
 40
0.8085106382978723
 40
0.8085106382978723
 40
0.8085106382978723
 40
0.8085106382978723
 40
0.8191489361702128
 40
0.8191489361702128
 40
0.8191489361702128
 40
0.8191489361702128
 40
0.8297872340425532
 40
0.8297872340425532
 40
0.8297872340425532
 40
0.8297872340425532
 40
0.8404255319148937
 40
0.8404255319148937
 40
0.8404255319148937
 40
0.8404255319148937
 40
0.851063829787234
 40
0.851063829787234
 40
0.851063829787234
 40
0.851063829787234
 40
0.8617021276595744
 40
0.8617021276595744
 40
0.8617021276595744
 40
0.8617021276595744
 40
0.8723404255319149
 40
0.8723404255319149
 40
0.8723404255319149
 40
0.8723404255319149
 40
0.8829787234042553
 40
0.8829787234042553
 40
0.8829787234042553
 40
0.8829787234042553
 40
0.8936170212765957
 40
0.8936170212765957
 40
0.8936170212765957
 40
0.8936170212765957
 40
0.9042553191489362
 40
0.9042553191489362
 40
0.9042553191489362
 40
0.9042553191489362
 40
0.9148936170212766
 40
0.9148936170212766
 40
0.9148936170212766
 40
0.9148936170212766
 40
0.925531914893617
 40
0.925531914893617
 40
0.925531914893617
 40
0.925531914893617
 40
0.9361702127659575
 40
0.9361702127659575
 40
0.9361702127659575
 40
0.9361702127659575
 40
0.9468085106382979
 40
0.9468085106382979
 40
0.9468085106382979
 40
0.9468085106382979
 40
0.9574468085106383
 40
0.9574468085106383
 40
0.9574468085106383
 40
0.9574468085106383
 40
0.9680851063829787
 40
0.9680851063829787
 40
0.9680851063829787
 40
0.9680851063829787
 40
0.9787234042553191
 40
0.9787234042553191
 40
0.9787234042553191
 40
0.9787234042553191
 40
1.0
 40
1.0
 40
1.0
 40
1.0
 10
-9.199358267716535
 20
6.775830708661418
 30
0.0
 10
-9.177185039370078
 20
6.740937007874016
 30
0.0
 10
-9.138185039370079
 20
6.717771653543307
 30
0.0
 10
-9.09377559055118
 20
6.717771653543307
 30
0.0
 10
-9.09377559055118
 20
6.717771653543307
 30
0.0
 10
-9.082728346456692
 20
6.717771653543307
 30
0.0
 10
-9.072011811023621
 20
6.719204724409448
 30
0.0
 10
-9.06181496062992
 20
6.721893700787402
 30
0.0
 10
-9.06181496062992
 20
6.721893700787402
 30
0.0
 10
-8.895889763779527
 20
6.85692125984252
 30
0.0
 10
-8.699248031496063
 20
6.956795275590551
 30
0.0
 10
-8.486110236220473
 20
6.956795275590551
 30
0.0
 10
-8.486110236220473
 20
6.956795275590551
 30
0.0
 10
-8.486110236220473
 20
6.956795275590551
 30
0.0
 10
-8.330590551181102
 20
6.956795275590551
 30
0.0
 10
-8.330590551181102
 20
6.956795275590551
 30
0.0
 10
-8.330590551181102
 20
6.956795275590551
 30
0.0
 10
-8.006763779527558
 20
6.956795275590551
 30
0.0
 10
-7.713909448818898
 20
6.747295275590552
 30
0.0
 10
-7.512507874015748
 20
6.508822834645669
 30
0.0
 10
-7.512507874015748
 20
6.508822834645669
 30
0.0
 10
-7.337984251968504
 20
6.302169291338583
 30
0.0
 10
-7.234377952755906
 20
6.047322834645669
 30
0.0
 10
-7.177755905511811
 20
5.784937007874015
 30
0.0
 10
-7.177755905511811
 20
5.784937007874015
 30
0.0
 10
-7.09442125984252
 20
5.398748031496063
 30
0.0
 10
-7.050744094488189
 20
5.003169291338582
 30
0.0
 10
-6.933405511811023
 20
4.624799212598425
 30
0.0
 10
-6.933405511811023
 20
4.624799212598425
 30
0.0
 10
-6.879972440944882
 20
4.452507874015748
 30
0.0
 10
-6.770385826771654
 20
4.304307086614173
 30
0.0
 10
-6.654354330708661
 20
4.168933070866141
 30
0.0
 10
-6.654354330708661
 20
4.168933070866141
 30
0.0
 10
-6.415555118110237
 20
3.890314960629921
 30
0.0
 10
-6.127322834645669
 20
3.660606299212598
 30
0.0
 10
-5.854169291338582
 20
3.417496062992126
 30
0.0
 10
-5.854169291338582
 20
3.417496062992126
 30
0.0
 10
-5.73509842519685
 20
3.311523622047244
 30
0.0
 10
-5.613330708661417
 20
3.204748031496063
 30
0.0
 10
-5.531732283464567
 20
3.065633858267717
 30
0.0
 10
-5.531732283464567
 20
3.065633858267717
 30
0.0
 10
-5.531732283464567
 20
3.065633858267717
 30
0.0
 10
-5.528984251968504
 20
3.060948818897638
 30
0.0
 10
-5.528984251968504
 20
3.060948818897638
 30
0.0
 10
-5.528984251968504
 20
3.060948818897638
 30
0.0
 10
-5.528984251968504
 20
3.060948818897638
 30
0.0
 10
-5.528984251968504
 20
2.967157480314961
 30
0.0
 10
-5.528984251968504
 20
2.967157480314961
 30
0.0
 10
-5.528984251968504
 20
2.967157480314961
 30
0.0
 10
-5.528984251968504
 20
2.967157480314961
 30
0.0
 10
-5.538377952755906
 20
2.961279527559055
 30
0.0
 10
-5.538377952755906
 20
2.961279527559055
 30
0.0
 10
-5.538377952755906
 20
2.961279527559055
 30
0.0
 10
-5.732165354330709
 20
2.840102362204724
 30
0.0
 10
-5.989917322834645
 20
2.880161417322835
 30
0.0
 10
-6.177964566929134
 20
2.992507874015748
 30
0.0
 10
-6.177964566929134
 20
2.992507874015748
 30
0.0
 10
-6.375933070866142
 20
3.110779527559055
 30
0.0
 10
-6.507196850393701
 20
3.301125984251969
 30
0.0
 10
-6.676877952755905
 20
3.451712598425197
 30
0.0
 10
-6.676877952755905
 20
3.451712598425197
 30
0.0
 10
-6.685263779527559
 20
3.430444881889764
 30
0.0
 10
-6.693803149606299
 20
3.407834645669291
 30
0.0
 10
-6.693948818897637
 20
3.385389763779528
 30
0.0
 10
-6.693948818897637
 20
3.385389763779528
 30
0.0
 10
-6.696488188976378
 20
2.992484251968504
 30
0.0
 10
-6.685811023622048
 20
2.576673228346457
 30
0.0
 10
-6.864992125984252
 20
2.215503937007874
 30
0.0
 10
-6.864992125984252
 20
2.215503937007874
 30
0.0
 10
-6.966799212598425
 20
2.010295275590551
 30
0.0
 10
-7.09298031496063
 20
1.817326771653543
 30
0.0
 10
-7.237366141732283
 20
1.63957874015748
 30
0.0
 10
-7.237366141732283
 20
1.63957874015748
 30
0.0
 10
-7.042763779527559
 20
1.565704724409449
 30
0.0
 10
-6.851937007874016
 20
1.418031496062992
 30
0.0
 10
-6.815192913385827
 20
1.201988188976378
 30
0.0
 10
-6.815192913385827
 20
1.201988188976378
 30
0.0
 10
-6.804098425196851
 20
1.136763779527559
 30
0.0
 10
-6.782842519685039
 20
1.051515748031496
 30
0.0
 10
-6.855177165354331
 20
1.012547244094488
 30
0.0
 10
-6.855177165354331
 20
1.012547244094488
 30
0.0
 10
-6.986909448818897
 20
0.9415787401574803
 30
0.0
 10
-7.140988188976378
 20
0.9167952755905512
 30
0.0
 10
-7.289232283464567
 20
0.9167952755905512
 30
0.0
 10
-7.289232283464567
 20
0.9167952755905512
 30
0.0
 10
-7.289232283464567
 20
0.9167952755905512
 30
0.0
 10
-7.295614173228347
 20
0.9167952755905512
 30
0.0
 10
-7.295614173228347
 20
0.9167952755905512
 30
0.0
 10
-7.295614173228347
 20
0.9167952755905512
 30
0.0
 10
-7.295614173228347
 20
0.9167952755905512
 30
0.0
 10
-7.295614173228347
 20
0.7536417322834645
 30
0.0
 10
-7.295614173228347
 20
0.7536417322834645
 30
0.0
 10
-7.295614173228347
 20
0.7536417322834645
 30
0.0
 10
-7.295614173228347
 20
0.7536417322834645
 30
0.0
 10
-7.975614173228347
 20
0.7536417322834645
 30
0.0
 10
-7.975614173228347
 20
0.7536417322834645
 30
0.0
 10
-7.975614173228347
 20
0.7536417322834645
 30
0.0
 10
-7.975614173228347
 20
0.7536417322834645
 30
0.0
 10
-7.975614173228347
 20
0.9520866141732284
 30
0.0
 10
-7.975614173228347
 20
0.9520866141732284
 30
0.0
 10
-7.975614173228347
 20
0.9520866141732284
 30
0.0
 10
-8.04490157480315
 20
0.9671653543307087
 30
0.0
 10
-8.113133858267716
 20
0.9869370078740157
 30
0.0
 10
-8.17951968503937
 20
1.011129921259843
 30
0.0
 10
-8.17951968503937
 20
1.011129921259843
 30
0.0
 10
-8.223673228346456
 20
1.027220472440945
 30
0.0
 10
-8.238263779527559
 20
1.064976377952756
 30
0.0
 10
-8.251507874015749
 20
1.105409448818898
 30
0.0
 10
-8.251507874015749
 20
1.105409448818898
 30
0.0
 10
-8.256031496062992
 20
1.104232283464567
 30
0.0
 10
-8.260283464566928
 20
1.102334645669291
 30
0.0
 10
-8.264350393700788
 20
1.099657480314961
 30
0.0
 10
-8.264350393700788
 20
1.099657480314961
 30
0.0
 10
-8.282606299212599
 20
1.087649606299213
 30
0.0
 10
-8.296996062992125
 20
1.05840157480315
 30
0.0
 10
-8.309566929133858
 20
1.040354330708661
 30
0.0
 10
-8.309566929133858
 20
1.040354330708661
 30
0.0
 10
-8.322251968503936
 20
1.022145669291339
 30
0.0
 10
-8.336830708661417
 20
1.006759842519685
 30
0.0
 10
-8.357834645669291
 20
0.9981929133858267
 30
0.0
 10
-8.357834645669291
 20
0.9981929133858267
 30
0.0
 10
-8.418377952755906
 20
0.973503937007874
 30
0.0
 10
-8.481393700787402
 20
0.9548700787401575
 30
0.0
 10
-8.545614173228346
 20
0.9417047244094489
 30
0.0
 10
-8.545614173228346
 20
0.9417047244094489
 30
0.0
 10
-8.545614173228346
 20
0.9417047244094489
 30
0.0
 10
-8.545614173228346
 20
0.7536417322834645
 30
0.0
 10
-8.545614173228346
 20
0.7536417322834645
 30
0.0
 10
-8.545614173228346
 20
0.7536417322834645
 30
0.0
 10
-8.545614173228346
 20
0.7536417322834645
 30
0.0
 10
-9.225614173228346
 20
0.7536417322834645
 30
0.0
 10
-9.225614173228346
 20
0.7536417322834645
 30
0.0
 10
-9.225614173228346
 20
0.7536417322834645
 30
0.0
 10
-9.225614173228346
 20
0.7536417322834645
 30
0.0
 10
-9.225614173228346
 20
0.9186456692913386
 30
0.0
 10
-9.225614173228346
 20
0.9186456692913386
 30
0.0
 10
-9.225614173228346
 20
0.9186456692913386
 30
0.0
 10
-9.333232283464566
 20
0.9245748031496063
 30
0.0
 10
-9.440181102362205
 20
0.9443307086614173
 30
0.0
 10
-9.544271653543307
 20
0.9714370078740158
 30
0.0
 10
-9.544271653543307
 20
0.9714370078740158
 30
0.0
 10
-9.610814960629922
 20
0.988763779527559
 30
0.0
 10
-9.683047244094489
 20
1.00663779527559
 30
0.0
 10
-9.723039370078741
 20
1.068224409448819
 30
0.0
 10
-9.723039370078741
 20
1.068224409448819
 30
0.0
 10
-9.723039370078741
 20
1.068224409448819
 30
0.0
 10
-9.726
 20
1.072783464566929
 30
0.0
 10
-9.726
 20
1.072783464566929
 30
0.0
 10
-9.726
 20
1.072783464566929
 30
0.0
 10
-9.726
 20
1.072783464566929
 30
0.0
 10
-9.72624409448819
 20
1.078216535433071
 30
0.0
 10
-9.72624409448819
 20
1.078216535433071
 30
0.0
 10
-9.72624409448819
 20
1.078216535433071
 30
0.0
 10
-9.729070866141733
 20
1.141051181102362
 30
0.0
 10
-9.718641732283464
 20
1.203
 30
0.0
 10
-9.696688976377953
 20
1.261877952755905
 30
0.0
 10
-9.696688976377953
 20
1.261877952755905
 30
0.0
 10
-9.649169291338582
 20
1.389322834645669
 30
0.0
 10
-9.55048031496063
 20
1.496574803149606
 30
0.0
 10
-9.43711811023622
 20
1.570035433070866
 30
0.0
 10
-9.43711811023622
 20
1.570035433070866
 30
0.0
 10
-9.713177165354331
 20
1.852181102362205
 30
0.0
 10
-9.917141732283465
 20
2.205472440944882
 30
0.0
 10
-10.01792519685039
 20
2.587452755905512
 30
0.0
 10
-10.01792519685039
 20
2.587452755905512
 30
0.0
 10
-10.08940551181102
 20
2.858366141732283
 30
0.0
 10
-10.08079921259842
 20
3.139716535433071
 30
0.0
 10
-10.09120866141732
 20
3.41736220472441
 30
0.0
 10
-10.09120866141732
 20
3.41736220472441
 30
0.0
 10
-10.18655118110236
 20
3.328255905511811
 30
0.0
 10
-10.27144094488189
 20
3.226625984251969
 30
0.0
 10
-10.37892519685039
 20
3.151555118110236
 30
0.0
 10
-10.37892519685039
 20
3.151555118110236
 30
0.0
 10
-10.29586220472441
 20
2.949358267716535
 30
0.0
 10
-10.20644881889764
 20
2.749775590551181
 30
0.0
 10
-10.1121968503937
 20
2.55255905511811
 30
0.0
 10
-10.1121968503937
 20
2.55255905511811
 30
0.0
 10
-10.1121968503937
 20
2.55255905511811
 30
0.0
 10
-10.07338976377953
 20
2.471358267716536
 30
0.0
 10
-10.07338976377953
 20
2.471358267716536
 30
0.0
 10
-10.07338976377953
 20
2.471358267716536
 30
0.0
 10
-10.07338976377953
 20
2.471358267716536
 30
0.0
 10
-10.23579133858268
 20
2.393736220472441
 30
0.0
 10
-10.23579133858268
 20
2.393736220472441
 30
0.0
 10
-10.23579133858268
 20
2.393736220472441
 30
0.0
 10
-10.23579133858268
 20
2.393736220472441
 30
0.0
 10
-10.2746062992126
 20
2.474937007874016
 30
0.0
 10
-10.2746062992126
 20
2.474937007874016
 30
0.0
 10
-10.2746062992126
 20
2.474937007874016
 30
0.0
 10
-10.36813385826772
 20
2.670610236220472
 30
0.0
 10
-10.45692519685039
 20
2.868594488188976
 30
0.0
 10
-10.53962204724409
 20
3.06909842519685
 30
0.0
 10
-10.53962204724409
 20
3.06909842519685
 30
0.0
 10
-10.70190551181102
 20
3.007964566929134
 30
0.0
 10
-10.88716929133858
 20
2.980602362204725
 30
0.0
 10
-11.05219291338583
 20
3.046795275590551
 30
0.0
 10
-11.05219291338583
 20
3.046795275590551
 30
0.0
 10
-11.05219291338583
 20
3.046795275590551
 30
0.0
 10
-11.06636220472441
 20
3.052476377952756
 30
0.0
 10
-11.06636220472441
 20
3.052476377952756
 30
0.0
 10
-11.06636220472441
 20
3.052476377952756
 30
0.0
 10
-11.06636220472441
 20
3.052476377952756
 30
0.0
 10
-11.06461417322835
 20
3.067645669291339
 30
0.0
 10
-11.06461417322835
 20
3.067645669291339
 30
0.0
 10
-11.06461417322835
 20
3.067645669291339
 30
0.0
 10
-11.05240157480315
 20
3.173594488188976
 30
0.0
 10
-10.97529133858268
 20
3.245661417322835
 30
0.0
 10
-10.9040905511811
 20
3.316854330708662
 30
0.0
 10
-10.9040905511811
 20
3.316854330708662
 30
0.0
 10
-10.84000787401575
 20
3.380929133858268
 30
0.0
 10
-10.7739842519685
 20
3.443015748031496
 30
0.0
 10
-10.70759448818898
 20
3.504685039370079
 30
0.0
 10
-10.70759448818898
 20
3.504685039370079
 30
0.0
 10
-10.86585039370079
 20
3.946889763779528
 30
0.0
 10
-10.99111811023622
 20
4.40407874015748
 30
0.0
 10
-11.05905905511811
 20
4.869240157480315
 30
0.0
 10
-11.05905905511811
 20
4.869240157480315
 30
0.0
 10
-11.14798818897638
 20
5.478055118110237
 30
0.0
 10
-11.13494488188976
 20
6.104988188976378
 30
0.0
 10
-10.94896850393701
 20
6.69486220472441
 30
0.0
 10
-10.94896850393701
 20
6.69486220472441
 30
0.0
 10
-10.94896850393701
 20
6.69486220472441
 30
0.0
 10
-11.12311023622047
 20
6.573452755905512
 30
0.0
 10
-11.12311023622047
 20
6.573452755905512
 30
0.0
 10
-11.12311023622047
 20
6.573452755905512
 30
0.0
 10
-11.24956692913386
 20
6.485291338582678
 30
0.0
 10
-11.41009842519685
 20
6.406377952755905
 30
0.0
 10
-11.56356692913386
 20
6.383610236220473
 30
0.0
 10
-11.56356692913386
 20
6.383610236220473
 30
0.0
 10
-11.6201220472441
 20
6.375224409448819
 30
0.0
 10
-11.73032283464567
 20
6.369377952755905
 30
0.0
 10
-11.76875196850394
 20
6.420374015748031
 30
0.0
 10
-11.76875196850394
 20
6.420374015748031
 30
0.0
 10
-11.81054724409449
 20
6.475846456692913
 30
0.0
 10
-11.76535433070866
 20
6.592767716535433
 30
0.0
 10
-11.73795275590551
 20
6.647877952755906
 30
0.0
 10
-11.73795275590551
 20
6.647877952755906
 30
0.0
 10
-11.66222047244094
 20
6.800204724409449
 30
0.0
 10
-11.52524015748032
 20
6.939228346456693
 30
0.0
 10
-11.39033070866142
 20
7.040893700787402
 30
0.0
 10
-11.39033070866142
 20
7.040893700787402
 30
0.0
 10
-11.36197244094488
 20
7.062259842519685
 30
0.0
 10
-11.33287007874016
 20
7.082645669291338
 30
0.0
 10
-11.30306299212598
 20
7.101937007874016
 30
0.0
 10
-11.30306299212598
 20
7.101937007874016
 30
0.0
 10
-11.30306299212598
 20
7.101937007874016
 30
0.0
 10
-11.06115354330709
 20
7.258511811023622
 30
0.0
 10
-11.06115354330709
 20
7.258511811023622
 30
0.0
 10
-11.06115354330709
 20
7.258511811023622
 30
0.0
 10
-11.06115354330709
 20
7.258511811023622
 30
0.0
 10
-11.33375196850394
 20
7.351909448818898
 30
0.0
 10
-11.33375196850394
 20
7.351909448818898
 30
0.0
 10
-11.33375196850394
 20
7.351909448818898
 30
0.0
 10
-11.36734645669291
 20
7.36342125984252
 30
0.0
 10
-11.4005157480315
 20
7.376161417322835
 30
0.0
 10
-11.43320078740157
 20
7.390035433070866
 30
0.0
 10
-11.43320078740157
 20
7.390035433070866
 30
0.0
 10
-11.5886968503937
 20
7.456031496062992
 30
0.0
 10
-11.75524803149606
 20
7.557787401574803
 30
0.0
 10
-11.86557480314961
 20
7.687271653543307
 30
0.0
 10
-11.86557480314961
 20
7.687271653543307
 30
0.0
 10
-11.88803543307087
 20
7.713625984251968
 30
0.0
 10
-11.90933464566929
 20
7.743692913385827
 30
0.0
 10
-11.92603937007874
 20
7.773988188976378
 30
0.0
 10
-11.92603937007874
 20
7.773988188976378
 30
0.0
 10
-11.94535433070866
 20
7.809011811023622
 30
0.0
 10
-11.96735039370079
 20
7.860858267716536
 30
0.0
 10
-11.95049606299213
 20
7.900562992125984
 30
0.0
 10
-11.95049606299213
 20
7.900562992125984
 30
0.0
 10
-11.92338582677165
 20
7.964433070866142
 30
0.0
 10
-11.79944488188976
 20
7.983826771653543
 30
0.0
 10
-11.73807086614173
 20
7.987649606299213
 30
0.0
 10
-11.73807086614173
 20
7.987649606299213
 30
0.0
 10
-11.56829133858268
 20
7.998224409448819
 30
0.0
 10
-11.37939763779528
 20
7.949122047244095
 30
0.0
 10
-11.22390551181102
 20
7.883106299212598
 30
0.0
 10
-11.22390551181102
 20
7.883106299212598
 30
0.0
 10
-11.19122047244094
 20
7.869228346456693
 30
0.0
 10
-11.15901181102362
 20
7.854216535433071
 30
0.0
 10
-11.1273937007874
 20
7.838043307086614
 30
0.0
 10
-11.1273937007874
 20
7.838043307086614
 30
0.0
 10
-11.1273937007874
 20
7.838043307086614
 30
0.0
 10
-10.87085826771654
 20
7.706846456692913
 30
0.0
 10
-10.87085826771654
 20
7.706846456692913
 30
0.0
 10
-10.87085826771654
 20
7.706846456692913
 30
0.0
 10
-10.87085826771654
 20
7.706846456692913
 30
0.0
 10
-10.92626377952756
 20
7.989614173228347
 30
0.0
 10
-10.92626377952756
 20
7.989614173228347
 30
0.0
 10
-10.92626377952756
 20
7.989614173228347
 30
0.0
 10
-10.9330905511811
 20
8.024456692913386
 30
0.0
 10
-10.93864566929134
 20
8.059551181102362
 30
0.0
 10
-10.94297244094488
 20
8.094791338582677
 30
0.0
 10
-10.94297244094488
 20
8.094791338582677
 30
0.0
 10
-10.96355905511811
 20
8.262460629921259
 30
0.0
 10
-10.95870866141732
 20
8.457574803149607
 30
0.0
 10
-10.90174015748032
 20
8.617870078740157
 30
0.0
 10
-10.90174015748032
 20
8.617870078740157
 30
0.0
 10
-10.88114960629921
 20
8.675807086614173
 30
0.0
 10
-10.82834251968504
 20
8.789602362204725
 30
0.0
 10
-10.7594842519685
 20
8.798055118110236
 30
0.0
 10
-10.7594842519685
 20
8.798055118110236
 30
0.0
 10
-10.71666929133858
 20
8.803311023622047
 30
0.0
 10
-10.6728937007874
 20
8.767877952755905
 30
0.0
 10
-10.64454724409449
 20
8.73965748031496
 30
0.0
 10
-10.64454724409449
 20
8.73965748031496
 30
0.0
 10
-10.62003149606299
 20
8.715251968503937
 30
0.0
 10
-10.597
 20
8.686488188976378
 30
0.0
 10
-10.57785826771654
 20
8.657633858267717
 30
0.0
 10
-10.57785826771654
 20
8.657633858267717
 30
0.0
 10
-10.4838031496063
 20
8.515889763779528
 30
0.0
 10
-10.43188976377953
 20
8.327748031496062
 30
0.0
 10
-10.41131102362205
 20
8.160082677165354
 30
0.0
 10
-10.41131102362205
 20
8.160082677165354
 30
0.0
 10
-10.4069842519685
 20
8.124838582677166
 30
0.0
 10
-10.40388188976378
 20
8.08944094488189
 30
0.0
 10
-10.40207480314961
 20
8.053976377952756
 30
0.0
 10
-10.40207480314961
 20
8.053976377952756
 30
0.0
 10
-10.40207480314961
 20
8.053976377952756
 30
0.0
 10
-10.38743700787402
 20
7.766196850393701
 30
0.0
 10
-10.38743700787402
 20
7.766196850393701
 30
0.0
 10
-10.38743700787402
 20
7.766196850393701
 30
0.0
 10
-10.38743700787402
 20
7.766196850393701
 30
0.0
 10
-10.17025196850394
 20
7.955570866141732
 30
0.0
 10
-10.17025196850394
 20
7.955570866141732
 30
0.0
 10
-10.17025196850394
 20
7.955570866141732
 30
0.0
 10
-10.14348818897638
 20
7.978909448818897
 30
0.0
 10
-10.11587401574803
 20
8.001267716535432
 30
0.0
 10
-10.0875157480315
 20
8.02263779527559
 30
0.0
 10
-10.0875157480315
 20
8.02263779527559
 30
0.0
 10
-9.952602362204724
 20
8.124299212598425
 30
0.0
 10
-9.781208661417322
 20
8.21765748031496
 30
0.0
 10
-9.613905511811023
 20
8.248464566929133
 30
0.0
 10
-9.613905511811023
 20
8.248464566929133
 30
0.0
 10
-9.553397637795275
 20
8.259606299212598
 30
0.0
 10
-9.428515748031495
 20
8.270807086614173
 30
0.0
 10
-9.386732283464568
 20
8.215358267716535
 30
0.0
 10
-9.386732283464568
 20
8.215358267716535
 30
0.0
 10
-9.344929133858267
 20
8.159889763779528
 30
0.0
 10
-9.390129921259842
 20
8.042964566929134
 30
0.0
 10
-9.417527559055118
 20
7.987858267716535
 30
0.0
 10
-9.417527559055118
 20
7.987858267716535
 30
0.0
 10
-9.49325590551181
 20
7.835527559055119
 30
0.0
 10
-9.63023622047244
 20
7.696507874015748
 30
0.0
 10
-9.76514566929134
 20
7.59484251968504
 30
0.0
 10
-9.76514566929134
 20
7.59484251968504
 30
0.0
 10
-9.793507874015749
 20
7.573472440944882
 30
0.0
 10
-9.822614173228347
 20
7.553090551181103
 30
0.0
 10
-9.852425196850394
 20
7.533795275590551
 30
0.0
 10
-9.852425196850394
 20
7.533795275590551
 30
0.0
 10
-9.852425196850394
 20
7.533795275590551
 30
0.0
 10
-10.09430708661417
 20
7.377236220472441
 30
0.0
 10
-10.09430708661417
 20
7.377236220472441
 30
0.0
 10
-10.09430708661417
 20
7.377236220472441
 30
0.0
 10
-10.09430708661417
 20
7.377236220472441
 30
0.0
 10
-9.821736220472442
 20
7.283826771653543
 30
0.0
 10
-9.821736220472442
 20
7.283826771653543
 30
0.0
 10
-9.821736220472442
 20
7.283826771653543
 30
0.0
 10
-9.788141732283465
 20
7.272314960629921
 30
0.0
 10
-9.754968503937008
 20
7.259578740157481
 30
0.0
 10
-9.722279527559055
 20
7.245700787401574
 30
0.0
 10
-9.722279527559055
 20
7.245700787401574
 30
0.0
 10
-9.566787401574803
 20
7.179688976377952
 30
0.0
 10
-9.400236220472442
 20
7.07794094488189
 30
0.0
 10
-9.289905511811023
 20
6.948456692913386
 30
0.0
 10
-9.289905511811023
 20
6.948456692913386
 30
0.0
 10
-9.267448818897638
 20
6.922102362204725
 30
0.0
 10
-9.246145669291339
 20
6.892039370078741
 30
0.0
 10
-9.22944094488189
 20
6.861744094488189
 30
0.0
 10
-9.22944094488189
 20
6.861744094488189
 30
0.0
 10
-9.216271653543307
 20
6.837866141732284
 30
0.0
 10
-9.201854330708661
 20
6.806169291338582
 30
0.0
 10
-9.199358267716535
 20
6.775830708661418
 30
0.0
  0
SPLINE
  5
57
330
1F
100
AcDbEntity
  8
Layer 1
 62
     1
370
     9
100
AcDbSpline
210
0.0
220
0.0
230
1.0
 70
    11
 71
     3
 72
    88
 73
    84
 74
     0
 42
0.0000000001
 43
0.0000000001
 40
0.0
 40
0.0
 40
0.0
 40
0.0
 40
0.0454545454545455
 40
0.0454545454545455
 40
0.0454545454545455
 40
0.0454545454545455
 40
0.0909090909090909
 40
0.0909090909090909
 40
0.0909090909090909
 40
0.0909090909090909
 40
0.1363636363636364
 40
0.1363636363636364
 40
0.1363636363636364
 40
0.1363636363636364
 40
0.1818181818181818
 40
0.1818181818181818
 40
0.1818181818181818
 40
0.1818181818181818
 40
0.2272727272727273
 40
0.2272727272727273
 40
0.2272727272727273
 40
0.2272727272727273
 40
0.2727272727272727
 40
0.2727272727272727
 40
0.2727272727272727
 40
0.2727272727272727
 40
0.3181818181818182
 40
0.3181818181818182
 40
0.3181818181818182
 40
0.3181818181818182
 40
0.3636363636363636
 40
0.3636363636363636
 40
0.3636363636363636
 40
0.3636363636363636
 40
0.4090909090909091
 40
0.4090909090909091
 40
0.4090909090909091
 40
0.4090909090909091
 40
0.4545454545454545
 40
0.4545454545454545
 40
0.4545454545454545
 40
0.4545454545454545
 40
0.5
 40
0.5
 40
0.5
 40
0.5
 40
0.5454545454545454
 40
0.5454545454545454
 40
0.5454545454545454
 40
0.5454545454545454
 40
0.5909090909090909
 40
0.5909090909090909
 40
0.5909090909090909
 40
0.5909090909090909
 40
0.6363636363636364
 40
0.6363636363636364
 40
0.6363636363636364
 40
0.6363636363636364
 40
0.6818181818181818
 40
0.6818181818181818
 40
0.6818181818181818
 40
0.6818181818181818
 40
0.7272727272727273
 40
0.7272727272727273
 40
0.7272727272727273
 40
0.7272727272727273
 40
0.7727272727272727
 40
0.7727272727272727
 40
0.7727272727272727
 40
0.7727272727272727
 40
0.8181818181818182
 40
0.8181818181818182
 40
0.8181818181818182
 40
0.8181818181818182
 40
0.8636363636363636
 40
0.8636363636363636
 40
0.8636363636363636
 40
0.8636363636363636
 40
0.9090909090909091
 40
0.9090909090909091
 40
0.9090909090909091
 40
0.9090909090909091
 40
1.0
 40
1.0
 40
1.0
 40
1.0
 10
-9.178712598425196
 20
6.616598425196851
 30
0.0
 10
-9.213590551181102
 20
6.582070866141732
 30
0.0
 10
-9.246622047244095
 20
6.546492125984252
 30
0.0
 10
-9.277622047244094
 20
6.510692913385827
 30
0.0
 10
-9.277622047244094
 20
6.510692913385827
 30
0.0
 10
-9.442531496062992
 20
6.320248031496063
 30
0.0
 10
-9.561377952755905
 20
6.093283464566929
 30
0.0
 10
-9.637251968503938
 20
5.853716535433071
 30
0.0
 10
-9.637251968503938
 20
5.853716535433071
 30
0.0
 10
-9.767429133858268
 20
5.442716535433071
 30
0.0
 10
-9.814889763779528
 20
5.012846456692913
 30
0.0
 10
-9.890122047244095
 20
4.58998031496063
 30
0.0
 10
-9.890122047244095
 20
4.58998031496063
 30
0.0
 10
-9.932629921259842
 20
4.351047244094488
 30
0.0
 10
-10.08617716535433
 20
4.149645669291338
 30
0.0
 10
-10.23988188976378
 20
3.969452755905512
 30
0.0
 10
-10.23988188976378
 20
3.969452755905512
 30
0.0
 10
-10.34024409448819
 20
3.851799212598425
 30
0.0
 10
-10.45108267716535
 20
3.743775590551181
 30
0.0
 10
-10.56386614173228
 20
3.638165354330709
 30
0.0
 10
-10.56386614173228
 20
3.638165354330709
 30
0.0
 10
-10.70589763779528
 20
4.046299212598425
 30
0.0
 10
-10.81844488188976
 20
4.467334645669292
 30
0.0
 10
-10.88095275590551
 20
4.895255905511811
 30
0.0
 10
-10.88095275590551
 20
4.895255905511811
 30
0.0
 10
-10.96538582677165
 20
5.473318897637795
 30
0.0
 10
-10.95523622047244
 20
6.069145669291339
 30
0.0
 10
-10.78070472440945
 20
6.629862204724409
 30
0.0
 10
-10.78070472440945
 20
6.629862204724409
 30
0.0
 10
-10.78070472440945
 20
6.629862204724409
 30
0.0
 10
-10.72497244094488
 20
6.358070866141732
 30
0.0
 10
-10.72497244094488
 20
6.358070866141732
 30
0.0
 10
-10.72497244094488
 20
6.358070866141732
 30
0.0
 10
-10.69625984251969
 20
6.218047244094488
 30
0.0
 10
-10.64218503937008
 20
6.061157480314961
 30
0.0
 10
-10.5551968503937
 20
5.94644094488189
 30
0.0
 10
-10.5551968503937
 20
5.94644094488189
 30
0.0
 10
-10.53769291338583
 20
5.923358267716536
 30
0.0
 10
-10.51731889763779
 20
5.900716535433071
 30
0.0
 10
-10.49555118110236
 20
5.881618110236221
 30
0.0
 10
-10.49555118110236
 20
5.881618110236221
 30
0.0
 10
-10.46962204724409
 20
5.858870078740157
 30
0.0
 10
-10.43232677165354
 20
5.833212598425197
 30
0.0
 10
-10.39599606299213
 20
5.837673228346457
 30
0.0
 10
-10.39599606299213
 20
5.837673228346457
 30
0.0
 10
-10.32712992125984
 20
5.846129921259842
 30
0.0
 10
-10.27433070866142
 20
5.95992125984252
 30
0.0
 10
-10.25374015748032
 20
6.017862204724409
 30
0.0
 10
-10.25374015748032
 20
6.017862204724409
 30
0.0
 10
-10.19677559055118
 20
6.178153543307086
 30
0.0
 10
-10.19192519685039
 20
6.373267716535433
 30
0.0
 10
-10.21250787401575
 20
6.540929133858268
 30
0.0
 10
-10.21250787401575
 20
6.540929133858268
 30
0.0
 10
-10.21683464566929
 20
6.576177165354331
 30
0.0
 10
-10.22238582677165
 20
6.611271653543307
 30
0.0
 10
-10.2292125984252
 20
6.646122047244094
 30
0.0
 10
-10.2292125984252
 20
6.646122047244094
 30
0.0
 10
-10.2292125984252
 20
6.646122047244094
 30
0.0
 10
-10.28463779527559
 20
6.928913385826772
 30
0.0
 10
-10.28463779527559
 20
6.928913385826772
 30
0.0
 10
-10.28463779527559
 20
6.928913385826772
 30
0.0
 10
-10.28463779527559
 20
6.928913385826772
 30
0.0
 10
-10.02807874015748
 20
6.797692913385827
 30
0.0
 10
-10.02807874015748
 20
6.797692913385827
 30
0.0
 10
-10.02807874015748
 20
6.797692913385827
 30
0.0
 10
-9.996464566929134
 20
6.781523622047244
 30
0.0
 10
-9.964259842519684
 20
6.766507874015748
 30
0.0
 10
-9.931574803149607
 20
6.752633858267717
 30
0.0
 10
-9.931574803149607
 20
6.752633858267717
 30
0.0
 10
-9.77607874015748
 20
6.686629921259843
 30
0.0
 10
-9.587188976377952
 20
6.637503937007874
 30
0.0
 10
-9.417401574803149
 20
6.648086614173228
 30
0.0
 10
-9.417401574803149
 20
6.648086614173228
 30
0.0
 10
-9.37590157480315
 20
6.650673228346457
 30
0.0
 10
-9.305783464566929
 20
6.660377952755906
 30
0.0
 10
-9.256354330708662
 20
6.686141732283464
 30
0.0
 10
-9.256354330708662
 20
6.686141732283464
 30
0.0
 10
-9.222850393700787
 20
6.678523622047244
 30
0.0
 10
-9.194464566929135
 20
6.657433070866142
 30
0.0
 10
-9.177192913385827
 20
6.62888188976378
 30
0.0
 10
-9.177192913385827
 20
6.62888188976378
 30
0.0
 10
-9.174767716535433
 20
6.624877952755906
 30
0.0
 10
-9.175385826771654
 20
6.619889763779527
 30
0.0
 10
-9.178712598425196
 20
6.616598425196851
 30
0.0
  0
ENDSEC
  0
SECTION
  2
OBJECTS
  0
DICTIONARY
  5
C
330
0
100
AcDbDictionary
281
     1
  3
ACAD_GROUP
350
D
  3
ACAD_LAYOUT
350
1A
  3
ACAD_MATERIAL
350
3B
  3
ACAD_MLEADERSTYLE
350
79
  3
ACAD_MLINESTYLE
350
17
  3
ACAD_PLOTSETTINGS
350
19
  3
ACAD_PLOTSTYLENAME
350
E
  3
ACAD_TABLESTYLE
350
78
  3
ACAD_VISUALSTYLE
350
2A
  0
DICTIONARY
  5
D
102
{ACAD_REACTORS
330
C
102
}
330
C
100
AcDbDictionary
281
     1
  0
DICTIONARY
  5
1A
102
{ACAD_REACTORS
330
C
102
}
330
C
100
AcDbDictionary
281
     1
  3
Layout1
350
1E
  3
Layout2
350
26
  3
Model
350
22
  0
DICTIONARY
  5
3B
102
{ACAD_REACTORS
330
C
102
}
330
C
100
AcDbDictionary
281
     1
  3
ByBlock
350
3D
  3
ByLayer
350
3C
  3
Global
350
3E
  0
DICTIONARY
  5
79
102
{ACAD_REACTORS
330
C
102
}
330
C
100
AcDbDictionary
281
     1
  0
DICTIONARY
  5
17
102
{ACAD_REACTORS
330
C
102
}
330
C
100
AcDbDictionary
281
     1
  3
Standard
350
18
  0
DICTIONARY
  5
19
102
{ACAD_REACTORS
330
C
102
}
330
C
100
AcDbDictionary
281
     1
  0
ACDBDICTIONARYWDFLT
  5
E
102
{ACAD_REACTORS
330
C
102
}
330
C
100
AcDbDictionary
281
     1
  3
Normal
350
F
100
AcDbDictionaryWithDefault
340
F
  0
DICTIONARY
  5
78
102
{ACAD_REACTORS
330
C
102
}
330
C
100
AcDbDictionary
281
     1
  0
DICTIONARY
  5
2A
102
{ACAD_REACTORS
330
C
102
}
330
C
100
AcDbDictionary
281
     1
  3
2dWireframe
350
2F
  3
3D Hidden
350
31
  3
3dWireframe
350
30
  3
Basic
350
32
  3
Brighten
350
36
  3
ColorChange
350
3A
  3
Conceptual
350
34
  3
Dim
350
35
  3
Facepattern
350
39
  3
Flat
350
2B
  3
FlatWithEdges
350
2C
  3
Gouraud
350
2D
  3
GouraudWithEdges
350
2E
  3
Linepattern
350
38
  3
Realistic
350
33
  3
Thicken
350
37
  0
LAYOUT
  5
1E
102
{ACAD_REACTORS
330
1A
102
}
330
1A
100
AcDbPlotSettings
  1

  2
none_device
  4

  6

 40
0.0
 41
0.0
 42
0.0
 43
0.0
 44
0.0
 45
0.0
 46
0.0
 47
0.0
 48
0.0
 49
0.0
140
0.0
141
0.0
142
1.0
143
1.0
 70
   688
 72
     0
 73
     0
 74
     5
  7

 75
    16
 76
     0
 77
     2
 78
   300
147
1.0
148
0.0
149
0.0
100
AcDbLayout
  1
Layout1
 70
     1
 71
     1
 10
0.0
 20
0.0
 11
12.0
 21
9.0
 12
0.0
 22
0.0
 32
0.0
 14
1.000000000000000E+20
 24
1.000000000000000E+20
 34
1.000000000000000E+20
 15
-1.000000000000000E+20
 25
-1.000000000000000E+20
 35
-1.000000000000000E+20
146
0.0
 13
0.0
 23
0.0
 33
0.0
 16
1.0
 26
0.0
 36
0.0
 17
0.0
 27
1.0
 37
0.0
 76
     0
330
1B
  0
LAYOUT
  5
26
102
{ACAD_REACTORS
330
1A
102
}
330
1A
100
AcDbPlotSettings
  1

  2
none_device
  4

  6

 40
0.0
 41
0.0
 42
0.0
 43
0.0
 44
0.0
 45
0.0
 46
0.0
 47
0.0
 48
0.0
 49
0.0
140
0.0
141
0.0
142
1.0
143
1.0
 70
   688
 72
     0
 73
     0
 74
     5
  7

 75
    16
 76
     0
 77
     2
 78
   300
147
1.0
148
0.0
149
0.0
100
AcDbLayout
  1
Layout2
 70
     1
 71
     2
 10
0.0
 20
0.0
 11
0.0
 21
0.0
 12
0.0
 22
0.0
 32
0.0
 14
0.0
 24
0.0
 34
0.0
 15
0.0
 25
0.0
 35
0.0
146
0.0
 13
0.0
 23
0.0
 33
0.0
 16
1.0
 26
0.0
 36
0.0
 17
0.0
 27
1.0
 37
0.0
 76
     0
330
23
  0
LAYOUT
  5
22
102
{ACAD_REACTORS
330
1A
102
}
330
1A
100
AcDbPlotSettings
  1

  2
none_device
  4

  6

 40
0.0
 41
0.0
 42
0.0
 43
0.0
 44
0.0
 45
0.0
 46
0.0
 47
0.0
 48
0.0
 49
0.0
140
0.0
141
0.0
142
1.0
143
1.0
 70
  1712
 72
     0
 73
     0
 74
     0
  7

 75
     0
 76
     0
 77
     2
 78
   300
147
1.0
148
0.0
149
0.0
100
AcDbLayout
  1
Model
 70
     1
 71
     0
 10
0.0
 20
0.0
 11
12.0
 21
9.0
 12
0.0
 22
0.0
 32
0.0
 14
-11.958
 24
-2.051905511811023
 34
0.0
 15
-5.240724409448819
 25
8.800074803149606
 35
0.0
146
0.0
 13
0.0
 23
0.0
 33
0.0
 16
1.0
 26
0.0
 36
0.0
 17
0.0
 27
1.0
 37
0.0
 76
     0
330
1F
331
29
  0
MATERIAL
  5
3D
102
{ACAD_REACTORS
330
3B
102
}
330
3B
100
AcDbMaterial
  1
ByBlock
 72
     1
 94
      127
  0
MATERIAL
  5
3C
102
{ACAD_REACTORS
330
3B
102
}
330
3B
100
AcDbMaterial
  1
ByLayer
 72
     1
 94
      127
  0
MATERIAL
  5
3E
102
{ACAD_REACTORS
330
3B
102
}
330
3B
100
AcDbMaterial
  1
Global
 72
     1
 94
      127
  0
MLINESTYLE
  5
18
102
{ACAD_REACTORS
330
17
102
}
330
17
100
AcDbMlineStyle
  2
Standard
 70
     0
  3

 62
   256
 51
90.0
 52
90.0
 71
     2
 49
0.5
 62
   256
  6
BYLAYER
 49
-0.5
 62
   256
  6
BYLAYER
  0
ACDBPLACEHOLDER
  5
F
102
{ACAD_REACTORS
330
E
102
}
330
E
  0
VISUALSTYLE
  5
2F
102
{ACAD_REACTORS
330
2A
102
}
102
{ACAD_XDICTIONARY
360
60
102
}
330
2A
100
AcDbVisualStyle
  2
2dWireframe
 70
     4
 71
     0
 72
     2
 73
     0
 90
        0
 40
-0.6
 41
-30.0
 62
     5
 63
     7
421
 16777215
 74
     1
 91
        4
 64
     7
 65
   257
 75
     1
175
     1
 42
1.0
 92
        0
 66
   257
 43
1.0
 76
     1
 77
     6
 78
     2
 67
     7
 79
     5
170
     0
171
     0
290
     0
174
     0
 93
        1
 44
0.0
173
     0
291
     0
 45
0.0
  0
VISUALSTYLE
  5
31
102
{ACAD_REACTORS
330
2A
102
}
102
{ACAD_XDICTIONARY
360
64
102
}
330
2A
100
AcDbVisualStyle
  2
3D Hidden
 70
     6
 71
     1
 72
     2
 73
     2
 90
        0
 40
-0.6
 41
-30.0
 62
     5
 63
     7
421
 16777215
 74
     2
 91
        2
 64
     7
 65
   257
 75
     2
175
     1
 42
40.0
 92
        0
 66
   257
 43
1.0
 76
     1
 77
     6
 78
     2
 67
     7
 79
     3
170
     0
171
     0
290
     0
174
     0
 93
        1
 44
0.0
173
     0
291
     0
 45
0.0
  0
VISUALSTYLE
  5
30
102
{ACAD_REACTORS
330
2A
102
}
102
{ACAD_XDICTIONARY
360
62
102
}
330
2A
100
AcDbVisualStyle
  2
3dWireframe
 70
     5
 71
     0
 72
     2
 73
     0
 90
        0
 40
-0.6
 41
-30.0
 62
     5
 63
     7
421
 16777215
 74
     1
 91
        4
 64
     7
 65
   257
 75
     1
175
     1
 42
1.0
 92
        0
 66
   257
 43
1.0
 76
     1
 77
     6
 78
     2
 67
     7
 79
     5
170
     0
171
     0
290
     0
174
     0
 93
        1
 44
0.0
173
     0
291
     0
 45
0.0
  0
VISUALSTYLE
  5
32
102
{ACAD_REACTORS
330
2A
102
}
102
{ACAD_XDICTIONARY
360
66
102
}
330
2A
100
AcDbVisualStyle
  2
Basic
 70
     7
 71
     1
 72
     0
 73
     1
 90
        0
 40
-0.6
 41
-30.0
 62
     5
 63
     7
421
 16777215
 74
     0
 91
        4
 64
     7
 65
   257
 75
     1
175
     1
 42
1.0
 92
        8
 66
     7
 43
1.0
 76
     1
 77
     6
 78
     2
 67
     7
 79
     5
170
     0
171
     0
290
     0
174
     0
 93
        1
 44
0.0
173
     0
291
     1
 45
0.0
  0
VISUALSTYLE
  5
36
102
{ACAD_REACTORS
330
2A
102
}
102
{ACAD_XDICTIONARY
360
6E
102
}
330
2A
100
AcDbVisualStyle
  2
Brighten
 70
    12
 71
     2
 72
     2
 73
     0
 90
        0
 40
-0.6
 41
-30.0
 62
     5
 63
     7
421
 16777215
 74
     1
 91
        4
 64
     7
 65
   257
 75
     1
175
     1
 42
1.0
 92
        8
 66
     7
 43
1.0
 76
     1
 77
     6
 78
     2
 67
     7
 79
     5
170
     0
171
     0
290
     0
174
     0
 93
        1
 44
50.0
173
     0
291
     1
 45
0.0
  0
VISUALSTYLE
  5
3A
102
{ACAD_REACTORS
330
2A
102
}
102
{ACAD_XDICTIONARY
360
76
102
}
330
2A
100
AcDbVisualStyle
  2
ColorChange
 70
    16
 71
     2
 72
     2
 73
     3
 90
        0
 40
-0.6
 41
-30.0
 62
     5
 63
     8
421
  8421504
 74
     1
 91
        4
 64
     7
 65
   257
 75
     1
175
     1
 42
1.0
 92
        8
 66
     8
424
  8421504
 43
1.0
 76
     1
 77
     6
 78
     2
 67
     7
 79
     5
170
     0
171
     0
290
     0
174
     0
 93
        1
 44
0.0
173
     0
291
     1
 45
0.0
  0
VISUALSTYLE
  5
34
102
{ACAD_REACTORS
330
2A
102
}
102
{ACAD_XDICTIONARY
360
6A
102
}
330
2A
100
AcDbVisualStyle
  2
Conceptual
 70
     9
 71
     3
 72
     2
 73
     0
 90
        0
 40
-0.6
 41
-30.0
 62
     5
 63
     7
421
 16777215
 74
     2
 91
        2
 64
     7
 65
   257
 75
     1
175
     1
 42
40.0
 92
        8
 66
     7
 43
1.0
 76
     1
 77
     6
 78
     2
 67
     7
 79
     3
170
     0
171
     0
290
     0
174
     0
 93
        1
 44
0.0
173
     0
291
     0
 45
0.0
  0
VISUALSTYLE
  5
35
102
{ACAD_REACTORS
330
2A
102
}
102
{ACAD_XDICTIONARY
360
6C
102
}
330
2A
100
AcDbVisualStyle
  2
Dim
 70
    11
 71
     2
 72
     2
 73
     0
 90
        0
 40
-0.6
 41
-30.0
 62
     5
 63
     7
421
 16777215
 74
     1
 91
        4
 64
     7
 65
   257
 75
     1
175
     1
 42
1.0
 92
        8
 66
     7
 43
1.0
 76
     1
 77
     6
 78
     2
 67
     7
 79
     5
170
     0
171
     0
290
     0
174
     0
 93
        1
 44
-50.0
173
     0
291
     1
 45
0.0
  0
VISUALSTYLE
  5
39
102
{ACAD_REACTORS
330
2A
102
}
102
{ACAD_XDICTIONARY
360
74
102
}
330
2A
100
AcDbVisualStyle
  2
Facepattern
 70
    15
 71
     2
 72
     2
 73
     0
 90
        0
 40
-0.6
 41
-30.0
 62
     5
 63
     7
421
 16777215
 74
     1
 91
        4
 64
     7
 65
   257
 75
     1
175
     1
 42
1.0
 92
        8
 66
     7
 43
1.0
 76
     1
 77
     6
 78
     2
 67
     7
 79
     5
170
     0
171
     0
290
     0
174
     0
 93
        1
 44
0.0
173
     0
291
     1
 45
0.0
  0
VISUALSTYLE
  5
2B
102
{ACAD_REACTORS
330
2A
102
}
102
{ACAD_XDICTIONARY
360
58
102
}
330
2A
100
AcDbVisualStyle
  2
Flat
 70
     0
 71
     2
 72
     1
 73
     1
 90
        2
 40
-0.6
 41
30.0
 62
     5
 63
     7
421
 16777215
 74
     0
 91
        4
 64
     7
 65
   257
 75
     1
175
     1
 42
1.0
 92
        8
 66
     7
 43
1.0
 76
     1
 77
     6
 78
     2
 67
     7
 79
     5
170
     0
171
     0
290
     0
174
     0
 93
       13
 44
0.0
173
     0
291
     1
 45
0.0
  0
VISUALSTYLE
  5
2C
102
{ACAD_REACTORS
330
2A
102
}
102
{ACAD_XDICTIONARY
360
5A
102
}
330
2A
100
AcDbVisualStyle
  2
FlatWithEdges
 70
     1
 71
     2
 72
     1
 73
     1
 90
        2
 40
-0.6
 41
30.0
 62
     5
 63
     7
421
 16777215
 74
     1
 91
        4
 64
     7
 65
   257
 75
     1
175
     1
 42
1.0
 92
        0
 66
   257
 43
1.0
 76
     1
 77
     6
 78
     2
 67
     7
 79
     5
170
     0
171
     0
290
     0
174
     0
 93
       13
 44
0.0
173
     0
291
     1
 45
0.0
  0
VISUALSTYLE
  5
2D
102
{ACAD_REACTORS
330
2A
102
}
102
{ACAD_XDICTIONARY
360
5C
102
}
330
2A
100
AcDbVisualStyle
  2
Gouraud
 70
     2
 71
     2
 72
     2
 73
     1
 90
        2
 40
-0.6
 41
30.0
 62
     5
 63
     7
421
 16777215
 74
     0
 91
        4
 64
     7
 65
   257
 75
     1
175
     1
 42
1.0
 92
        0
 66
     7
 43
1.0
 76
     1
 77
     6
 78
     2
 67
     7
 79
     5
170
     0
171
     0
290
     0
174
     0
 93
       13
 44
0.0
173
     0
291
     1
 45
0.0
  0
VISUALSTYLE
  5
2E
102
{ACAD_REACTORS
330
2A
102
}
102
{ACAD_XDICTIONARY
360
5E
102
}
330
2A
100
AcDbVisualStyle
  2
GouraudWithEdges
 70
     3
 71
     2
 72
     2
 73
     1
 90
        2
 40
-0.6
 41
30.0
 62
     5
 63
     7
421
 16777215
 74
     1
 91
        4
 64
     7
 65
   257
 75
     1
175
     1
 42
1.0
 92
        0
 66
   257
 43
1.0
 76
     1
 77
     6
 78
     2
 67
     7
 79
     5
170
     0
171
     0
290
     0
174
     0
 93
       13
 44
0.0
173
     0
291
     1
 45
0.0
  0
VISUALSTYLE
  5
38
102
{ACAD_REACTORS
330
2A
102
}
102
{ACAD_XDICTIONARY
360
72
102
}
330
2A
100
AcDbVisualStyle
  2
Linepattern
 70
    14
 71
     2
 72
     2
 73
     0
 90
        0
 40
-0.6
 41
-30.0
 62
     5
 63
     7
421
 16777215
 74
     1
 91
        4
 64
     7
 65
   257
 75
     7
175
     7
 42
1.0
 92
        8
 66
     7
 43
1.0
 76
     1
 77
     6
 78
     2
 67
     7
 79
     5
170
     0
171
     0
290
     0
174
     0
 93
        1
 44
0.0
173
     0
291
     1
 45
0.0
  0
VISUALSTYLE
  5
33
102
{ACAD_REACTORS
330
2A
102
}
102
{ACAD_XDICTIONARY
360
68
102
}
330
2A
100
AcDbVisualStyle
  2
Realistic
 70
     8
 71
     2
 72
     2
 73
     0
 90
        0
 40
-0.6
 41
-30.0
 62
     5
 63
     7
421
 16777215
 74
     1
 91
        0
 64
     7
 65
   257
 75
     1
175
     1
 42
1.0
 92
        8
 66
     8
424
  7895160
 43
1.0
 76
     1
 77
     6
 78
     2
 67
     7
 79
     5
170
     0
171
     0
290
     0
174
     0
 93
       13
 44
0.0
173
     0
291
     0
 45
0.0
  0
VISUALSTYLE
  5
37
102
{ACAD_REACTORS
330
2A
102
}
102
{ACAD_XDICTIONARY
360
70
102
}
330
2A
100
AcDbVisualStyle
  2
Thicken
 70
    13
 71
     2
 72
     2
 73
     0
 90
        0
 40
-0.6
 41
-30.0
 62
     5
 63
     7
421
 16777215
 74
     1
 91
        4
 64
     7
 65
   257
 75
     1
175
     1
 42
1.0
 92
       12
 66
     7
 43
1.0
 76
     1
 77
     6
 78
     2
 67
     7
 79
     5
170
     0
171
     0
290
     0
174
     0
 93
        1
 44
0.0
173
     0
291
     1
 45
0.0
  0
DICTIONARY
  5
60
330
2F
100
AcDbDictionary
280
     1
281
     1
  3
ACAD_XREC_ROUNDTRIP
360
61
  0
DICTIONARY
  5
64
330
31
100
AcDbDictionary
280
     1
281
     1
  3
ACAD_XREC_ROUNDTRIP
360
65
  0
DICTIONARY
  5
62
330
30
100
AcDbDictionary
280
     1
281
     1
  3
ACAD_XREC_ROUNDTRIP
360
63
  0
DICTIONARY
  5
66
330
32
100
AcDbDictionary
280
     1
281
     1
  3
ACAD_XREC_ROUNDTRIP
360
67
  0
DICTIONARY
  5
6E
330
36
100
AcDbDictionary
280
     1
281
     1
  3
ACAD_XREC_ROUNDTRIP
360
6F
  0
DICTIONARY
  5
76
330
3A
100
AcDbDictionary
280
     1
281
     1
  3
ACAD_XREC_ROUNDTRIP
360
77
  0
DICTIONARY
  5
6A
330
34
100
AcDbDictionary
280
     1
281
     1
  3
ACAD_XREC_ROUNDTRIP
360
6B
  0
DICTIONARY
  5
6C
330
35
100
AcDbDictionary
280
     1
281
     1
  3
ACAD_XREC_ROUNDTRIP
360
6D
  0
DICTIONARY
  5
74
330
39
100
AcDbDictionary
280
     1
281
     1
  3
ACAD_XREC_ROUNDTRIP
360
75
  0
DICTIONARY
  5
58
330
2B
100
AcDbDictionary
280
     1
281
     1
  3
ACAD_XREC_ROUNDTRIP
360
59
  0
DICTIONARY
  5
5A
330
2C
100
AcDbDictionary
280
     1
281
     1
  3
ACAD_XREC_ROUNDTRIP
360
5B
  0
DICTIONARY
  5
5C
330
2D
100
AcDbDictionary
280
     1
281
     1
  3
ACAD_XREC_ROUNDTRIP
360
5D
  0
DICTIONARY
  5
5E
330
2E
100
AcDbDictionary
280
     1
281
     1
  3
ACAD_XREC_ROUNDTRIP
360
5F
  0
DICTIONARY
  5
72
330
38
100
AcDbDictionary
280
     1
281
     1
  3
ACAD_XREC_ROUNDTRIP
360
73
  0
DICTIONARY
  5
68
330
33
100
AcDbDictionary
280
     1
281
     1
  3
ACAD_XREC_ROUNDTRIP
360
69
  0
DICTIONARY
  5
70
330
37
100
AcDbDictionary
280
     1
281
     1
  3
ACAD_XREC_ROUNDTRIP
360
71
  0
XRECORD
  5
61
102
{ACAD_REACTORS
330
60
102
}
330
60
100
AcDbXrecord
280
     1
102
RTVSPropertyOp0
 70
     1
102
RTVSPropertyOp1
 70
     1
102
RTVSPropertyOp2
 70
     1
102
RTVSPropertyOp3
 70
     1
102
RTVSPropertyOp4
 70
     1
102
RTVSPropertyOp5
 70
     1
102
RTVSPropertyOp6
 70
     1
102
RTVSPropertyOp7
 70
     1
102
RTVSPropertyOp8
 70
     1
102
RTVSPropertyOp9
 70
     1
102
RTVSPropertyOp10
 70
     1
102
RTVSPropertyOp11
 70
     1
102
RTVSPropertyOp12
 70
     1
102
RTVSPropertyOp13
 70
     1
102
RTVSPropertyOp14
 70
     1
102
RTVSPropertyOp15
 70
     1
102
RTVSPropertyOp16
 70
     1
102
RTVSPropertyOp17
 70
     1
102
RTVSPropertyOp18
 70
     1
102
RTVSPropertyOp19
 70
     1
102
RTVSPropertyOp20
 70
     1
102
RTVSPropertyOp21
 70
     1
102
RTVSPropertyOp22
 70
     1
102
RTVSPropertyOp23
 70
     1
102
RTVSPropertyOp24
 70
     1
102
RTVSPropertyOp25
 70
     1
102
RTVSPropertyOp26
 70
     1
102
RTVSPropertyOp27
 70
     1
  0
XRECORD
  5
65
102
{ACAD_REACTORS
330
64
102
}
330
64
100
AcDbXrecord
280
     1
102
RTVSPropertyOp0
 70
     1
102
RTVSPropertyOp1
 70
     1
102
RTVSPropertyOp2
 70
     1
102
RTVSPropertyOp3
 70
     1
102
RTVSPropertyOp4
 70
     1
102
RTVSPropertyOp5
 70
     1
102
RTVSPropertyOp6
 70
     1
102
RTVSPropertyOp7
 70
     1
102
RTVSPropertyOp8
 70
     1
102
RTVSPropertyOp9
 70
     1
102
RTVSPropertyOp10
 70
     1
102
RTVSPropertyOp11
 70
     1
102
RTVSPropertyOp12
 70
     1
102
RTVSPropertyOp13
 70
     1
102
RTVSPropertyOp14
 70
     1
102
RTVSPropertyOp15
 70
     1
102
RTVSPropertyOp16
 70
     1
102
RTVSPropertyOp17
 70
     1
102
RTVSPropertyOp18
 70
     1
102
RTVSPropertyOp19
 70
     1
102
RTVSPropertyOp20
 70
     1
102
RTVSPropertyOp21
 70
     1
102
RTVSPropertyOp22
 70
     1
102
RTVSPropertyOp23
 70
     1
102
RTVSPropertyOp24
 70
     1
102
RTVSPropertyOp25
 70
     1
102
RTVSPropertyOp26
 70
     1
102
RTVSPropertyOp27
 70
     1
  0
XRECORD
  5
63
102
{ACAD_REACTORS
330
62
102
}
330
62
100
AcDbXrecord
280
     1
102
RTVSPropertyOp0
 70
     1
102
RTVSPropertyOp1
 70
     1
102
RTVSPropertyOp2
 70
     1
102
RTVSPropertyOp3
 70
     1
102
RTVSPropertyOp4
 70
     1
102
RTVSPropertyOp5
 70
     1
102
RTVSPropertyOp6
 70
     1
102
RTVSPropertyOp7
 70
     1
102
RTVSPropertyOp8
 70
     1
102
RTVSPropertyOp9
 70
     1
102
RTVSPropertyOp10
 70
     1
102
RTVSPropertyOp11
 70
     1
102
RTVSPropertyOp12
 70
     1
102
RTVSPropertyOp13
 70
     1
102
RTVSPropertyOp14
 70
     1
102
RTVSPropertyOp15
 70
     1
102
RTVSPropertyOp16
 70
     1
102
RTVSPropertyOp17
 70
     1
102
RTVSPropertyOp18
 70
     1
102
RTVSPropertyOp19
 70
     1
102
RTVSPropertyOp20
 70
     1
102
RTVSPropertyOp21
 70
     1
102
RTVSPropertyOp22
 70
     1
102
RTVSPropertyOp23
 70
     1
102
RTVSPropertyOp24
 70
     1
102
RTVSPropertyOp25
 70
     1
102
RTVSPropertyOp26
 70
     1
102
RTVSPropertyOp27
 70
     1
  0
XRECORD
  5
67
102
{ACAD_REACTORS
330
66
102
}
330
66
100
AcDbXrecord
280
     1
102
RTVSPropertyOp0
 70
     1
102
RTVSPropertyOp1
 70
     1
102
RTVSPropertyOp2
 70
     1
102
RTVSPropertyOp3
 70
     1
102
RTVSPropertyOp4
 70
     1
102
RTVSPropertyOp5
 70
     1
102
RTVSPropertyOp6
 70
     1
102
RTVSPropertyOp7
 70
     1
102
RTVSPropertyOp8
 70
     1
102
RTVSPropertyOp9
 70
     1
102
RTVSPropertyOp10
 70
     1
102
RTVSPropertyOp11
 70
     1
102
RTVSPropertyOp12
 70
     1
102
RTVSPropertyOp13
 70
     1
102
RTVSPropertyOp14
 70
     1
102
RTVSPropertyOp15
 70
     1
102
RTVSPropertyOp16
 70
     1
102
RTVSPropertyOp17
 70
     1
102
RTVSPropertyOp18
 70
     1
102
RTVSPropertyOp19
 70
     1
102
RTVSPropertyOp20
 70
     1
102
RTVSPropertyOp21
 70
     1
102
RTVSPropertyOp22
 70
     1
102
RTVSPropertyOp23
 70
     1
102
RTVSPropertyOp24
 70
     1
102
RTVSPropertyOp25
 70
     1
102
RTVSPropertyOp26
 70
     1
102
RTVSPropertyOp27
 70
     1
  0
XRECORD
  5
6F
102
{ACAD_REACTORS
330
6E
102
}
330
6E
100
AcDbXrecord
280
     1
102
RTVSPropertyOp0
 70
     1
102
RTVSPropertyOp1
 70
     1
102
RTVSPropertyOp2
 70
     1
102
RTVSPropertyOp3
 70
     1
102
RTVSPropertyOp4
 70
     1
102
RTVSPropertyOp5
 70
     1
102
RTVSPropertyOp6
 70
     1
102
RTVSPropertyOp7
 70
     1
102
RTVSPropertyOp8
 70
     1
102
RTVSPropertyOp9
 70
     1
102
RTVSPropertyOp10
 70
     1
102
RTVSPropertyOp11
 70
     1
102
RTVSPropertyOp12
 70
     1
102
RTVSPropertyOp13
 70
     1
102
RTVSPropertyOp14
 70
     1
102
RTVSPropertyOp15
 70
     1
102
RTVSPropertyOp16
 70
     1
102
RTVSPropertyOp17
 70
     1
102
RTVSPropertyOp18
 70
     1
102
RTVSPropertyOp19
 70
     1
102
RTVSPropertyOp20
 70
     1
102
RTVSPropertyOp21
 70
     1
102
RTVSPropertyOp22
 70
     1
102
RTVSPropertyOp23
 70
     1
102
RTVSPropertyOp24
 70
     1
102
RTVSPropertyOp25
 70
     1
102
RTVSPropertyOp26
 70
     1
102
RTVSPropertyOp27
 70
     1
  0
XRECORD
  5
77
102
{ACAD_REACTORS
330
76
102
}
330
76
100
AcDbXrecord
280
     1
102
RTVSPropertyOp0
 70
     1
102
RTVSPropertyOp1
 70
     1
102
RTVSPropertyOp2
 70
     1
102
RTVSPropertyOp3
 70
     1
102
RTVSPropertyOp4
 70
     1
102
RTVSPropertyOp5
 70
     1
102
RTVSPropertyOp6
 70
     1
102
RTVSPropertyOp7
 70
     1
102
RTVSPropertyOp8
 70
     1
102
RTVSPropertyOp9
 70
     1
102
RTVSPropertyOp10
 70
     1
102
RTVSPropertyOp11
 70
     1
102
RTVSPropertyOp12
 70
     1
102
RTVSPropertyOp13
 70
     1
102
RTVSPropertyOp14
 70
     1
102
RTVSPropertyOp15
 70
     1
102
RTVSPropertyOp16
 70
     1
102
RTVSPropertyOp17
 70
     1
102
RTVSPropertyOp18
 70
     1
102
RTVSPropertyOp19
 70
     1
102
RTVSPropertyOp20
 70
     1
102
RTVSPropertyOp21
 70
     1
102
RTVSPropertyOp22
 70
     1
102
RTVSPropertyOp23
 70
     1
102
RTVSPropertyOp24
 70
     1
102
RTVSPropertyOp25
 70
     1
102
RTVSPropertyOp26
 70
     1
102
RTVSPropertyOp27
 70
     1
  0
XRECORD
  5
6B
102
{ACAD_REACTORS
330
6A
102
}
330
6A
100
AcDbXrecord
280
     1
102
RTVSPropertyOp0
 70
     1
102
RTVSPropertyOp1
 70
     1
102
RTVSPropertyOp2
 70
     1
102
RTVSPropertyOp3
 70
     1
102
RTVSPropertyOp4
 70
     1
102
RTVSPropertyOp5
 70
     1
102
RTVSPropertyOp6
 70
     1
102
RTVSPropertyOp7
 70
     1
102
RTVSPropertyOp8
 70
     1
102
RTVSPropertyOp9
 70
     1
102
RTVSPropertyOp10
 70
     1
102
RTVSPropertyOp11
 70
     1
102
RTVSPropertyOp12
 70
     1
102
RTVSPropertyOp13
 70
     1
102
RTVSPropertyOp14
 70
     1
102
RTVSPropertyOp15
 70
     1
102
RTVSPropertyOp16
 70
     1
102
RTVSPropertyOp17
 70
     1
102
RTVSPropertyOp18
 70
     1
102
RTVSPropertyOp19
 70
     1
102
RTVSPropertyOp20
 70
     1
102
RTVSPropertyOp21
 70
     1
102
RTVSPropertyOp22
 70
     1
102
RTVSPropertyOp23
 70
     1
102
RTVSPropertyOp24
 70
     1
102
RTVSPropertyOp25
 70
     1
102
RTVSPropertyOp26
 70
     1
102
RTVSPropertyOp27
 70
     1
  0
XRECORD
  5
6D
102
{ACAD_REACTORS
330
6C
102
}
330
6C
100
AcDbXrecord
280
     1
102
RTVSPropertyOp0
 70
     1
102
RTVSPropertyOp1
 70
     1
102
RTVSPropertyOp2
 70
     1
102
RTVSPropertyOp3
 70
     1
102
RTVSPropertyOp4
 70
     1
102
RTVSPropertyOp5
 70
     1
102
RTVSPropertyOp6
 70
     1
102
RTVSPropertyOp7
 70
     1
102
RTVSPropertyOp8
 70
     1
102
RTVSPropertyOp9
 70
     1
102
RTVSPropertyOp10
 70
     1
102
RTVSPropertyOp11
 70
     1
102
RTVSPropertyOp12
 70
     1
102
RTVSPropertyOp13
 70
     1
102
RTVSPropertyOp14
 70
     1
102
RTVSPropertyOp15
 70
     1
102
RTVSPropertyOp16
 70
     1
102
RTVSPropertyOp17
 70
     1
102
RTVSPropertyOp18
 70
     1
102
RTVSPropertyOp19
 70
     1
102
RTVSPropertyOp20
 70
     1
102
RTVSPropertyOp21
 70
     1
102
RTVSPropertyOp22
 70
     1
102
RTVSPropertyOp23
 70
     1
102
RTVSPropertyOp24
 70
     1
102
RTVSPropertyOp25
 70
     1
102
RTVSPropertyOp26
 70
     1
102
RTVSPropertyOp27
 70
     1
  0
XRECORD
  5
75
102
{ACAD_REACTORS
330
74
102
}
330
74
100
AcDbXrecord
280
     1
102
RTVSPropertyOp0
 70
     1
102
RTVSPropertyOp1
 70
     1
102
RTVSPropertyOp2
 70
     1
102
RTVSPropertyOp3
 70
     1
102
RTVSPropertyOp4
 70
     1
102
RTVSPropertyOp5
 70
     1
102
RTVSPropertyOp6
 70
     1
102
RTVSPropertyOp7
 70
     1
102
RTVSPropertyOp8
 70
     1
102
RTVSPropertyOp9
 70
     1
102
RTVSPropertyOp10
 70
     1
102
RTVSPropertyOp11
 70
     1
102
RTVSPropertyOp12
 70
     1
102
RTVSPropertyOp13
 70
     1
102
RTVSPropertyOp14
 70
     1
102
RTVSPropertyOp15
 70
     1
102
RTVSPropertyOp16
 70
     1
102
RTVSPropertyOp17
 70
     1
102
RTVSPropertyOp18
 70
     1
102
RTVSPropertyOp19
 70
     1
102
RTVSPropertyOp20
 70
     1
102
RTVSPropertyOp21
 70
     1
102
RTVSPropertyOp22
 70
     1
102
RTVSPropertyOp23
 70
     1
102
RTVSPropertyOp24
 70
     1
102
RTVSPropertyOp25
 70
     1
102
RTVSPropertyOp26
 70
     1
102
RTVSPropertyOp27
 70
     1
  0
XRECORD
  5
59
102
{ACAD_REACTORS
330
58
102
}
330
58
100
AcDbXrecord
280
     1
102
RTVSPropertyOp0
 70
     1
102
RTVSPropertyOp1
 70
     1
102
RTVSPropertyOp2
 70
     1
102
RTVSPropertyOp3
 70
     1
102
RTVSPropertyOp4
 70
     1
102
RTVSPropertyOp5
 70
     1
102
RTVSPropertyOp6
 70
     1
102
RTVSPropertyOp7
 70
     1
102
RTVSPropertyOp8
 70
     1
102
RTVSPropertyOp9
 70
     1
102
RTVSPropertyOp10
 70
     1
102
RTVSPropertyOp11
 70
     1
102
RTVSPropertyOp12
 70
     1
102
RTVSPropertyOp13
 70
     1
102
RTVSPropertyOp14
 70
     1
102
RTVSPropertyOp15
 70
     1
102
RTVSPropertyOp16
 70
     1
102
RTVSPropertyOp17
 70
     1
102
RTVSPropertyOp18
 70
     1
102
RTVSPropertyOp19
 70
     1
102
RTVSPropertyOp20
 70
     1
102
RTVSPropertyOp21
 70
     1
102
RTVSPropertyOp22
 70
     1
102
RTVSPropertyOp23
 70
     1
102
RTVSPropertyOp24
 70
     1
102
RTVSPropertyOp25
 70
     1
102
RTVSPropertyOp26
 70
     1
102
RTVSPropertyOp27
 70
     1
  0
XRECORD
  5
5B
102
{ACAD_REACTORS
330
5A
102
}
330
5A
100
AcDbXrecord
280
     1
102
RTVSPropertyOp0
 70
     1
102
RTVSPropertyOp1
 70
     1
102
RTVSPropertyOp2
 70
     1
102
RTVSPropertyOp3
 70
     1
102
RTVSPropertyOp4
 70
     1
102
RTVSPropertyOp5
 70
     1
102
RTVSPropertyOp6
 70
     1
102
RTVSPropertyOp7
 70
     1
102
RTVSPropertyOp8
 70
     1
102
RTVSPropertyOp9
 70
     1
102
RTVSPropertyOp10
 70
     1
102
RTVSPropertyOp11
 70
     1
102
RTVSPropertyOp12
 70
     1
102
RTVSPropertyOp13
 70
     1
102
RTVSPropertyOp14
 70
     1
102
RTVSPropertyOp15
 70
     1
102
RTVSPropertyOp16
 70
     1
102
RTVSPropertyOp17
 70
     1
102
RTVSPropertyOp18
 70
     1
102
RTVSPropertyOp19
 70
     1
102
RTVSPropertyOp20
 70
     1
102
RTVSPropertyOp21
 70
     1
102
RTVSPropertyOp22
 70
     1
102
RTVSPropertyOp23
 70
     1
102
RTVSPropertyOp24
 70
     1
102
RTVSPropertyOp25
 70
     1
102
RTVSPropertyOp26
 70
     1
102
RTVSPropertyOp27
 70
     1
  0
XRECORD
  5
5D
102
{ACAD_REACTORS
330
5C
102
}
330
5C
100
AcDbXrecord
280
     1
102
RTVSPropertyOp0
 70
     1
102
RTVSPropertyOp1
 70
     1
102
RTVSPropertyOp2
 70
     1
102
RTVSPropertyOp3
 70
     1
102
RTVSPropertyOp4
 70
     1
102
RTVSPropertyOp5
 70
     1
102
RTVSPropertyOp6
 70
     1
102
RTVSPropertyOp7
 70
     1
102
RTVSPropertyOp8
 70
     1
102
RTVSPropertyOp9
 70
     1
102
RTVSPropertyOp10
 70
     1
102
RTVSPropertyOp11
 70
     1
102
RTVSPropertyOp12
 70
     1
102
RTVSPropertyOp13
 70
     1
102
RTVSPropertyOp14
 70
     1
102
RTVSPropertyOp15
 70
     1
102
RTVSPropertyOp16
 70
     1
102
RTVSPropertyOp17
 70
     1
102
RTVSPropertyOp18
 70
     1
102
RTVSPropertyOp19
 70
     1
102
RTVSPropertyOp20
 70
     1
102
RTVSPropertyOp21
 70
     1
102
RTVSPropertyOp22
 70
     1
102
RTVSPropertyOp23
 70
     1
102
RTVSPropertyOp24
 70
     1
102
RTVSPropertyOp25
 70
     1
102
RTVSPropertyOp26
 70
     1
102
RTVSPropertyOp27
 70
     1
  0
XRECORD
  5
5F
102
{ACAD_REACTORS
330
5E
102
}
330
5E
100
AcDbXrecord
280
     1
102
RTVSPropertyOp0
 70
     1
102
RTVSPropertyOp1
 70
     1
102
RTVSPropertyOp2
 70
     1
102
RTVSPropertyOp3
 70
     1
102
RTVSPropertyOp4
 70
     1
102
RTVSPropertyOp5
 70
     1
102
RTVSPropertyOp6
 70
     1
102
RTVSPropertyOp7
 70
     1
102
RTVSPropertyOp8
 70
     1
102
RTVSPropertyOp9
 70
     1
102
RTVSPropertyOp10
 70
     1
102
RTVSPropertyOp11
 70
     1
102
RTVSPropertyOp12
 70
     1
102
RTVSPropertyOp13
 70
     1
102
RTVSPropertyOp14
 70
     1
102
RTVSPropertyOp15
 70
     1
102
RTVSPropertyOp16
 70
     1
102
RTVSPropertyOp17
 70
     1
102
RTVSPropertyOp18
 70
     1
102
RTVSPropertyOp19
 70
     1
102
RTVSPropertyOp20
 70
     1
102
RTVSPropertyOp21
 70
     1
102
RTVSPropertyOp22
 70
     1
102
RTVSPropertyOp23
 70
     1
102
RTVSPropertyOp24
 70
     1
102
RTVSPropertyOp25
 70
     1
102
RTVSPropertyOp26
 70
     1
102
RTVSPropertyOp27
 70
     1
  0
XRECORD
  5
73
102
{ACAD_REACTORS
330
72
102
}
330
72
100
AcDbXrecord
280
     1
102
RTVSPropertyOp0
 70
     1
102
RTVSPropertyOp1
 70
     1
102
RTVSPropertyOp2
 70
     1
102
RTVSPropertyOp3
 70
     1
102
RTVSPropertyOp4
 70
     1
102
RTVSPropertyOp5
 70
     1
102
RTVSPropertyOp6
 70
     1
102
RTVSPropertyOp7
 70
     1
102
RTVSPropertyOp8
 70
     1
102
RTVSPropertyOp9
 70
     1
102
RTVSPropertyOp10
 70
     1
102
RTVSPropertyOp11
 70
     1
102
RTVSPropertyOp12
 70
     1
102
RTVSPropertyOp13
 70
     1
102
RTVSPropertyOp14
 70
     1
102
RTVSPropertyOp15
 70
     1
102
RTVSPropertyOp16
 70
     1
102
RTVSPropertyOp17
 70
     1
102
RTVSPropertyOp18
 70
     1
102
RTVSPropertyOp19
 70
     1
102
RTVSPropertyOp20
 70
     1
102
RTVSPropertyOp21
 70
     1
102
RTVSPropertyOp22
 70
     1
102
RTVSPropertyOp23
 70
     1
102
RTVSPropertyOp24
 70
     1
102
RTVSPropertyOp25
 70
     1
102
RTVSPropertyOp26
 70
     1
102
RTVSPropertyOp27
 70
     1
  0
XRECORD
  5
69
102
{ACAD_REACTORS
330
68
102
}
330
68
100
AcDbXrecord
280
     1
102
RTVSPropertyOp0
 70
     1
102
RTVSPropertyOp1
 70
     1
102
RTVSPropertyOp2
 70
     1
102
RTVSPropertyOp3
 70
     1
102
RTVSPropertyOp4
 70
     1
102
RTVSPropertyOp5
 70
     1
102
RTVSPropertyOp6
 70
     1
102
RTVSPropertyOp7
 70
     1
102
RTVSPropertyOp8
 70
     1
102
RTVSPropertyOp9
 70
     1
102
RTVSPropertyOp10
 70
     1
102
RTVSPropertyOp11
 70
     1
102
RTVSPropertyOp12
 70
     1
102
RTVSPropertyOp13
 70
     1
102
RTVSPropertyOp14
 70
     1
102
RTVSPropertyOp15
 70
     1
102
RTVSPropertyOp16
 70
     1
102
RTVSPropertyOp17
 70
     1
102
RTVSPropertyOp18
 70
     1
102
RTVSPropertyOp19
 70
     1
102
RTVSPropertyOp20
 70
     1
102
RTVSPropertyOp21
 70
     1
102
RTVSPropertyOp22
 70
     1
102
RTVSPropertyOp23
 70
     1
102
RTVSPropertyOp24
 70
     1
102
RTVSPropertyOp25
 70
     1
102
RTVSPropertyOp26
 70
     1
102
RTVSPropertyOp27
 70
     1
  0
XRECORD
  5
71
102
{ACAD_REACTORS
330
70
102
}
330
70
100
AcDbXrecord
280
     1
102
RTVSPropertyOp0
 70
     1
102
RTVSPropertyOp1
 70
     1
102
RTVSPropertyOp2
 70
     1
102
RTVSPropertyOp3
 70
     1
102
RTVSPropertyOp4
 70
     1
102
RTVSPropertyOp5
 70
     1
102
RTVSPropertyOp6
 70
     1
102
RTVSPropertyOp7
 70
     1
102
RTVSPropertyOp8
 70
     1
102
RTVSPropertyOp9
 70
     1
102
RTVSPropertyOp10
 70
     1
102
RTVSPropertyOp11
 70
     1
102
RTVSPropertyOp12
 70
     1
102
RTVSPropertyOp13
 70
     1
102
RTVSPropertyOp14
 70
     1
102
RTVSPropertyOp15
 70
     1
102
RTVSPropertyOp16
 70
     1
102
RTVSPropertyOp17
 70
     1
102
RTVSPropertyOp18
 70
     1
102
RTVSPropertyOp19
 70
     1
102
RTVSPropertyOp20
 70
     1
102
RTVSPropertyOp21
 70
     1
102
RTVSPropertyOp22
 70
     1
102
RTVSPropertyOp23
 70
     1
102
RTVSPropertyOp24
 70
     1
102
RTVSPropertyOp25
 70
     1
102
RTVSPropertyOp26
 70
     1
102
RTVSPropertyOp27
 70
     1
  0
ENDSEC
  0
EOF
