0
SECTION
2
HEADER
9
$INSUNITS
70
4
9
$ACADVER
1
AC1014
9
$HANDSEED
5
FFFF
0
ENDSEC
0
SECTION
2
TABLES
0
TABLE
2
VPORT
5
8
100
AcDbSymbolTable
0
ENDTAB
0
TABLE
2
LTYPE
5
5
100
AcDbSymbolTable
0
LTYPE
5
14
100
AcDbSymbolTableRecord
100
AcDbLinetypeTableRecord
2
BYBLOCK
70
0
0
LTYPE
5
15
100
AcDbSymbolTableRecord
100
AcDbLinetypeTableRecord
2
BYLAYER
70
0
0
ENDTAB
0
TABLE
2
LAYER
5
2
100
AcDbSymbolTable
70
2
0
LAYER
5
50
100
AcDbSymbolTableRecord
100
AcDbLayerTableRecord
2
0
70
0
6
CONTINUOUS
0
ENDTAB
0
TABLE
2
STYLE
5
3
100
AcDbSymbolTable
70
1
0
STYLE
5
11
100
AcDbSymbolTableRecord
100
AcDbTextStyleTableRecord
2
STANDARD
70
0
0
ENDTAB
0
TABLE
2
VIEW
5
6
100
AcDbSymbolTable
70
0
0
ENDTAB
0
TABLE
2
UCS
5
7
100
AcDbSymbolTable
70
0
0
ENDTAB
0
TABLE
2
APPID
5
9
100
AcDbSymbolTable
70
2
0
APPID
5
12
100
AcDbSymbolTableRecord
100
AcDbRegAppTableRecord
2
ACAD
70
0
0
ENDTAB
0
TABLE
2
DIMSTYLE
5
A
100
AcDbSymbolTable
70
1
0
ENDTAB
0
TABLE
2
BLOCK_RECORD
5
1
100
AcDbSymbolTable
70
1
0
BLOCK_RECORD
5
1F
100
AcDbSymbolTableRecord
100
AcDbBlockTableRecord
2
*MODEL_SPACE
0
BLOCK_RECORD
5
1B
100
AcDbSymbolTableRecord
100
AcDbBlockTableRecord
2
*PAPER_SPACE
0
ENDTAB
0
ENDSEC
0
SECTION
2
BLOCKS
0
BLOCK
5
20
100
AcDbEntity
100
AcDbBlockBegin
2
*MODEL_SPACE
0
ENDBLK
5
21
100
AcDbEntity
100
AcDbBlockEnd
0
BLOCK
5
1C
100
AcDbEntity
100
AcDbBlockBegin
2
*PAPER_SPACE
0
ENDBLK
5
1D
100
AcDbEntity
100
AcDbBlockEnd
0
ENDSEC
0
SECTION
2
ENTITIES
0
ARC
5
100
100
AcDbEntity
8
0
100
AcDbCircle
10
-12.886170782985122
20
45.291567895157485
30
0
40
0.74999999999999389
100
AcDbArc
50
-44.99999999999644
51
29.742476709546924
0
ARC
5
101
100
AcDbEntity
8
0
100
AcDbCircle
10
-7.1122154270223712
20
48.59064951696638
30
-2.8737566162911288e-45
40
5.8999999999999995
100
AcDbArc
50
-119.74247670955091
51
209.74247670953812
0
ARC
5
102
100
AcDbEntity
8
0
100
AcDbCircle
10
-10.411297048832175
20
42.816694161004605
30
0
40
0.75000000000021538
100
AcDbArc
50
60.257523290456099
51
134.99999999999972
0
LINE
5
103
100
AcDbEntity
8
0
100
AcDbLine
10
-10.941627134721942
20
43.347024246894378
30
-1.9462028911697011e-32
11
-11.307149037347068
21
42.981502344269593
31
0
0
ARC
5
104
100
AcDbEntity
8
0
100
AcDbCircle
10
-10.776818951457114
20
42.451172258379643
30
0
40
0.75000000000006128
100
AcDbArc
50
135.0000000000002
51
239.16736992082573
0
ARC
5
105
100
AcDbEntity
8
0
100
AcDbCircle
10
-7.1122154270223712
20
48.59064951696638
30
-2.8737566162911288e-45
40
7.9000000000002935
100
AcDbArc
50
239.16736992081923
51
314.99999999999778
0
ARC
5
106
100
AcDbEntity
8
0
100
AcDbCircle
10
-1.2609068127044547
20
42.739340902648017
30
2.7369110631344083e-46
40
0.37500000000011607
100
AcDbArc
50
-45.000000000002487
51
134.99999999999926
0
ARC
5
107
100
AcDbEntity
8
0
100
AcDbCircle
10
-7.1122154270223712
20
48.59064951696638
30
-2.8737566162911288e-45
40
8.6500000000005777
100
AcDbArc
50
135.0000000000046
51
314.99999999999778
0
ARC
5
108
100
AcDbEntity
8
0
100
AcDbCircle
10
-12.963524041342072
20
54.441958131285162
30
0
40
0.375000000000004
100
AcDbArc
50
-44.99999999999654
51
135.00000000000654
0
ARC
5
109
100
AcDbEntity
8
0
100
AcDbCircle
10
-7.1122154270223712
20
48.59064951696638
30
-2.8737566162911288e-45
40
7.9000000000007891
100
AcDbArc
50
135.00000000000455
51
210.83263007917188
0
ARC
5
110
100
AcDbEntity
8
0
100
AcDbCircle
10
-13.251692685610305
20
44.92604599253233
30
0
40
0.74999999999999245
100
AcDbArc
50
210.83263007917344
51
315.00000000003189
0
LINE
5
111
100
AcDbEntity
8
0
100
AcDbLine
10
-12.721362599720099
20
44.395715906642714
30
-3.6202095737937271e-32
11
-12.355840697095184
21
44.761237809267612
31
1.5854261803970817e-46
0
LWPOLYLINE
5
112
100
AcDbEntity
8
0
100
AcDbPolyline
90
12
70
1
43
0.0
10
90.503707516752854
20
138.96189949227005
42
-0.33820160067988486
10
91.227272100166928
20
139.51453107121745
10
91.744198132203522
20
139.51453107121745
42
-0.48863692329083547
10
92.471386804054347
20
138.58096463765099
42
-0.34351094528726306
10
84.811666127228946
20
132.61453107121736
42
0.99999999999999989
10
84.811666127229003
20
131.86453107121761
42
0.99999999999999989
10
84.811666127228662
20
149.16453107121734
42
0.99999999999999989
10
84.811666127228648
20
148.41453107121754
42
-0.34351094528728521
10
92.47138680405412
20
142.44809750478393
42
-0.48863692329081998
10
91.744198132203593
20
141.51453107121739
10
91.227272100166942
20
141.51453107121756
42
-0.33820160067988592
10
90.503707516752954
20
142.06716265016485
42
7.4660605559645479
0
LWPOLYLINE
5
113
100
AcDbEntity
8
0
100
AcDbPolyline
90
4
70
1
43
0.0
10
58.648715223326676
20
110.10893948019597
10
54.406074536207349
20
114.35158016731526
10
47.335006724341895
20
107.28051235544974
10
51.577647411461236
20
103.03787166833048
0
LWPOLYLINE
5
114
100
AcDbEntity
8
0
100
AcDbPolyline
90
4
70
1
43
0.0
10
19.05073547688011
20
78.996241107987686
10
23.29337616399944
20
74.753600420868452
10
30.36444397586488
20
81.824668232733927
10
26.121803288745561
20
86.067308919853218
0
LWPOLYLINE
5
115
100
AcDbEntity
8
0
100
AcDbPolyline
90
4
70
1
43
0.0
10
44.506579599595774
20
95.966803856464949
10
40.263938912476441
20
100.20944454358425
10
33.192871100611001
20
93.138376731718694
10
37.435511787730348
20
88.89573604459946
0
LWPOLYLINE
5
116
100
AcDbEntity
8
0
100
AcDbPolyline
90
4
70
1
43
0.0
10
4.9085998531492132
20
64.85410548425665
10
9.1512405402685442
20
60.611464797137415
10
16.222308352133993
20
67.682532609002905
10
11.979667665014661
20
71.925173296122196
0
LWPOLYLINE
5
117
100
AcDbEntity
8
0
100
AcDbPolyline
90
4
70
1
43
0.0
10
72.79085084705757
20
124.25107510392698
10
68.548210159938236
20
128.49371579104627
10
61.477142348072803
20
121.42264797918075
10
65.719783035192137
20
117.18000729206152
0
LWPOLYLINE
5
118
100
AcDbEntity
8
0
100
AcDbPolyline
90
10
70
1
43
0.0
10
47.604118184443038
20
124.67357461536903
42
-0.26603857549772741
10
48.815901129298979
20
131.99398407304807
42
0.38483979322451833
10
48.100000423214659
20
146.11349840302378
10
15.275982769297283
20
178.93751605694115
42
0.41421356237309276
10
8.204914957431841
20
178.93751605694109
10
6.3522506670449008
20
177.08485176655415
42
0.19891236737965803
10
4.8877845729776297
20
173.54931786062141
10
4.887784572977627
20
101.70334788917452
42
0.66817863791930043
10
21.958852384843119
20
94.632280077309048
10
46.378137544423403
20
119.05156523688744
42
0.29335099289080535
0
ARC
5
119
100
AcDbEntity
8
0
100
AcDbCircle
10
24.849011082609564
20
200.4771861158369
30
-3.5032461608120427e-45
40
11.500000000000002
100
AcDbArc
50
45.000000000000028
51
225.00000000000003
0
LINE
5
120
100
AcDbEntity
8
0
100
AcDbLine
10
32.980739066254863
20
208.60891409948221
30
-2.26797510251041e-30
11
40.051806878120345
21
201.53784628761673
31
0
0
ARC
5
121
100
AcDbEntity
8
0
100
AcDbCircle
10
31.920078894475022
20
193.40611830397143
30
2.1895288505075267e-45
40
11.500000000000005
100
AcDbArc
50
-135.00000000000011
51
44.999999999999936
0
LINE
5
122
100
AcDbEntity
8
0
100
AcDbLine
10
23.78835091082972
20
185.27439032032615
30
4.5359502050208228e-30
11
16.717283098964266
21
192.3454581321916
31
2.2679751025104033e-30
0
ARC
5
123
100
AcDbEntity
8
0
100
AcDbCircle
10
24.849011082609547
20
222.39749633261988
30
-2.1621597398761826e-45
40
1.5000000000000253
100
AcDbArc
50
45.000000000001442
51
225.00000000000222
0
LINE
5
124
100
AcDbEntity
8
0
100
AcDbLine
10
25.909671254389352
20
223.45815650439974
30
9.5582996655883709e-46
11
32.98073906625487
21
216.38708869253423
31
-1.9721522630525295e-30
0
ARC
5
125
100
AcDbEntity
8
0
100
AcDbCircle
10
31.92007889447504
20
215.3264285207544
30
-2.7369110631344083e-45
40
1.4999999999999782
100
AcDbArc
50
-135.00000000000031
51
45
0
LINE
5
126
100
AcDbEntity
8
0
100
AcDbLine
10
30.859418722695228
20
214.2657683489746
30
2.9582283945786769e-31
11
23.788350910829742
21
221.33683616083999
31
-5.2439215969655239e-45
0
ARC
5
127
100
AcDbEntity
8
0
100
AcDbCircle
10
2.9287008658266296
20
200.4771861158369
30
-1.5874084166179568e-45
40
1.4999999999999991
100
AcDbArc
50
45.000000000000696
51
225.00000000000068
0
LINE
5
128
100
AcDbEntity
8
0
100
AcDbLine
10
3.9893610376064337
20
201.53784628761673
30
9.5582996655883662e-46
11
11.06042884947195
21
194.46677847575125
31
-1.9721522630525295e-30
0
ARC
5
129
100
AcDbEntity
8
0
100
AcDbCircle
10
9.9997686776921206
20
193.40611830397137
30
-8.210733189403225e-47
40
1.4999999999999929
100
AcDbArc
50
-135.00000000000085
51
45.000000000001528
0
LINE
5
130
100
AcDbEntity
8
0
100
AcDbLine
10
8.939108505912289
20
192.34545813219157
30
2.9582283945787925e-31
11
1.8680406940468253
21
199.41652594405707
31
-4.0944189504490724e-45
0
ARC
5
131
100
AcDbEntity
8
0
100
AcDbCircle
10
46.769321299392544
20
200.47718611583693
30
-2.5179581780836557e-45
40
1.4999999999999969
100
AcDbArc
50
45.000000000001528
51
225.00000000000077
0
LINE
5
132
100
AcDbEntity
8
0
100
AcDbLine
10
47.829981471172346
20
201.53784628761679
30
-2.9582283945788004e-31
11
54.901049283037871
21
194.46677847575128
31
-1.9721522630525295e-30
0
ARC
5
133
100
AcDbEntity
8
0
100
AcDbCircle
10
53.840389111258027
20
193.40611830397143
30
-6.0212043388956984e-46
40
1.4999999999999656
100
AcDbArc
50
-135.0000000000023
51
45.000000000000384
0
LINE
5
134
100
AcDbEntity
8
0
100
AcDbLine
10
52.779728939478197
20
192.34545813219168
30
-1.6759958037612877e-46
11
45.708661127612743
21
199.4165259440571
31
2.9582283945787505e-31
0
ARC
5
135
100
AcDbEntity
8
0
100
AcDbCircle
10
31.920078894475111
20
171.48580808718839
30
2.7369110631344083e-47
40
1.4999999999999938
100
AcDbArc
50
-135.00000000000165
51
45.000001207418265
0
LINE
5
136
100
AcDbEntity
8
0
100
AcDbLine
10
30.859418722695278
20
170.42514791540862
30
2.9582283945787916e-31
11
23.788350910829791
21
177.49621572727403
31
0
0
ARC
5
137
100
AcDbEntity
8
0
100
AcDbCircle
10
24.849011082609628
20
178.55687589905386
30
-2.1621597398761826e-45
40
1.4999999999999969
100
AcDbArc
50
45.000000000000767
51
224.99999999999977
0
LINE
5
138
100
AcDbEntity
8
0
100
AcDbLine
10
25.90967125438943
20
179.61753607083369
30
9.5582996655883709e-46
11
32.980739066254948
21
172.54646825896825
31
-1.9721522630525295e-30
0
CIRCLE
5
139
100
AcDbEntity
8
0
100
AcDbCircle
10
54.602218297876057
20
127.27564599034196
30
0
40
2.5000000000000022
0
LWPOLYLINE
5
140
100
AcDbEntity
8
0
100
AcDbPolyline
90
11
70
1
43
0.0
10
1.3730659472162012
20
40.105368142727812
42
-0.66817863791929921
10
-19.112215427022374
20
48.59064951696638
10
-19.112215427022356
20
184.9362698229879
42
-0.19891236737965717
10
-17.208409504734938
20
189.53246390070041
10
20.252817004896979
20
226.99369041033242
42
-0.41421356237309259
10
29.445205160322093
20
226.99369041033248
10
59.514070142578291
20
196.92482542807625
42
-0.2942595984002882
10
61.002737793095008
20
190.04292407506995
42
0.29425959840028387
10
63.417653961419788
20
178.87910598550377
10
93.296947501467073
20
148.99981244545589
42
-0.41421356237309415
10
93.296947501467073
20
132.02924969697938
0
ENDSEC
0
SECTION
2
OBJECTS
0
DICTIONARY
5
C
100
AcDbDictionary
3
ACAD_GROUP
350
D
3
ACAD_MLINESTYLE
350
17
0
DICTIONARY
5
D
100
AcDbDictionary
0
DICTIONARY
5
1A
330
C
100
AcDbDictionary
0
DICTIONARY
5
17
100
AcDbDictionary
0
ENDSEC
0
EOF
