  0
SECTION
  2
HEADER
  9
$ACADVER
  1
AC1014
  9
$HANDSEED
  5
FFFF
  9
$MEASUREMENT
 70
     1
  0
ENDSEC
  0
SECTION
  2
TABLES
  0
TABLE
  2
VPORT
  5
8
330
0
100
AcDbSymbolTable
 70
     4
  0
VPORT
  5
2E
330
8
100
AcDbSymbolTableRecord
100
AcDbViewportTableRecord
  2
*ACTIVE
 70
     0
 10
0.0
 20
0.0
 11
1.0
 21
1.0
 12
210.0
 22
148.5
 13
0.0
 23
0.0
 14
10.0
 24
10.0
 15
10.0
 25
10.0
 16
0.0
 26
0.0
 36
1.0
 17
0.0
 27
0.0
 37
0.0
 40
341.0
 41
1.24
 42
50.0
 43
0.0
 44
0.0
 50
0.0
 51
0.0
 71
     0
 72
   100
 73
     1
 74
     3
 75
     0
 76
     0
 77
     0
 78
     0
  0
ENDTAB
  0
TABLE
  2
LTYPE
  5
5
330
0
100
AcDbSymbolTable
 70
     1
  0
LTYPE
  5
14
330
5
100
AcDbSymbolTableRecord
100
AcDbLinetypeTableRecord
  2
BYBLOCK
 70
     0
  3

 72
    65
 73
     0
 40
0.0
  0
LTYPE
  5
15
330
5
100
AcDbSymbolTableRecord
100
AcDbLinetypeTableRecord
  2
BYLAYER
 70
     0
  3

 72
    65
 73
     0
 40
0.0
  0
LTYPE
  5
16
330
5
100
AcDbSymbolTableRecord
100
AcDbLinetypeTableRecord
  2
CONTINUOUS
 70
     0
  3
Solid line
 72
    65
 73
     0
 40
0.0
  0
ENDTAB
  0
TABLE
  2
LAYER
  5
2
100
AcDbSymbolTable
 70
2
  0
LAYER
  5
50
100
AcDbSymbolTableRecord
100
AcDbLayerTableRecord
  2
0
 70
0
  6
CONTINUOUS
  0
LAYER
  5
51
100
AcDbSymbolTableRecord
100
AcDbLayerTableRecord
  2
Laag_1
 70
0
  6
CONTINUOUS
  0
ENDTAB
  0
TABLE
  2
STYLE
  5
3
330
0
100
AcDbSymbolTable
 70
     1
  0
STYLE
  5
11
330
3
100
AcDbSymbolTableRecord
100
AcDbTextStyleTableRecord
  2
STANDARD
 70
     0
 40
0.0
 41
1.0
 50
0.0
 71
     0
 42
2.5
  3
txt
  4

  0
ENDTAB
  0
TABLE
  2
VIEW
  5
6
330
0
100
AcDbSymbolTable
 70
     0
  0
ENDTAB
  0
TABLE
  2
UCS
  5
7
330
0
100
AcDbSymbolTable
 70
     0
  0
ENDTAB
  0
TABLE
  2
APPID
  5
9
330
0
100
AcDbSymbolTable
 70
     2
  0
APPID
  5
12
330
9
100
AcDbSymbolTableRecord
100
AcDbRegAppTableRecord
  2
ACAD
 70
     0
  0
ENDTAB
  0
TABLE
  2
DIMSTYLE
  5
A
330
0
100
AcDbSymbolTable
 70
     1
  0
DIMSTYLE
105
27
330
A
100
AcDbSymbolTableRecord
100
AcDbDimStyleTableRecord
  2
ISO-25
 70
     0
  3

  4

  5

  6

  7

 40
1.0
 41
2.5
 42
0.625
 43
3.75
 44
1.25
 45
0.0
 46
0.0
 47
0.0
 48
0.0
140
2.5
141
2.5
142
0.0
143
0.03937007874016
144
1.0
145
0.0
146
1.0
147
0.625
 71
     0
 72
     0
 73
     0
 74
     0
 75
     0
 76
     0
 77
     1
 78
     8
170
     0
171
     3
172
     1
173
     0
174
     0
175
     0
176
     0
177
     0
178
     0
270
     2
271
     2
272
     2
273
     2
274
     3
340
11
275
     0
280
     0
281
     0
282
     0
283
     0
284
     8
285
     0
286
     0
287
     3
288
     0
  0
ENDTAB
  0
TABLE
  2
BLOCK_RECORD
  5
1
330
0
100
AcDbSymbolTable
 70
     1
  0
BLOCK_RECORD
  5
1F
330
1
100
AcDbSymbolTableRecord
100
AcDbBlockTableRecord
  2
*MODEL_SPACE
  0
BLOCK_RECORD
  5
1B
330
1
100
AcDbSymbolTableRecord
100
AcDbBlockTableRecord
  2
*PAPER_SPACE
  0
ENDTAB
  0
ENDSEC
  0
SECTION
  2
BLOCKS
  0
BLOCK
  5
20
330
1F
100
AcDbEntity
  8
0
100
AcDbBlockBegin
  2
*MODEL_SPACE
 70
     0
 10
0.0
 20
0.0
 30
0.0
  3
*MODEL_SPACE
  1

  0
ENDBLK
  5
21
330
1F
100
AcDbEntity
  8
0
100
AcDbBlockEnd
  0
BLOCK
  5
1C
330
1B
100
AcDbEntity
 67
     1
  8
0
100
AcDbBlockBegin
  2
*PAPER_SPACE
  1

  0
ENDBLK
  5
1D
330
1B
100
AcDbEntity
 67
     1
  8
0
100
AcDbBlockEnd
  0
ENDSEC
  0
SECTION
  2
ENTITIES
  0
LINE
  5
100
100
AcDbEntity
  8
Laag_1
 62
5
100
AcDbLine
 10
126.000002
 20
182.000004
 30
0.0
 11
130.000002
 21
182.000004
 31
0.0
  0
LINE
  5
101
100
AcDbEntity
  8
Laag_1
 62
5
100
AcDbLine
 10
130.000002
 20
182.000004
 30
0.0
 11
130.000002
 21
178.000003
 31
0.0
  0
LINE
  5
102
100
AcDbEntity
  8
Laag_1
 62
5
100
AcDbLine
 10
130.000002
 20
178.000003
 30
0.0
 11
134.000003
 21
178.000003
 31
0.0
  0
LINE
  5
103
100
AcDbEntity
  8
Laag_1
 62
5
100
AcDbLine
 10
134.000003
 20
178.000003
 30
0.0
 11
134.000003
 21
174.000003
 31
0.0
  0
LINE
  5
104
100
AcDbEntity
  8
Laag_1
 62
5
100
AcDbLine
 10
134.000003
 20
174.000003
 30
0.0
 11
130.000002
 21
174.000003
 31
0.0
  0
LINE
  5
105
100
AcDbEntity
  8
Laag_1
 62
5
100
AcDbLine
 10
130.000002
 20
174.000003
 30
0.0
 11
130.000002
 21
170.000002
 31
0.0
  0
LINE
  5
106
100
AcDbEntity
  8
Laag_1
 62
5
100
AcDbLine
 10
130.000002
 20
170.000002
 30
0.0
 11
126.000002
 21
170.000002
 31
0.0
  0
LINE
  5
107
100
AcDbEntity
  8
Laag_1
 62
5
100
AcDbLine
 10
126.000002
 20
170.000002
 30
0.0
 11
126.000002
 21
174.000003
 31
0.0
  0
LINE
  5
108
100
AcDbEntity
  8
Laag_1
 62
5
100
AcDbLine
 10
126.000002
 20
174.000003
 30
0.0
 11
122.000002
 21
174.000003
 31
0.0
  0
LINE
  5
109
100
AcDbEntity
  8
Laag_1
 62
5
100
AcDbLine
 10
122.000002
 20
174.000003
 30
0.0
 11
122.000002
 21
178.000003
 31
0.0
  0
LINE
  5
10a
100
AcDbEntity
  8
Laag_1
 62
5
100
AcDbLine
 10
122.000002
 20
178.000003
 30
0.0
 11
126.000002
 21
178.000003
 31
0.0
  0
LINE
  5
10b
100
AcDbEntity
  8
Laag_1
 62
5
100
AcDbLine
 10
126.000002
 20
178.000003
 30
0.0
 11
126.000002
 21
182.000004
 31
0.0
  0
LINE
  5
10c
100
AcDbEntity
  8
Laag_1
 62
5
100
AcDbLine
 10
142.606832
 20
156.400698
 30
0.0
 11
113.000000
 21
156.400698
 31
0.0
  0
LINE
  5
10d
100
AcDbEntity
  8
Laag_1
 62
5
100
AcDbLine
 10
113.000000
 20
156.400698
 30
0.0
 11
113.000000
 21
196.000004
 31
0.0
  0
LINE
  5
10e
100
AcDbEntity
  8
Laag_1
 62
5
100
AcDbLine
 10
113.000000
 20
196.000004
 30
0.0
 11
142.606832
 21
196.000004
 31
0.0
  0
LINE
  5
10f
100
AcDbEntity
  8
Laag_1
 62
5
100
AcDbLine
 10
142.606832
 20
196.000004
 30
0.0
 11
142.606832
 21
156.400698
 31
0.0
  0
LINE
  5
110
100
AcDbEntity
  8
Laag_1
 62
5
100
AcDbLine
 10
119.999997
 20
111.500006
 30
0.0
 11
119.999997
 21
121.500006
 31
0.0
  0
LINE
  5
111
100
AcDbEntity
  8
Laag_1
 62
5
100
AcDbLine
 10
119.999997
 20
121.500006
 30
0.0
 11
111.999996
 21
107.500006
 31
0.0
  0
LINE
  5
112
100
AcDbEntity
  8
Laag_1
 62
5
100
AcDbLine
 10
111.999996
 20
107.500006
 30
0.0
 11
115.999997
 21
107.500006
 31
0.0
  0
LINE
  5
113
100
AcDbEntity
  8
Laag_1
 62
5
100
AcDbLine
 10
115.999997
 20
107.500006
 30
0.0
 11
115.999999
 21
100.000004
 31
0.0
  0
LINE
  5
114
100
AcDbEntity
  8
Laag_1
 62
5
100
AcDbLine
 10
115.999999
 20
100.000004
 30
0.0
 11
128.000001
 21
100.000004
 31
0.0
  0
LINE
  5
115
100
AcDbEntity
  8
Laag_1
 62
5
100
AcDbLine
 10
128.000001
 20
100.000004
 30
0.0
 11
127.999998
 21
107.500006
 31
0.0
  0
LINE
  5
116
100
AcDbEntity
  8
Laag_1
 62
5
100
AcDbLine
 10
127.999998
 20
107.500006
 30
0.0
 11
131.999998
 21
107.500006
 31
0.0
  0
LINE
  5
117
100
AcDbEntity
  8
Laag_1
 62
5
100
AcDbLine
 10
131.999998
 20
107.500006
 30
0.0
 11
123.999998
 21
121.500006
 31
0.0
  0
LINE
  5
118
100
AcDbEntity
  8
Laag_1
 62
5
100
AcDbLine
 10
123.999998
 20
121.500006
 30
0.0
 11
123.999998
 21
111.500006
 31
0.0
  0
LINE
  5
119
100
AcDbEntity
  8
Laag_1
 62
5
100
AcDbLine
 10
123.999998
 20
111.500006
 30
0.0
 11
119.999997
 21
111.500006
 31
0.0
  0
SPLINE
  5
11a
100
AcDbEntity
  8
Laag_1
 62
5
100
AcDbSpline
 70
8
 71
3
 72
8
 73
4
 74
0
 40
0
 40
0
 40
0
 40
0
 40
1
 40
1
 40
1
 40
1
 10
100.000000
 20
166.903615
 30
0.0
 10
98.646519
 20
166.903615
 30
0.0
 10
97.548195
 20
165.805311
 30
0.0
 10
97.548195
 20
164.451810
 30
0.0
  0
SPLINE
  5
11b
100
AcDbEntity
  8
Laag_1
 62
5
100
AcDbSpline
 70
8
 71
3
 72
8
 73
4
 74
0
 40
0
 40
0
 40
0
 40
0
 40
1
 40
1
 40
1
 40
1
 10
97.548195
 20
164.451810
 30
0.0
 10
97.548195
 20
163.098309
 30
0.0
 10
98.646519
 20
162.000004
 30
0.0
 10
100.000000
 20
162.000004
 30
0.0
  0
SPLINE
  5
11c
100
AcDbEntity
  8
Laag_1
 62
5
100
AcDbSpline
 70
8
 71
3
 72
8
 73
4
 74
0
 40
0
 40
0
 40
0
 40
0
 40
1
 40
1
 40
1
 40
1
 10
100.000000
 20
162.000004
 30
0.0
 10
101.353510
 20
162.000004
 30
0.0
 10
102.451806
 20
163.098309
 30
0.0
 10
102.451806
 20
164.451810
 30
0.0
  0
SPLINE
  5
11d
100
AcDbEntity
  8
Laag_1
 62
5
100
AcDbSpline
 70
8
 71
3
 72
8
 73
4
 74
0
 40
0
 40
0
 40
0
 40
0
 40
1
 40
1
 40
1
 40
1
 10
102.451806
 20
164.451810
 30
0.0
 10
102.451806
 20
165.805311
 30
0.0
 10
101.353510
 20
166.903615
 30
0.0
 10
100.000000
 20
166.903615
 30
0.0
  0
LINE
  5
11e
100
AcDbEntity
  8
Laag_1
 62
5
100
AcDbLine
 10
100.000000
 20
166.903615
 30
0.0
 11
100.000000
 21
166.903615
 31
0.0
  0
SPLINE
  5
11f
100
AcDbEntity
  8
Laag_1
 62
5
100
AcDbSpline
 70
8
 71
3
 72
8
 73
4
 74
0
 40
0
 40
0
 40
0
 40
0
 40
1
 40
1
 40
1
 40
1
 10
100.000000
 20
178.906876
 30
0.0
 10
98.646519
 20
178.906876
 30
0.0
 10
97.548195
 20
177.808572
 30
0.0
 10
97.548195
 20
176.455071
 30
0.0
  0
SPLINE
  5
120
100
AcDbEntity
  8
Laag_1
 62
5
100
AcDbSpline
 70
8
 71
3
 72
8
 73
4
 74
0
 40
0
 40
0
 40
0
 40
0
 40
1
 40
1
 40
1
 40
1
 10
97.548195
 20
176.455071
 30
0.0
 10
97.548195
 20
175.101570
 30
0.0
 10
98.646519
 20
174.003265
 30
0.0
 10
100.000000
 20
174.003265
 30
0.0
  0
SPLINE
  5
121
100
AcDbEntity
  8
Laag_1
 62
5
100
AcDbSpline
 70
8
 71
3
 72
8
 73
4
 74
0
 40
0
 40
0
 40
0
 40
0
 40
1
 40
1
 40
1
 40
1
 10
100.000000
 20
174.003265
 30
0.0
 10
101.353510
 20
174.003265
 30
0.0
 10
102.451806
 20
175.101570
 30
0.0
 10
102.451806
 20
176.455071
 30
0.0
  0
SPLINE
  5
122
100
AcDbEntity
  8
Laag_1
 62
5
100
AcDbSpline
 70
8
 71
3
 72
8
 73
4
 74
0
 40
0
 40
0
 40
0
 40
0
 40
1
 40
1
 40
1
 40
1
 10
102.451806
 20
176.455071
 30
0.0
 10
102.451806
 20
177.808572
 30
0.0
 10
101.353510
 20
178.906876
 30
0.0
 10
100.000000
 20
178.906876
 30
0.0
  0
LINE
  5
123
100
AcDbEntity
  8
Laag_1
 62
5
100
AcDbLine
 10
100.000000
 20
178.906876
 30
0.0
 11
100.000000
 21
178.906876
 31
0.0
  0
SPLINE
  5
124
100
AcDbEntity
  8
Laag_1
 62
5
100
AcDbSpline
 70
8
 71
3
 72
8
 73
4
 74
0
 40
0
 40
0
 40
0
 40
0
 40
1
 40
1
 40
1
 40
1
 10
100.000000
 20
190.910140
 30
0.0
 10
98.646519
 20
190.910140
 30
0.0
 10
97.548195
 20
189.811836
 30
0.0
 10
97.548195
 20
188.458335
 30
0.0
  0
SPLINE
  5
125
100
AcDbEntity
  8
Laag_1
 62
5
100
AcDbSpline
 70
8
 71
3
 72
8
 73
4
 74
0
 40
0
 40
0
 40
0
 40
0
 40
1
 40
1
 40
1
 40
1
 10
97.548195
 20
188.458335
 30
0.0
 10
97.548195
 20
187.104834
 30
0.0
 10
98.646519
 20
186.006529
 30
0.0
 10
100.000000
 20
186.006529
 30
0.0
  0
SPLINE
  5
126
100
AcDbEntity
  8
Laag_1
 62
5
100
AcDbSpline
 70
8
 71
3
 72
8
 73
4
 74
0
 40
0
 40
0
 40
0
 40
0
 40
1
 40
1
 40
1
 40
1
 10
100.000000
 20
186.006529
 30
0.0
 10
101.353510
 20
186.006529
 30
0.0
 10
102.451806
 20
187.104834
 30
0.0
 10
102.451806
 20
188.458335
 30
0.0
  0
SPLINE
  5
127
100
AcDbEntity
  8
Laag_1
 62
5
100
AcDbSpline
 70
8
 71
3
 72
8
 73
4
 74
0
 40
0
 40
0
 40
0
 40
0
 40
1
 40
1
 40
1
 40
1
 10
102.451806
 20
188.458335
 30
0.0
 10
102.451806
 20
189.811836
 30
0.0
 10
101.353510
 20
190.910140
 30
0.0
 10
100.000000
 20
190.910140
 30
0.0
  0
LINE
  5
128
100
AcDbEntity
  8
Laag_1
 62
5
100
AcDbLine
 10
100.000000
 20
190.910140
 30
0.0
 11
100.000000
 21
190.910140
 31
0.0
  0
SPLINE
  5
129
100
AcDbEntity
  8
Laag_1
 62
5
100
AcDbSpline
 70
8
 71
3
 72
8
 73
4
 74
0
 40
0
 40
0
 40
0
 40
0
 40
1
 40
1
 40
1
 40
1
 10
109.699781
 20
163.701180
 30
0.0
 10
109.696958
 20
163.810880
 30
0.0
 10
109.693854
 20
163.920312
 30
0.0
 10
109.691032
 20
164.018652
 30
0.0
  0
LINE
  5
12a
100
AcDbEntity
  8
Laag_1
 62
5
100
AcDbLine
 10
109.691032
 20
164.018652
 30
0.0
 11
109.691032
 21
188.483791
 31
0.0
  0
SPLINE
  5
12b
100
AcDbEntity
  8
Laag_1
 62
5
100
AcDbSpline
 70
8
 71
3
 72
8
 73
4
 74
0
 40
0
 40
0
 40
0
 40
0
 40
1
 40
1
 40
1
 40
1
 10
109.691032
 20
188.483791
 30
0.0
 10
109.695265
 20
188.562314
 30
0.0
 10
109.696958
 20
188.643896
 30
0.0
 10
109.699781
 20
188.713068
 30
0.0
  0
SPLINE
  5
12c
100
AcDbEntity
  8
Laag_1
 62
5
100
AcDbSpline
 70
8
 71
3
 72
8
 73
4
 74
0
 40
0
 40
0
 40
0
 40
0
 40
1
 40
1
 40
1
 40
1
 10
109.699781
 20
188.713068
 30
0.0
 10
109.696958
 20
191.246995
 30
0.0
 10
108.651692
 20
193.773999
 30
0.0
 10
106.859948
 20
195.565777
 30
0.0
  0
SPLINE
  5
12d
100
AcDbEntity
  8
Laag_1
 62
5
100
AcDbSpline
 70
8
 71
3
 72
8
 73
4
 74
0
 40
0
 40
0
 40
0
 40
0
 40
1
 40
1
 40
1
 40
1
 10
106.859948
 20
195.565777
 30
0.0
 10
105.066087
 20
197.359632
 30
0.0
 10
102.543443
 20
198.405706
 30
0.0
 10
100.007225
 20
198.405638
 30
0.0
  0
SPLINE
  5
12e
100
AcDbEntity
  8
Laag_1
 62
5
100
AcDbSpline
 70
8
 71
3
 72
8
 73
4
 74
0
 40
0
 40
0
 40
0
 40
0
 40
1
 40
1
 40
1
 40
1
 10
100.007225
 20
198.405638
 30
0.0
 10
97.471007
 20
198.405573
 30
0.0
 10
94.939445
 20
197.359618
 30
0.0
 10
93.145697
 20
195.565777
 30
0.0
  0
SPLINE
  5
12f
100
AcDbEntity
  8
Laag_1
 62
5
100
AcDbSpline
 70
8
 71
3
 72
8
 73
4
 74
0
 40
0
 40
0
 40
0
 40
0
 40
1
 40
1
 40
1
 40
1
 10
93.145697
 20
195.565777
 30
0.0
 10
91.351949
 20
193.771936
 30
0.0
 10
90.305780
 20
191.241046
 30
0.0
 10
90.305836
 20
188.704249
 30
0.0
  0
SPLINE
  5
130
100
AcDbEntity
  8
Laag_1
 62
5
100
AcDbSpline
 70
8
 71
3
 72
8
 73
4
 74
0
 40
0
 40
0
 40
0
 40
0
 40
1
 40
1
 40
1
 40
1
 10
90.305836
 20
188.704249
 30
0.0
 10
90.308659
 20
188.595029
 30
0.0
 10
90.312045
 20
188.489201
 30
0.0
 10
90.314585
 20
188.395582
 30
0.0
  0
LINE
  5
131
100
AcDbEntity
  8
Laag_1
 62
5
100
AcDbLine
 10
90.314585
 20
188.395582
 30
0.0
 11
90.314585
 21
163.930444
 31
0.0
  0
SPLINE
  5
132
100
AcDbEntity
  8
Laag_1
 62
5
100
AcDbSpline
 70
8
 71
3
 72
8
 73
4
 74
0
 40
0
 40
0
 40
0
 40
0
 40
1
 40
1
 40
1
 40
1
 10
90.314585
 20
163.930444
 30
0.0
 10
90.311199
 20
163.848165
 30
0.0
 10
90.308659
 20
163.765953
 30
0.0
 10
90.305836
 20
163.692361
 30
0.0
  0
SPLINE
  5
133
100
AcDbEntity
  8
Laag_1
 62
5
100
AcDbSpline
 70
8
 71
3
 72
8
 73
4
 74
0
 40
0
 40
0
 40
0
 40
0
 40
1
 40
1
 40
1
 40
1
 10
90.305836
 20
163.692361
 30
0.0
 10
90.311763
 20
160.377274
 30
0.0
 10
92.171438
 20
157.125185
 30
0.0
 10
95.006614
 20
155.410903
 30
0.0
  0
LINE
  5
134
100
AcDbEntity
  8
Laag_1
 62
5
100
AcDbLine
 10
95.006614
 20
155.410903
 30
0.0
 11
95.006614
 21
116.808194
 31
0.0
  0
LINE
  5
135
100
AcDbEntity
  8
Laag_1
 62
5
100
AcDbLine
 10
95.006614
 20
116.808194
 30
0.0
 11
90.005975
 21
107.803541
 31
0.0
  0
LINE
  5
136
100
AcDbEntity
  8
Laag_1
 62
5
100
AcDbLine
 10
90.005975
 20
107.803541
 30
0.0
 11
94.001169
 21
107.803541
 31
0.0
  0
LINE
  5
137
100
AcDbEntity
  8
Laag_1
 62
5
100
AcDbLine
 10
94.001169
 20
107.803541
 30
0.0
 11
94.005233
 21
100.307570
 31
0.0
  0
LINE
  5
138
100
AcDbEntity
  8
Laag_1
 62
5
100
AcDbLine
 10
94.005233
 20
100.307570
 30
0.0
 11
98.009289
 21
100.307570
 31
0.0
  0
LINE
  5
139
100
AcDbEntity
  8
Laag_1
 62
5
100
AcDbLine
 10
98.009289
 20
100.307570
 30
0.0
 11
98.005225
 21
111.807569
 31
0.0
  0
LINE
  5
13a
100
AcDbEntity
  8
Laag_1
 62
5
100
AcDbLine
 10
98.005225
 20
111.807569
 30
0.0
 11
102.000420
 21
111.807569
 31
0.0
  0
LINE
  5
13b
100
AcDbEntity
  8
Laag_1
 62
5
100
AcDbLine
 10
102.000420
 20
111.807569
 30
0.0
 11
102.004484
 21
100.307570
 31
0.0
  0
LINE
  5
13c
100
AcDbEntity
  8
Laag_1
 62
5
100
AcDbLine
 10
102.004484
 20
100.307570
 30
0.0
 11
106.008511
 21
100.307570
 31
0.0
  0
LINE
  5
13d
100
AcDbEntity
  8
Laag_1
 62
5
100
AcDbLine
 10
106.008511
 20
100.307570
 30
0.0
 11
106.004447
 21
107.803541
 31
0.0
  0
LINE
  5
13e
100
AcDbEntity
  8
Laag_1
 62
5
100
AcDbLine
 10
106.004447
 20
107.803541
 30
0.0
 11
109.999670
 21
107.803541
 31
0.0
  0
LINE
  5
13f
100
AcDbEntity
  8
Laag_1
 62
5
100
AcDbLine
 10
109.999670
 20
107.803541
 30
0.0
 11
104.999031
 21
116.808194
 31
0.0
  0
LINE
  5
140
100
AcDbEntity
  8
Laag_1
 62
5
100
AcDbLine
 10
104.999031
 20
116.808194
 30
0.0
 11
104.999031
 21
155.410903
 31
0.0
  0
SPLINE
  5
141
100
AcDbEntity
  8
Laag_1
 62
5
100
AcDbSpline
 70
8
 71
3
 72
8
 73
4
 74
0
 40
0
 40
0
 40
0
 40
0
 40
1
 40
1
 40
1
 40
1
 10
104.999031
 20
155.410903
 30
0.0
 10
107.836916
 20
157.125298
 30
0.0
 10
109.695096
 20
160.383463
 30
0.0
 10
109.699781
 20
163.701180
 30
0.0
  0
LINE
  5
142
100
AcDbEntity
  8
Laag_1
 62
5
100
AcDbLine
 10
109.699781
 20
163.701180
 30
0.0
 11
109.699781
 21
163.701180
 31
0.0
  0
SPLINE
  5
143
100
AcDbEntity
  8
Laag_1
 62
5
100
AcDbSpline
 70
8
 71
3
 72
8
 73
4
 74
0
 40
0
 40
0
 40
0
 40
0
 40
1
 40
1
 40
1
 40
1
 10
98.005225
 20
149.554791
 30
0.0
 10
98.195161
 20
149.554791
 30
0.0
 10
98.349170
 20
149.388591
 30
0.0
 10
98.349170
 20
149.184375
 30
0.0
  0
SPLINE
  5
144
100
AcDbEntity
  8
Laag_1
 62
5
100
AcDbSpline
 70
8
 71
3
 72
8
 73
4
 74
0
 40
0
 40
0
 40
0
 40
0
 40
1
 40
1
 40
1
 40
1
 10
98.349170
 20
149.184375
 30
0.0
 10
98.349170
 20
148.980162
 30
0.0
 10
98.195161
 20
148.813958
 30
0.0
 10
98.005225
 20
148.813958
 30
0.0
  0
SPLINE
  5
145
100
AcDbEntity
  8
Laag_1
 62
5
100
AcDbSpline
 70
8
 71
3
 72
8
 73
4
 74
0
 40
0
 40
0
 40
0
 40
0
 40
1
 40
1
 40
1
 40
1
 10
98.005225
 20
148.813958
 30
0.0
 10
97.815233
 20
148.813958
 30
0.0
 10
97.661253
 20
148.980162
 30
0.0
 10
97.661253
 20
149.184375
 30
0.0
  0
SPLINE
  5
146
100
AcDbEntity
  8
Laag_1
 62
5
100
AcDbSpline
 70
8
 71
3
 72
8
 73
4
 74
0
 40
0
 40
0
 40
0
 40
0
 40
1
 40
1
 40
1
 40
1
 10
97.661253
 20
149.184375
 30
0.0
 10
97.661253
 20
149.388591
 30
0.0
 10
97.815205
 20
149.554791
 30
0.0
 10
98.005225
 20
149.554791
 30
0.0
  0
LINE
  5
147
100
AcDbEntity
  8
Laag_1
 62
5
100
AcDbLine
 10
98.005225
 20
149.554791
 30
0.0
 11
98.005225
 21
149.554791
 31
0.0
  0
SPLINE
  5
148
100
AcDbEntity
  8
Laag_1
 62
5
100
AcDbSpline
 70
8
 71
3
 72
8
 73
4
 74
0
 40
0
 40
0
 40
0
 40
0
 40
1
 40
1
 40
1
 40
1
 10
100.007225
 20
149.554791
 30
0.0
 10
100.197189
 20
149.554791
 30
0.0
 10
100.351169
 20
149.388591
 30
0.0
 10
100.351169
 20
149.184375
 30
0.0
  0
SPLINE
  5
149
100
AcDbEntity
  8
Laag_1
 62
5
100
AcDbSpline
 70
8
 71
3
 72
8
 73
4
 74
0
 40
0
 40
0
 40
0
 40
0
 40
1
 40
1
 40
1
 40
1
 10
100.351169
 20
149.184375
 30
0.0
 10
100.351169
 20
148.980162
 30
0.0
 10
100.197189
 20
148.813958
 30
0.0
 10
100.007225
 20
148.813958
 30
0.0
  0
SPLINE
  5
14a
100
AcDbEntity
  8
Laag_1
 62
5
100
AcDbSpline
 70
8
 71
3
 72
8
 73
4
 74
0
 40
0
 40
0
 40
0
 40
0
 40
1
 40
1
 40
1
 40
1
 10
100.007225
 20
148.813958
 30
0.0
 10
99.817261
 20
148.813958
 30
0.0
 10
99.663281
 20
148.980162
 30
0.0
 10
99.663281
 20
149.184375
 30
0.0
  0
SPLINE
  5
14b
100
AcDbEntity
  8
Laag_1
 62
5
100
AcDbSpline
 70
8
 71
3
 72
8
 73
4
 74
0
 40
0
 40
0
 40
0
 40
0
 40
1
 40
1
 40
1
 40
1
 10
99.663281
 20
149.184375
 30
0.0
 10
99.663281
 20
149.388591
 30
0.0
 10
99.817261
 20
149.554791
 30
0.0
 10
100.007225
 20
149.554791
 30
0.0
  0
LINE
  5
14c
100
AcDbEntity
  8
Laag_1
 62
5
100
AcDbLine
 10
100.007225
 20
149.554791
 30
0.0
 11
100.007225
 21
149.554791
 31
0.0
  0
SPLINE
  5
14d
100
AcDbEntity
  8
Laag_1
 62
5
100
AcDbSpline
 70
8
 71
3
 72
8
 73
4
 74
0
 40
0
 40
0
 40
0
 40
0
 40
1
 40
1
 40
1
 40
1
 10
102.000420
 20
149.554791
 30
0.0
 10
102.190383
 20
149.554791
 30
0.0
 10
102.344392
 20
149.388591
 30
0.0
 10
102.344392
 20
149.184375
 30
0.0
  0
SPLINE
  5
14e
100
AcDbEntity
  8
Laag_1
 62
5
100
AcDbSpline
 70
8
 71
3
 72
8
 73
4
 74
0
 40
0
 40
0
 40
0
 40
0
 40
1
 40
1
 40
1
 40
1
 10
102.344392
 20
149.184375
 30
0.0
 10
102.344392
 20
148.980162
 30
0.0
 10
102.190383
 20
148.813958
 30
0.0
 10
102.000420
 20
148.813958
 30
0.0
  0
SPLINE
  5
14f
100
AcDbEntity
  8
Laag_1
 62
5
100
AcDbSpline
 70
8
 71
3
 72
8
 73
4
 74
0
 40
0
 40
0
 40
0
 40
0
 40
1
 40
1
 40
1
 40
1
 10
102.000420
 20
148.813958
 30
0.0
 10
101.810456
 20
148.813958
 30
0.0
 10
101.656447
 20
148.980162
 30
0.0
 10
101.656447
 20
149.184375
 30
0.0
  0
SPLINE
  5
150
100
AcDbEntity
  8
Laag_1
 62
5
100
AcDbSpline
 70
8
 71
3
 72
8
 73
4
 74
0
 40
0
 40
0
 40
0
 40
0
 40
1
 40
1
 40
1
 40
1
 10
101.656447
 20
149.184375
 30
0.0
 10
101.656447
 20
149.388591
 30
0.0
 10
101.810456
 20
149.554791
 30
0.0
 10
102.000420
 20
149.554791
 30
0.0
  0
LINE
  5
151
100
AcDbEntity
  8
Laag_1
 62
5
100
AcDbLine
 10
102.000420
 20
149.554791
 30
0.0
 11
102.000420
 21
149.554791
 31
0.0
  0
SPLINE
  5
152
100
AcDbEntity
  8
Laag_1
 62
5
100
AcDbSpline
 70
8
 71
3
 72
8
 73
4
 74
0
 40
0
 40
0
 40
0
 40
0
 40
1
 40
1
 40
1
 40
1
 10
98.005225
 20
129.552291
 30
0.0
 10
98.195161
 20
129.552291
 30
0.0
 10
98.349170
 20
129.386088
 30
0.0
 10
98.349170
 20
129.181875
 30
0.0
  0
SPLINE
  5
153
100
AcDbEntity
  8
Laag_1
 62
5
100
AcDbSpline
 70
8
 71
3
 72
8
 73
4
 74
0
 40
0
 40
0
 40
0
 40
0
 40
1
 40
1
 40
1
 40
1
 10
98.349170
 20
129.181875
 30
0.0
 10
98.349170
 20
128.977659
 30
0.0
 10
98.195161
 20
128.811458
 30
0.0
 10
98.005225
 20
128.811458
 30
0.0
  0
SPLINE
  5
154
100
AcDbEntity
  8
Laag_1
 62
5
100
AcDbSpline
 70
8
 71
3
 72
8
 73
4
 74
0
 40
0
 40
0
 40
0
 40
0
 40
1
 40
1
 40
1
 40
1
 10
98.005225
 20
128.811458
 30
0.0
 10
97.815233
 20
128.811458
 30
0.0
 10
97.661253
 20
128.977659
 30
0.0
 10
97.661253
 20
129.181875
 30
0.0
  0
SPLINE
  5
155
100
AcDbEntity
  8
Laag_1
 62
5
100
AcDbSpline
 70
8
 71
3
 72
8
 73
4
 74
0
 40
0
 40
0
 40
0
 40
0
 40
1
 40
1
 40
1
 40
1
 10
97.661253
 20
129.181875
 30
0.0
 10
97.661253
 20
129.386088
 30
0.0
 10
97.815205
 20
129.552291
 30
0.0
 10
98.005225
 20
129.552291
 30
0.0
  0
LINE
  5
156
100
AcDbEntity
  8
Laag_1
 62
5
100
AcDbLine
 10
98.005225
 20
129.552291
 30
0.0
 11
98.005225
 21
129.552291
 31
0.0
  0
SPLINE
  5
157
100
AcDbEntity
  8
Laag_1
 62
5
100
AcDbSpline
 70
8
 71
3
 72
8
 73
4
 74
0
 40
0
 40
0
 40
0
 40
0
 40
1
 40
1
 40
1
 40
1
 10
100.007225
 20
129.552291
 30
0.0
 10
100.197189
 20
129.552291
 30
0.0
 10
100.351169
 20
129.386088
 30
0.0
 10
100.351169
 20
129.181875
 30
0.0
  0
SPLINE
  5
158
100
AcDbEntity
  8
Laag_1
 62
5
100
AcDbSpline
 70
8
 71
3
 72
8
 73
4
 74
0
 40
0
 40
0
 40
0
 40
0
 40
1
 40
1
 40
1
 40
1
 10
100.351169
 20
129.181875
 30
0.0
 10
100.351169
 20
128.977659
 30
0.0
 10
100.197189
 20
128.811458
 30
0.0
 10
100.007225
 20
128.811458
 30
0.0
  0
SPLINE
  5
159
100
AcDbEntity
  8
Laag_1
 62
5
100
AcDbSpline
 70
8
 71
3
 72
8
 73
4
 74
0
 40
0
 40
0
 40
0
 40
0
 40
1
 40
1
 40
1
 40
1
 10
100.007225
 20
128.811458
 30
0.0
 10
99.817261
 20
128.811458
 30
0.0
 10
99.663281
 20
128.977659
 30
0.0
 10
99.663281
 20
129.181875
 30
0.0
  0
SPLINE
  5
15a
100
AcDbEntity
  8
Laag_1
 62
5
100
AcDbSpline
 70
8
 71
3
 72
8
 73
4
 74
0
 40
0
 40
0
 40
0
 40
0
 40
1
 40
1
 40
1
 40
1
 10
99.663281
 20
129.181875
 30
0.0
 10
99.663281
 20
129.386088
 30
0.0
 10
99.817261
 20
129.552291
 30
0.0
 10
100.007225
 20
129.552291
 30
0.0
  0
LINE
  5
15b
100
AcDbEntity
  8
Laag_1
 62
5
100
AcDbLine
 10
100.007225
 20
129.552291
 30
0.0
 11
100.007225
 21
129.552291
 31
0.0
  0
SPLINE
  5
15c
100
AcDbEntity
  8
Laag_1
 62
5
100
AcDbSpline
 70
8
 71
3
 72
8
 73
4
 74
0
 40
0
 40
0
 40
0
 40
0
 40
1
 40
1
 40
1
 40
1
 10
102.000420
 20
129.552291
 30
0.0
 10
102.190383
 20
129.552291
 30
0.0
 10
102.344392
 20
129.386088
 30
0.0
 10
102.344392
 20
129.181875
 30
0.0
  0
SPLINE
  5
15d
100
AcDbEntity
  8
Laag_1
 62
5
100
AcDbSpline
 70
8
 71
3
 72
8
 73
4
 74
0
 40
0
 40
0
 40
0
 40
0
 40
1
 40
1
 40
1
 40
1
 10
102.344392
 20
129.181875
 30
0.0
 10
102.344392
 20
128.977659
 30
0.0
 10
102.190383
 20
128.811458
 30
0.0
 10
102.000420
 20
128.811458
 30
0.0
  0
SPLINE
  5
15e
100
AcDbEntity
  8
Laag_1
 62
5
100
AcDbSpline
 70
8
 71
3
 72
8
 73
4
 74
0
 40
0
 40
0
 40
0
 40
0
 40
1
 40
1
 40
1
 40
1
 10
102.000420
 20
128.811458
 30
0.0
 10
101.810456
 20
128.811458
 30
0.0
 10
101.656447
 20
128.977659
 30
0.0
 10
101.656447
 20
129.181875
 30
0.0
  0
SPLINE
  5
15f
100
AcDbEntity
  8
Laag_1
 62
5
100
AcDbSpline
 70
8
 71
3
 72
8
 73
4
 74
0
 40
0
 40
0
 40
0
 40
0
 40
1
 40
1
 40
1
 40
1
 10
101.656447
 20
129.181875
 30
0.0
 10
101.656447
 20
129.386088
 30
0.0
 10
101.810456
 20
129.552291
 30
0.0
 10
102.000420
 20
129.552291
 30
0.0
  0
LINE
  5
160
100
AcDbEntity
  8
Laag_1
 62
5
100
AcDbLine
 10
102.000420
 20
129.552291
 30
0.0
 11
102.000420
 21
129.552291
 31
0.0
  0
LINE
  5
161
100
AcDbEntity
  8
Laag_1
 62
5
100
AcDbLine
 10
133.599307
 20
141.000004
 30
0.0
 11
133.599307
 21
137.000003
 31
0.0
  0
LINE
  5
162
100
AcDbEntity
  8
Laag_1
 62
5
100
AcDbLine
 10
133.599307
 20
137.000003
 30
0.0
 11
129.599306
 21
137.000003
 31
0.0
  0
LINE
  5
163
100
AcDbEntity
  8
Laag_1
 62
5
100
AcDbLine
 10
129.599306
 20
137.000003
 30
0.0
 11
129.599306
 21
133.000003
 31
0.0
  0
LINE
  5
164
100
AcDbEntity
  8
Laag_1
 62
5
100
AcDbLine
 10
129.599306
 20
133.000003
 30
0.0
 11
125.599306
 21
133.000003
 31
0.0
  0
LINE
  5
165
100
AcDbEntity
  8
Laag_1
 62
5
100
AcDbLine
 10
125.599306
 20
133.000003
 30
0.0
 11
125.599306
 21
137.000003
 31
0.0
  0
LINE
  5
166
100
AcDbEntity
  8
Laag_1
 62
5
100
AcDbLine
 10
125.599306
 20
137.000003
 30
0.0
 11
121.599305
 21
137.000003
 31
0.0
  0
LINE
  5
167
100
AcDbEntity
  8
Laag_1
 62
5
100
AcDbLine
 10
121.599305
 20
137.000003
 30
0.0
 11
121.599305
 21
141.000004
 31
0.0
  0
LINE
  5
168
100
AcDbEntity
  8
Laag_1
 62
5
100
AcDbLine
 10
121.599305
 20
141.000004
 30
0.0
 11
125.599306
 21
141.000004
 31
0.0
  0
LINE
  5
169
100
AcDbEntity
  8
Laag_1
 62
5
100
AcDbLine
 10
125.599306
 20
141.000004
 30
0.0
 11
125.599306
 21
145.000004
 31
0.0
  0
LINE
  5
16a
100
AcDbEntity
  8
Laag_1
 62
5
100
AcDbLine
 10
125.599306
 20
145.000004
 30
0.0
 11
129.599306
 21
145.000004
 31
0.0
  0
LINE
  5
16b
100
AcDbEntity
  8
Laag_1
 62
5
100
AcDbLine
 10
129.599306
 20
145.000004
 30
0.0
 11
129.599306
 21
141.000004
 31
0.0
  0
LINE
  5
16c
100
AcDbEntity
  8
Laag_1
 62
5
100
AcDbLine
 10
129.599306
 20
141.000004
 30
0.0
 11
133.599307
 21
141.000004
 31
0.0
  0
LINE
  5
16d
100
AcDbEntity
  8
Laag_1
 62
5
100
AcDbLine
 10
108.000001
 20
124.393173
 30
0.0
 11
108.000001
 21
154.000006
 31
0.0
  0
LINE
  5
16e
100
AcDbEntity
  8
Laag_1
 62
5
100
AcDbLine
 10
108.000001
 20
154.000006
 30
0.0
 11
147.599307
 21
154.000006
 31
0.0
  0
LINE
  5
16f
100
AcDbEntity
  8
Laag_1
 62
5
100
AcDbLine
 10
147.599307
 20
154.000006
 30
0.0
 11
147.599307
 21
124.393173
 31
0.0
  0
LINE
  5
170
100
AcDbEntity
  8
Laag_1
 62
5
100
AcDbLine
 10
147.599307
 20
124.393173
 30
0.0
 11
108.000001
 21
124.393173
 31
0.0
  0
ENDSEC
  0
SECTION
  2
OBJECTS
  0
DICTIONARY
  5
C
330
0
100
AcDbDictionary
  3
ACAD_GROUP
350
D
  3
ACAD_MLINESTYLE
350
17
  0
DICTIONARY
  5
D
330
C
100
AcDbDictionary
  0
DICTIONARY
  5
1A
330
C
100
AcDbDictionary
  0
DICTIONARY
  5
17
330
C
100
AcDbDictionary
  3
STANDARD
350
18
  0
DICTIONARY
  5
19
330
C
100
AcDbDictionary
  0
ENDSEC
  0
EOF
