  0
SECTION
  2
HEADER
  9
$ACADVER
  1
AC1018
  9
$ACADMAINTVER
 70
     0
  9
$DWGCODEPAGE
  3
ANSI_932
  9
$INSBASE
 10
0.0
 20
0.0
 30
0.0
  9
$EXTMIN
 10
1.000000000000000E+20
 20
1.000000000000000E+20
 30
1.000000000000000E+20
  9
$EXTMAX
 10
-1.000000000000000E+20
 20
-1.000000000000000E+20
 30
-1.000000000000000E+20
  9
$LIMMIN
 10
0.0
 20
0.0
  9
$LIMMAX
 10
12.0
 20
9.0
  9
$ORTHOMODE
 70
     0
  9
$REGENMODE
 70
     1
  9
$FILLMODE
 70
     1
  9
$QTEXTMODE
 70
     0
  9
$MIRRTEXT
 70
     1
  9
$LTSCALE
 40
1.0
  9
$ATTMODE
 70
     1
  9
$TEXTSIZE
 40
0.2
  9
$TRACEWID
 40
0.05
  9
$TEXTSTYLE
  7
Standard
  9
$CLAYER
  8
0
  9
$CELTYPE
  6
ByLayer
  9
$CECOLOR
 62
   256
  9
$CELTSCALE
 40
1.0
  9
$DISPSILH
 70
     0
  9
$DIMSCALE
 40
1.0
  9
$DIMASZ
 40
0.18
  9
$DIMEXO
 40
0.0625
  9
$DIMDLI
 40
0.38
  9
$DIMRND
 40
0.0
  9
$DIMDLE
 40
0.0
  9
$DIMEXE
 40
0.18
  9
$DIMTP
 40
0.0
  9
$DIMTM
 40
0.0
  9
$DIMTXT
 40
0.18
  9
$DIMCEN
 40
0.09
  9
$DIMTSZ
 40
0.0
  9
$DIMTOL
 70
     0
  9
$DIMLIM
 70
     0
  9
$DIMTIH
 70
     1
  9
$DIMTOH
 70
     1
  9
$DIMSE1
 70
     0
  9
$DIMSE2
 70
     0
  9
$DIMTAD
 70
     0
  9
$DIMZIN
 70
     0
  9
$DIMBLK
  1

  9
$DIMASO
 70
     1
  9
$DIMSHO
 70
     1
  9
$DIMPOST
  1

  9
$DIMAPOST
  1

  9
$DIMALT
 70
     0
  9
$DIMALTD
 70
     2
  9
$DIMALTF
 40
25.4
  9
$DIMLFAC
 40
1.0
  9
$DIMTOFL
 70
     0
  9
$DIMTVP
 40
0.0
  9
$DIMTIX
 70
     0
  9
$DIMSOXD
 70
     0
  9
$DIMSAH
 70
     0
  9
$DIMBLK1
  1

  9
$DIMBLK2
  1

  9
$DIMSTYLE
  2
Standard
  9
$DIMCLRD
 70
     0
  9
$DIMCLRE
 70
     0
  9
$DIMCLRT
 70
     0
  9
$DIMTFAC
 40
1.0
  9
$DIMGAP
 40
0.09
  9
$DIMJUST
 70
     0
  9
$DIMSD1
 70
     0
  9
$DIMSD2
 70
     0
  9
$DIMTOLJ
 70
     1
  9
$DIMTZIN
 70
     0
  9
$DIMALTZ
 70
     0
  9
$DIMALTTZ
 70
     0
  9
$DIMUPT
 70
     0
  9
$DIMDEC
 70
     4
  9
$DIMTDEC
 70
     4
  9
$DIMALTU
 70
     2
  9
$DIMALTTD
 70
     2
  9
$DIMTXSTY
  7
Standard
  9
$DIMAUNIT
 70
     0
  9
$DIMADEC
 70
     0
  9
$DIMALTRND
 40
0.0
  9
$DIMAZIN
 70
     0
  9
$DIMDSEP
 70
    46
  9
$DIMATFIT
 70
     3
  9
$DIMFRAC
 70
     0
  9
$DIMLDRBLK
  1

  9
$DIMLUNIT
 70
     2
  9
$DIMLWD
 70
    -2
  9
$DIMLWE
 70
    -2
  9
$DIMTMOVE
 70
     0
  9
$LUNITS
 70
     2
  9
$LUPREC
 70
     4
  9
$SKETCHINC
 40
0.1
  9
$FILLETRAD
 40
0.5
  9
$AUNITS
 70
     0
  9
$AUPREC
 70
     0
  9
$MENU
  1
.
  9
$ELEVATION
 40
0.0
  9
$PELEVATION
 40
0.0
  9
$THICKNESS
 40
0.0
  9
$LIMCHECK
 70
     0
  9
$CHAMFERA
 40
0.5
  9
$CHAMFERB
 40
0.5
  9
$CHAMFERC
 40
1.0
  9
$CHAMFERD
 40
0.0
  9
$SKPOLY
 70
     0
  9
$TDCREATE
 40
2457107.992326389
  9
$TDUCREATE
 40
2457107.992326389
  9
$TDUPDATE
 40
2457107.9923264
  9
$TDUUPDATE
 40
2457107.9923264
  9
$TDINDWG
 40
0.0000000116
  9
$TDUSRTIMER
 40
0.0000000116
  9
$USRTIMER
 70
     1
  9
$ANGBASE
 50
0.0
  9
$ANGDIR
 70
     0
  9
$PDMODE
 70
     0
  9
$PDSIZE
 40
0.0
  9
$PLINEWID
 40
0.0
  9
$SPLFRAME
 70
     0
  9
$SPLINETYPE
 70
     6
  9
$SPLINESEGS
 70
     8
  9
$HANDSEED
  5
EC
  9
$SURFTAB1
 70
     6
  9
$SURFTAB2
 70
     6
  9
$SURFTYPE
 70
     6
  9
$SURFU
 70
     6
  9
$SURFV
 70
     6
  9
$UCSBASE
  2

  9
$UCSNAME
  2

  9
$UCSORG
 10
0.0
 20
0.0
 30
0.0
  9
$UCSXDIR
 10
1.0
 20
0.0
 30
0.0
  9
$UCSYDIR
 10
0.0
 20
1.0
 30
0.0
  9
$UCSORTHOREF
  2

  9
$UCSORTHOVIEW
 70
     0
  9
$UCSORGTOP
 10
0.0
 20
0.0
 30
0.0
  9
$UCSORGBOTTOM
 10
0.0
 20
0.0
 30
0.0
  9
$UCSORGLEFT
 10
0.0
 20
0.0
 30
0.0
  9
$UCSORGRIGHT
 10
0.0
 20
0.0
 30
0.0
  9
$UCSORGFRONT
 10
0.0
 20
0.0
 30
0.0
  9
$UCSORGBACK
 10
0.0
 20
0.0
 30
0.0
  9
$PUCSBASE
  2

  9
$PUCSNAME
  2

  9
$PUCSORG
 10
0.0
 20
0.0
 30
0.0
  9
$PUCSXDIR
 10
1.0
 20
0.0
 30
0.0
  9
$PUCSYDIR
 10
0.0
 20
1.0
 30
0.0
  9
$PUCSORTHOREF
  2

  9
$PUCSORTHOVIEW
 70
     0
  9
$PUCSORGTOP
 10
0.0
 20
0.0
 30
0.0
  9
$PUCSORGBOTTOM
 10
0.0
 20
0.0
 30
0.0
  9
$PUCSORGLEFT
 10
0.0
 20
0.0
 30
0.0
  9
$PUCSORGRIGHT
 10
0.0
 20
0.0
 30
0.0
  9
$PUCSORGFRONT
 10
0.0
 20
0.0
 30
0.0
  9
$PUCSORGBACK
 10
0.0
 20
0.0
 30
0.0
  9
$USERI1
 70
     0
  9
$USERI2
 70
     0
  9
$USERI3
 70
     0
  9
$USERI4
 70
     0
  9
$USERI5
 70
     0
  9
$USERR1
 40
0.0
  9
$USERR2
 40
0.0
  9
$USERR3
 40
0.0
  9
$USERR4
 40
0.0
  9
$USERR5
 40
0.0
  9
$WORLDVIEW
 70
     1
  9
$SHADEDGE
 70
     3
  9
$SHADEDIF
 70
    70
  9
$TILEMODE
 70
     1
  9
$MAXACTVP
 70
    64
  9
$PINSBASE
 10
0.0
 20
0.0
 30
0.0
  9
$PLIMCHECK
 70
     0
  9
$PEXTMIN
 10
1.000000000000000E+20
 20
1.000000000000000E+20
 30
1.000000000000000E+20
  9
$PEXTMAX
 10
-1.000000000000000E+20
 20
-1.000000000000000E+20
 30
-1.000000000000000E+20
  9
$PLIMMIN
 10
0.0
 20
0.0
  9
$PLIMMAX
 10
12.0
 20
9.0
  9
$UNITMODE
 70
     0
  9
$VISRETAIN
 70
     1
  9
$PLINEGEN
 70
     0
  9
$PSLTSCALE
 70
     1
  9
$TREEDEPTH
 70
  3020
  9
$CMLSTYLE
  2
Standard
  9
$CMLJUST
 70
     0
  9
$CMLSCALE
 40
1.0
  9
$PROXYGRAPHICS
 70
     1
  9
$MEASUREMENT
 70
     0
  9
$CELWEIGHT
370
    -1
  9
$ENDCAPS
280
     0
  9
$JOINSTYLE
280
     0
  9
$LWDISPLAY
290
     1
  9
$INSUNITS
 70
     1
  9
$HYPERLINKBASE
  1

  9
$STYLESHEET
  1

  9
$XEDIT
290
     1
  9
$CEPSNTYPE
380
     0
  9
$PSTYLEMODE
290
     1
  9
$FINGERPRINTGUID
  2
{01820F46-2A67-A6C5-8065-5DD99010D0E0}
  9
$VERSIONGUID
  2
{FAEB1C32-E019-11D5-929B-00C0DF256EC4}
  9
$EXTNAMES
290
     1
  9
$PSVPSCALE
 40
0.0
  9
$OLESTARTUP
290
     0
  9
$SORTENTS
280
   127
  9
$INDEXCTL
280
     0
  9
$HIDETEXT
280
     1
  9
$XCLIPFRAME
290
     0
  9
$HALOGAP
280
     0
  9
$OBSCOLOR
 70
   257
  9
$OBSLTYPE
280
     0
  9
$INTERSECTIONDISPLAY
280
     0
  9
$INTERSECTIONCOLOR
 70
   257
  9
$DIMASSOC
280
     2
  9
$PROJECTNAME
  1

  0
ENDSEC
  0
SECTION
  2
CLASSES
  0
CLASS
  1
ACDBDICTIONARYWDFLT
  2
AcDbDictionaryWithDefault
  3
ObjectDBX Classes
 90
        0
 91
        3
280
     0
281
     0
  0
CLASS
  1
VISUALSTYLE
  2
AcDbVisualStyle
  3
ObjectDBX Classes
 90
     4095
 91
        3
280
     0
281
     0
  0
ENDSEC
  0
SECTION
  2
TABLES
  0
TABLE
  2
VPORT
  5
8
330
0
100
AcDbSymbolTable
 70
     1
  0
VPORT
  5
29
330
8
100
AcDbSymbolTableRecord
100
AcDbViewportTableRecord
  2
*Active
 70
     0
 10
0.0
 20
0.0
 11
1.0
 21
1.0
 12
0.0
 22
0.0
 13
0.0
 23
0.0
 14
0.5
 24
0.5
 15
0.5
 25
0.5
 16
0.0
 26
0.0
 36
1.0
 17
148.4999796178229
 27
-209.9997571632119
 37
0.0
 40
419.9995143264238
 41
0.7071435778014196
 42
50.0
 43
0.0
 44
0.0
 50
0.0
 51
0.0
 71
     0
 72
   100
 73
     1
 74
     3
 75
     0
 76
     0
 77
     0
 78
     0
281
     0
 65
     1
110
0.0
120
0.0
130
0.0
111
1.0
121
0.0
131
0.0
112
0.0
122
1.0
132
0.0
 79
     0
146
0.0
  0
ENDTAB
  0
TABLE
  2
LTYPE
  5
5
330
0
100
AcDbSymbolTable
 70
     1
  0
LTYPE
  5
14
330
5
100
AcDbSymbolTableRecord
100
AcDbLinetypeTableRecord
  2
ByBlock
 70
     0
  3

 72
    65
 73
     0
 40
0.0
  0
LTYPE
  5
15
330
5
100
AcDbSymbolTableRecord
100
AcDbLinetypeTableRecord
  2
ByLayer
 70
     0
  3

 72
    65
 73
     0
 40
0.0
  0
LTYPE
  5
16
330
5
100
AcDbSymbolTableRecord
100
AcDbLinetypeTableRecord
  2
Continuous
 70
     0
  3
Solid line
 72
    65
 73
     0
 40
0.0
  0
ENDTAB
  0
TABLE
  2
LAYER
  5
2
330
0
100
AcDbSymbolTable
 70
     2
  0
LAYER
  5
10
330
2
100
AcDbSymbolTableRecord
100
AcDbLayerTableRecord
  2
0
 70
     0
 62
     7
  6
Continuous
370
    -3
390
F
  0
LAYER
  5
3B
330
2
100
AcDbSymbolTableRecord
100
AcDbLayerTableRecord
  2
Layer 1
 70
     0
 62
     7
  6
Continuous
370
    -3
390
F
  0
ENDTAB
  0
TABLE
  2
STYLE
  5
3
330
0
100
AcDbSymbolTable
 70
     1
  0
STYLE
  5
11
330
3
100
AcDbSymbolTableRecord
100
AcDbTextStyleTableRecord
  2
Standard
 70
     0
 40
0.0
 41
1.0
 50
0.0
 71
     0
 42
0.2
  3
txt
  4

  0
ENDTAB
  0
TABLE
  2
VIEW
  5
6
330
0
100
AcDbSymbolTable
 70
     0
  0
ENDTAB
  0
TABLE
  2
UCS
  5
7
330
0
100
AcDbSymbolTable
 70
     0
  0
ENDTAB
  0
TABLE
  2
APPID
  5
9
330
0
100
AcDbSymbolTable
 70
     1
  0
APPID
  5
12
330
9
100
AcDbSymbolTableRecord
100
AcDbRegAppTableRecord
  2
ACAD
 70
     0
  0
ENDTAB
  0
TABLE
  2
DIMSTYLE
  5
A
330
0
100
AcDbSymbolTable
 70
     1
100
AcDbDimStyleTable
  0
DIMSTYLE
105
27
330
A
100
AcDbSymbolTableRecord
100
AcDbDimStyleTableRecord
  2
Standard
 70
     0
340
11
  0
ENDTAB
  0
TABLE
  2
BLOCK_RECORD
  5
1
330
0
100
AcDbSymbolTable
 70
     2
  0
BLOCK_RECORD
  5
1F
330
1
100
AcDbSymbolTableRecord
100
AcDbBlockTableRecord
  2
*Model_Space
340
22
  0
BLOCK_RECORD
  5
1B
330
1
100
AcDbSymbolTableRecord
100
AcDbBlockTableRecord
  2
*Paper_Space
340
1E
  0
BLOCK_RECORD
  5
23
330
1
100
AcDbSymbolTableRecord
100
AcDbBlockTableRecord
  2
*Paper_Space0
340
26
  0
BLOCK_RECORD
  5
6E
330
1
100
AcDbSymbolTableRecord
100
AcDbBlockTableRecord
  2
block 2
340
0
102
{BLKREFS
331
6F
102
}
  0
ENDTAB
  0
ENDSEC
  0
SECTION
  2
BLOCKS
  0
BLOCK
  5
20
330
1F
100
AcDbEntity
  8
0
100
AcDbBlockBegin
  2
*Model_Space
 70
     0
 71
     0
 10
0.0
 20
0.0
 30
0.0
  3
*Model_Space
  1

  0
ENDBLK
  5
21
330
1F
100
AcDbEntity
  8
0
100
AcDbBlockEnd
  0
BLOCK
  5
1C
330
1B
100
AcDbEntity
 67
     1
  8
0
100
AcDbBlockBegin
  2
*Paper_Space
 70
     0
 71
     0
 10
0.0
 20
0.0
 30
0.0
  3
*Paper_Space
  1

  0
ENDBLK
  5
1D
330
1B
100
AcDbEntity
 67
     1
  8
0
100
AcDbBlockEnd
  0
BLOCK
  5
24
330
23
100
AcDbEntity
  8
0
100
AcDbBlockBegin
  2
*Paper_Space0
 70
     0
 71
     0
 10
0.0
 20
0.0
 30
0.0
  3
*Paper_Space0
  1

  0
ENDBLK
  5
25
330
23
100
AcDbEntity
  8
0
100
AcDbBlockEnd
  0
BLOCK
  5
70
330
6E
100
AcDbEntity
  8
0
100
AcDbBlockBegin
  2
block 2
 70
     0
 71
     0
 10
0.0
 20
0.0
 30
0.0
  3
block 2
  1

  0
SPLINE
  5
72
330
6E
100
AcDbEntity
  8
Layer 1
370
     0
100
AcDbSpline
210
0.0
220
0.0
230
1.0
 70
    11
 71
     3
 72
    35
 73
    31
 74
     0
 42
0.0000000001
 43
0.0000000001
 40
0.0
 40
0.0
 40
0.0
 40
0.0
 40
1.0
 40
1.0
 40
1.0
 40
2.0
 40
2.0
 40
2.0
 40
3.0
 40
3.0
 40
3.0
 40
4.0
 40
4.0
 40
4.0
 40
5.0
 40
5.0
 40
5.0
 40
6.0
 40
6.0
 40
6.0
 40
7.0
 40
7.0
 40
7.0
 40
8.0
 40
8.0
 40
8.0
 40
9.0
 40
9.0
 40
9.0
 40
10.0
 40
10.0
 40
10.0
 40
10.0
 10
157.7119926906067
 20
-54.13829751250709
 30
0.0
 10
157.7119926906067
 20
-53.79137639714244
 30
0.0
 10
157.9193874388188
 20
-53.54591334381838
 30
0.0
 10
158.2580403250188
 20
-53.4020806073092
 30
0.0
 10
158.2580403250188
 20
-53.4020806073092
 30
0.0
 10
158.253561700888
 20
-53.38950600878804
 30
0.0
 10
158.253561700888
 20
-53.38950600878804
 30
0.0
 10
157.9490152599919
 20
-53.2455010175046
 30
0.0
 10
157.8177571220039
 20
-53.00865070289368
 30
0.0
 10
157.8177571220039
 20
-52.77180038828275
 30
0.0
 10
157.8177571220039
 20
-52.33599580939864
 30
0.0
 10
158.1860378293771
 20
-52.03971759766716
 30
0.0
 10
158.6683511973121
 20
-52.03971759766716
 30
0.0
 10
159.2013074688802
 20
-52.03971759766716
 30
0.0
 10
159.4679578594386
 20
-52.37406411451065
 30
0.0
 10
159.4679578594386
 20
-52.71667886051875
 30
0.0
 10
159.4679578594386
 20
-52.94939506054737
 30
0.0
 10
159.3539251988768
 20
-53.19899222845373
 30
0.0
 10
159.0152723126768
 20
-53.3598781876149
 30
0.0
 10
159.0152723126768
 20
-53.3598781876149
 30
0.0
 10
159.0152723126768
 20
-53.37245278613606
 30
0.0
 10
159.0152723126768
 20
-53.37245278613606
 30
0.0
 10
159.3580593134591
 20
-53.50784503870637
 30
0.0
 10
159.5695881762534
 20
-53.74900172267386
 30
0.0
 10
159.5695881762534
 20
-54.08334823951736
 30
0.0
 10
159.5695881762534
 20
-54.56135523809577
 30
0.0
 10
159.1592773039602
 20
-54.88295490164385
 30
0.0
 10
158.6345892615566
 20
-54.88295490164385
 30
0.0
 10
158.0589138059714
 20
-54.88295490164385
 30
0.0
 10
157.7119926906067
 20
-54.54034015563575
 30
0.0
 10
157.7119926906067
 20
-54.13829751250709
 30
0.0
  0
SPLINE
  5
73
330
6E
100
AcDbEntity
  8
Layer 1
370
     0
100
AcDbSpline
210
0.0
220
0.0
230
1.0
 70
    11
 71
     3
 72
    17
 73
    13
 74
     0
 42
0.0000000001
 43
0.0000000001
 40
0.0
 40
0.0
 40
0.0
 40
0.0
 40
1.0
 40
1.0
 40
1.0
 40
2.0
 40
2.0
 40
2.0
 40
3.0
 40
3.0
 40
3.0
 40
4.0
 40
4.0
 40
4.0
 40
4.0
 10
159.1930392397156
 20
-54.12141654462937
 30
0.0
 10
159.1930392397156
 20
-53.78707002778587
 30
0.0
 10
158.9601507849127
 20
-53.62635632339897
 30
0.0
 10
158.5880804725058
 20
-53.5205918920018
 30
0.0
 10
158.2663085541834
 20
-53.61360947010355
 30
0.0
 10
158.0930202512754
 20
-53.82531058767215
 30
0.0
 10
158.0930202512754
 20
-54.08748235409966
 30
0.0
 10
158.0802733979799
 20
-54.36687959795342
 30
0.0
 10
158.2918022607743
 20
-54.61217039650321
 30
0.0
 10
158.6428574907212
 20
-54.61217039650321
 30
0.0
 10
158.9770317527905
 20
-54.61217039650321
 30
0.0
 10
159.1930392397156
 20
-54.40494790306543
 30
0.0
 10
159.1930392397156
 20
-54.12141654462937
 30
0.0
  0
SPLINE
  5
74
330
6E
100
AcDbEntity
  8
Layer 1
370
     0
100
AcDbSpline
210
0.0
220
0.0
230
1.0
 70
    11
 71
     3
 72
    17
 73
    13
 74
     0
 42
0.0000000001
 43
0.0000000001
 40
0.0
 40
0.0
 40
0.0
 40
0.0
 40
1.0
 40
1.0
 40
1.0
 40
2.0
 40
2.0
 40
2.0
 40
3.0
 40
3.0
 40
3.0
 40
4.0
 40
4.0
 40
4.0
 40
4.0
 10
158.1691568614994
 20
-52.7463066816919
 30
0.0
 10
158.1691568614994
 20
-53.0213975561891
 30
0.0
 10
158.3765516097114
 20
-53.16936440728058
 30
0.0
 10
158.6938449039029
 20
-53.25411375621773
 30
0.0
 10
158.9305229637396
 20
-53.17367077663714
 30
0.0
 10
159.1127685149093
 20
-53.00434433353711
 30
0.0
 10
159.1127685149093
 20
-52.75474716563076
 30
0.0
 10
159.1127685149093
 20
-52.53477781889756
 30
0.0
 10
158.9815103769213
 20
-52.3063679882255
 30
0.0
 10
158.6473361148521
 20
-52.3063679882255
 30
0.0
 10
158.3383110498252
 20
-52.3063679882255
 30
0.0
 10
158.1691568614994
 20
-52.50945636708097
 30
0.0
 10
158.1691568614994
 20
-52.7463066816919
 30
0.0
  0
HATCH
  5
75
330
6E
100
AcDbEntity
  8
Layer 1
 62
   178
420
    65793
100
AcDbHatch
 10
0.0
 20
0.0
 30
0.0
210
0.0
220
0.0
230
1.0
  2
SOLID
 70
     1
 71
     0
 91
        3
 92
        1
 93
        1
 72
     4
 94
        3
 73
     0
 74
     1
 95
       35
 96
       31
 40
0.0
 40
0.0
 40
0.0
 40
0.0
 40
1.0
 40
1.0
 40
1.0
 40
2.0
 40
2.0
 40
2.0
 40
3.0
 40
3.0
 40
3.0
 40
4.0
 40
4.0
 40
4.0
 40
5.0
 40
5.0
 40
5.0
 40
6.0
 40
6.0
 40
6.0
 40
7.0
 40
7.0
 40
7.0
 40
8.0
 40
8.0
 40
8.0
 40
9.0
 40
9.0
 40
9.0
 40
10.0
 40
10.0
 40
10.0
 40
10.0
 10
157.7119926906067
 20
-54.13829751250709
 10
157.7119926906067
 20
-53.79137639714244
 10
157.9193874388188
 20
-53.54591334381838
 10
158.2580403250188
 20
-53.4020806073092
 10
158.2580403250188
 20
-53.4020806073092
 10
158.253561700888
 20
-53.38950600878804
 10
158.253561700888
 20
-53.38950600878804
 10
157.9490152599919
 20
-53.2455010175046
 10
157.8177571220039
 20
-53.00865070289368
 10
157.8177571220039
 20
-52.77180038828275
 10
157.8177571220039
 20
-52.33599580939864
 10
158.1860378293771
 20
-52.03971759766716
 10
158.6683511973121
 20
-52.03971759766716
 10
159.2013074688802
 20
-52.03971759766716
 10
159.4679578594386
 20
-52.37406411451065
 10
159.4679578594386
 20
-52.71667886051875
 10
159.4679578594386
 20
-52.94939506054737
 10
159.3539251988768
 20
-53.19899222845373
 10
159.0152723126768
 20
-53.3598781876149
 10
159.0152723126768
 20
-53.3598781876149
 10
159.0152723126768
 20
-53.37245278613606
 10
159.0152723126768
 20
-53.37245278613606
 10
159.3580593134591
 20
-53.50784503870637
 10
159.5695881762534
 20
-53.74900172267386
 10
159.5695881762534
 20
-54.08334823951736
 10
159.5695881762534
 20
-54.56135523809577
 10
159.1592773039602
 20
-54.88295490164385
 10
158.6345892615566
 20
-54.88295490164385
 10
158.0589138059714
 20
-54.88295490164385
 10
157.7119926906067
 20
-54.54034015563575
 10
157.7119926906067
 20
-54.13829751250709
 97
        0
 92
        1
 93
        1
 72
     4
 94
        3
 73
     0
 74
     1
 95
       17
 96
       13
 40
0.0
 40
0.0
 40
0.0
 40
0.0
 40
1.0
 40
1.0
 40
1.0
 40
2.0
 40
2.0
 40
2.0
 40
3.0
 40
3.0
 40
3.0
 40
4.0
 40
4.0
 40
4.0
 40
4.0
 10
159.1930392397156
 20
-54.12141654462937
 10
159.1930392397156
 20
-53.78707002778587
 10
158.9601507849127
 20
-53.62635632339897
 10
158.5880804725058
 20
-53.5205918920018
 10
158.2663085541834
 20
-53.61360947010355
 10
158.0930202512754
 20
-53.82531058767215
 10
158.0930202512754
 20
-54.08748235409966
 10
158.0802733979799
 20
-54.36687959795342
 10
158.2918022607743
 20
-54.61217039650321
 10
158.6428574907212
 20
-54.61217039650321
 10
158.9770317527905
 20
-54.61217039650321
 10
159.1930392397156
 20
-54.40494790306543
 10
159.1930392397156
 20
-54.12141654462937
 97
        0
 92
        1
 93
        1
 72
     4
 94
        3
 73
     0
 74
     1
 95
       17
 96
       13
 40
0.0
 40
0.0
 40
0.0
 40
0.0
 40
1.0
 40
1.0
 40
1.0
 40
2.0
 40
2.0
 40
2.0
 40
3.0
 40
3.0
 40
3.0
 40
4.0
 40
4.0
 40
4.0
 40
4.0
 10
158.1691568614994
 20
-52.7463066816919
 10
158.1691568614994
 20
-53.0213975561891
 10
158.3765516097114
 20
-53.16936440728058
 10
158.6938449039029
 20
-53.25411375621773
 10
158.9305229637396
 20
-53.17367077663714
 10
159.1127685149093
 20
-53.00434433353711
 10
159.1127685149093
 20
-52.75474716563076
 10
159.1127685149093
 20
-52.53477781889756
 10
158.9815103769213
 20
-52.3063679882255
 10
158.6473361148521
 20
-52.3063679882255
 10
158.3383110498252
 20
-52.3063679882255
 10
158.1691568614994
 20
-52.50945636708097
 10
158.1691568614994
 20
-52.7463066816919
 97
        0
 75
     2
 76
     1
 98
        0
  0
SPLINE
  5
76
330
6E
100
AcDbEntity
  8
Layer 1
370
     0
100
AcDbSpline
210
0.0
220
0.0
230
1.0
 70
    11
 71
     3
 72
    80
 73
    76
 74
     0
 42
0.0000000001
 43
0.0000000001
 40
0.0
 40
0.0
 40
0.0
 40
0.0
 40
1.0
 40
1.0
 40
1.0
 40
2.0
 40
2.0
 40
2.0
 40
3.0
 40
3.0
 40
3.0
 40
4.0
 40
4.0
 40
4.0
 40
5.0
 40
5.0
 40
5.0
 40
6.0
 40
6.0
 40
6.0
 40
7.0
 40
7.0
 40
7.0
 40
8.0
 40
8.0
 40
8.0
 40
9.0
 40
9.0
 40
9.0
 40
10.0
 40
10.0
 40
10.0
 40
11.0
 40
11.0
 40
11.0
 40
12.0
 40
12.0
 40
12.0
 40
13.0
 40
13.0
 40
13.0
 40
14.0
 40
14.0
 40
14.0
 40
15.0
 40
15.0
 40
15.0
 40
16.0
 40
16.0
 40
16.0
 40
17.0
 40
17.0
 40
17.0
 40
18.0
 40
18.0
 40
18.0
 40
19.0
 40
19.0
 40
19.0
 40
20.0
 40
20.0
 40
20.0
 40
21.0
 40
21.0
 40
21.0
 40
22.0
 40
22.0
 40
22.0
 40
23.0
 40
23.0
 40
23.0
 40
24.0
 40
24.0
 40
24.0
 40
25.0
 40
25.0
 40
25.0
 40
25.0
 10
160.0363986145048
 20
-53.34282496496291
 30
0.0
 10
160.0363986145048
 20
-53.13129610216857
 30
0.0
 10
160.031919990374
 20
-52.95783554448624
 30
0.0
 10
160.0191731370786
 20
-52.78868135616047
 30
0.0
 10
160.0191731370786
 20
-52.78868135616047
 30
0.0
 10
160.3450791699832
 20
-52.78868135616047
 30
0.0
 10
160.3450791699832
 20
-52.78868135616047
 30
0.0
 10
160.3450791699832
 20
-52.78868135616047
 30
0.0
 10
160.3619601378609
 20
-53.11872150364741
 30
0.0
 10
160.3619601378609
 20
-53.11872150364741
 30
0.0
 10
160.3619601378609
 20
-53.11872150364741
 30
0.0
 10
160.3747069911563
 20
-53.11872150364741
 30
0.0
 10
160.3747069911563
 20
-53.11872150364741
 30
0.0
 10
160.4890841612666
 20
-52.92407360873079
 30
0.0
 10
160.6792534320524
 20
-52.7421725671096
 30
0.0
 10
161.0179063182525
 20
-52.7421725671096
 30
0.0
 10
161.2969590525577
 20
-52.7421725671096
 30
0.0
 10
161.508487915352
 20
-52.91132675543537
 30
0.0
 10
161.5973713788715
 20
-53.15248343940285
 30
0.0
 10
161.5973713788715
 20
-53.15248343940285
 30
0.0
 10
161.6059841175846
 20
-53.15248343940285
 30
0.0
 10
161.6059841175846
 20
-53.15248343940285
 30
0.0
 10
161.6693738745132
 20
-53.03827852406682
 30
0.0
 10
161.7496445993195
 20
-52.94939506054737
 30
0.0
 10
161.8343939482567
 20
-52.88600530361878
 30
0.0
 10
161.9570393475316
 20
-52.79281547074277
 30
0.0
 10
162.0924316001019
 20
-52.7421725671096
 30
0.0
 10
162.2870794950185
 20
-52.7421725671096
 30
0.0
 10
162.5578640001592
 20
-52.7421725671096
 30
0.0
 10
162.9599066432878
 20
-52.91976723937422
 30
0.0
 10
162.9599066432878
 20
-53.63066269275553
 30
0.0
 10
162.9599066432878
 20
-53.63066269275553
 30
0.0
 10
162.9599066432878
 20
-54.83644611259297
 30
0.0
 10
162.9599066432878
 20
-54.83644611259297
 30
0.0
 10
162.9599066432878
 20
-54.83644611259297
 30
0.0
 10
162.5961045600454
 20
-54.83644611259297
 30
0.0
 10
162.5961045600454
 20
-54.83644611259297
 30
0.0
 10
162.5961045600454
 20
-54.83644611259297
 30
0.0
 10
162.5961045600454
 20
-53.6771714818064
 30
0.0
 10
162.5961045600454
 20
-53.6771714818064
 30
0.0
 10
162.5961045600454
 20
-53.28374157739087
 30
0.0
 10
162.452099568762
 20
-53.04671900800568
 30
0.0
 10
162.1516872424482
 20
-53.04671900800568
 30
0.0
 10
161.9401583796539
 20
-53.04671900800568
 30
0.0
 10
161.7751383059104
 20
-53.20329859781029
 30
0.0
 10
161.7117485489818
 20
-53.38519963943148
 30
0.0
 10
161.6948675811041
 20
-53.43601479783892
 30
0.0
 10
161.6821207278086
 20
-53.50371092412407
 30
0.0
 10
161.6821207278086
 20
-53.57140705040923
 30
0.0
 10
161.6821207278086
 20
-53.57140705040923
 30
0.0
 10
161.6821207278086
 20
-54.83644611259297
 30
0.0
 10
161.6821207278086
 20
-54.83644611259297
 30
0.0
 10
161.6821207278086
 20
-54.83644611259297
 30
0.0
 10
161.3183186445663
 20
-54.83644611259297
 30
0.0
 10
161.3183186445663
 20
-54.83644611259297
 30
0.0
 10
161.3183186445663
 20
-54.83644611259297
 30
0.0
 10
161.3183186445663
 20
-53.60947535552125
 30
0.0
 10
161.3183186445663
 20
-53.60947535552125
 30
0.0
 10
161.3183186445663
 20
-53.28374157739087
 30
0.0
 10
161.1743136532828
 20
-53.04671900800568
 30
0.0
 10
160.8907822948468
 20
-53.04671900800568
 30
0.0
 10
160.6582383495924
 20
-53.04671900800568
 30
0.0
 10
160.4890841612666
 20
-53.23292641898344
 30
0.0
 10
160.4298285189203
 20
-53.41913382996119
 30
0.0
 10
160.4084689269118
 20
-53.47408310295093
 30
0.0
 10
160.4002006977472
 20
-53.53747285987952
 30
0.0
 10
160.4002006977472
 20
-53.60103487158239
 30
0.0
 10
160.4002006977472
 20
-53.60103487158239
 30
0.0
 10
160.4002006977472
 20
-54.83644611259297
 30
0.0
 10
160.4002006977472
 20
-54.83644611259297
 30
0.0
 10
160.4002006977472
 20
-54.83644611259297
 30
0.0
 10
160.0363986145048
 20
-54.83644611259297
 30
0.0
 10
160.0363986145048
 20
-54.83644611259297
 30
0.0
 10
160.0363986145048
 20
-54.83644611259297
 30
0.0
 10
160.0363986145048
 20
-53.34282496496291
 30
0.0
 10
160.0363986145048
 20
-53.34282496496291
 30
0.0
  0
HATCH
  5
77
330
6E
100
AcDbEntity
  8
Layer 1
 62
   178
420
    65793
100
AcDbHatch
 10
0.0
 20
0.0
 30
0.0
210
0.0
220
0.0
230
1.0
  2
SOLID
 70
     1
 71
     0
 91
        1
 92
        1
 93
        1
 72
     4
 94
        3
 73
     0
 74
     1
 95
       80
 96
       76
 40
0.0
 40
0.0
 40
0.0
 40
0.0
 40
1.0
 40
1.0
 40
1.0
 40
2.0
 40
2.0
 40
2.0
 40
3.0
 40
3.0
 40
3.0
 40
4.0
 40
4.0
 40
4.0
 40
5.0
 40
5.0
 40
5.0
 40
6.0
 40
6.0
 40
6.0
 40
7.0
 40
7.0
 40
7.0
 40
8.0
 40
8.0
 40
8.0
 40
9.0
 40
9.0
 40
9.0
 40
10.0
 40
10.0
 40
10.0
 40
11.0
 40
11.0
 40
11.0
 40
12.0
 40
12.0
 40
12.0
 40
13.0
 40
13.0
 40
13.0
 40
14.0
 40
14.0
 40
14.0
 40
15.0
 40
15.0
 40
15.0
 40
16.0
 40
16.0
 40
16.0
 40
17.0
 40
17.0
 40
17.0
 40
18.0
 40
18.0
 40
18.0
 40
19.0
 40
19.0
 40
19.0
 40
20.0
 40
20.0
 40
20.0
 40
21.0
 40
21.0
 40
21.0
 40
22.0
 40
22.0
 40
22.0
 40
23.0
 40
23.0
 40
23.0
 40
24.0
 40
24.0
 40
24.0
 40
25.0
 40
25.0
 40
25.0
 40
25.0
 10
160.0363986145048
 20
-53.34282496496291
 10
160.0363986145048
 20
-53.13129610216857
 10
160.031919990374
 20
-52.95783554448624
 10
160.0191731370786
 20
-52.78868135616047
 10
160.0191731370786
 20
-52.78868135616047
 10
160.3450791699832
 20
-52.78868135616047
 10
160.3450791699832
 20
-52.78868135616047
 10
160.3450791699832
 20
-52.78868135616047
 10
160.3619601378609
 20
-53.11872150364741
 10
160.3619601378609
 20
-53.11872150364741
 10
160.3619601378609
 20
-53.11872150364741
 10
160.3747069911563
 20
-53.11872150364741
 10
160.3747069911563
 20
-53.11872150364741
 10
160.4890841612666
 20
-52.92407360873079
 10
160.6792534320524
 20
-52.7421725671096
 10
161.0179063182525
 20
-52.7421725671096
 10
161.2969590525577
 20
-52.7421725671096
 10
161.508487915352
 20
-52.91132675543537
 10
161.5973713788715
 20
-53.15248343940285
 10
161.5973713788715
 20
-53.15248343940285
 10
161.6059841175846
 20
-53.15248343940285
 10
161.6059841175846
 20
-53.15248343940285
 10
161.6693738745132
 20
-53.03827852406682
 10
161.7496445993195
 20
-52.94939506054737
 10
161.8343939482567
 20
-52.88600530361878
 10
161.9570393475316
 20
-52.79281547074277
 10
162.0924316001019
 20
-52.7421725671096
 10
162.2870794950185
 20
-52.7421725671096
 10
162.5578640001592
 20
-52.7421725671096
 10
162.9599066432878
 20
-52.91976723937422
 10
162.9599066432878
 20
-53.63066269275553
 10
162.9599066432878
 20
-53.63066269275553
 10
162.9599066432878
 20
-54.83644611259297
 10
162.9599066432878
 20
-54.83644611259297
 10
162.9599066432878
 20
-54.83644611259297
 10
162.5961045600454
 20
-54.83644611259297
 10
162.5961045600454
 20
-54.83644611259297
 10
162.5961045600454
 20
-54.83644611259297
 10
162.5961045600454
 20
-53.6771714818064
 10
162.5961045600454
 20
-53.6771714818064
 10
162.5961045600454
 20
-53.28374157739087
 10
162.452099568762
 20
-53.04671900800568
 10
162.1516872424482
 20
-53.04671900800568
 10
161.9401583796539
 20
-53.04671900800568
 10
161.7751383059104
 20
-53.20329859781029
 10
161.7117485489818
 20
-53.38519963943148
 10
161.6948675811041
 20
-53.43601479783892
 10
161.6821207278086
 20
-53.50371092412407
 10
161.6821207278086
 20
-53.57140705040923
 10
161.6821207278086
 20
-53.57140705040923
 10
161.6821207278086
 20
-54.83644611259297
 10
161.6821207278086
 20
-54.83644611259297
 10
161.6821207278086
 20
-54.83644611259297
 10
161.3183186445663
 20
-54.83644611259297
 10
161.3183186445663
 20
-54.83644611259297
 10
161.3183186445663
 20
-54.83644611259297
 10
161.3183186445663
 20
-53.60947535552125
 10
161.3183186445663
 20
-53.60947535552125
 10
161.3183186445663
 20
-53.28374157739087
 10
161.1743136532828
 20
-53.04671900800568
 10
160.8907822948468
 20
-53.04671900800568
 10
160.6582383495924
 20
-53.04671900800568
 10
160.4890841612666
 20
-53.23292641898344
 10
160.4298285189203
 20
-53.41913382996119
 10
160.4084689269118
 20
-53.47408310295093
 10
160.4002006977472
 20
-53.53747285987952
 10
160.4002006977472
 20
-53.60103487158239
 10
160.4002006977472
 20
-53.60103487158239
 10
160.4002006977472
 20
-54.83644611259297
 10
160.4002006977472
 20
-54.83644611259297
 10
160.4002006977472
 20
-54.83644611259297
 10
160.0363986145048
 20
-54.83644611259297
 10
160.0363986145048
 20
-54.83644611259297
 10
160.0363986145048
 20
-54.83644611259297
 10
160.0363986145048
 20
-53.34282496496291
 10
160.0363986145048
 20
-53.34282496496291
 97
        0
 75
     2
 76
     1
 98
        0
  0
SPLINE
  5
78
330
6E
100
AcDbEntity
  8
Layer 1
370
     0
100
AcDbSpline
210
0.0
220
0.0
230
1.0
 70
    11
 71
     3
 72
    80
 73
    76
 74
     0
 42
0.0000000001
 43
0.0000000001
 40
0.0
 40
0.0
 40
0.0
 40
0.0
 40
1.0
 40
1.0
 40
1.0
 40
2.0
 40
2.0
 40
2.0
 40
3.0
 40
3.0
 40
3.0
 40
4.0
 40
4.0
 40
4.0
 40
5.0
 40
5.0
 40
5.0
 40
6.0
 40
6.0
 40
6.0
 40
7.0
 40
7.0
 40
7.0
 40
8.0
 40
8.0
 40
8.0
 40
9.0
 40
9.0
 40
9.0
 40
10.0
 40
10.0
 40
10.0
 40
11.0
 40
11.0
 40
11.0
 40
12.0
 40
12.0
 40
12.0
 40
13.0
 40
13.0
 40
13.0
 40
14.0
 40
14.0
 40
14.0
 40
15.0
 40
15.0
 40
15.0
 40
16.0
 40
16.0
 40
16.0
 40
17.0
 40
17.0
 40
17.0
 40
18.0
 40
18.0
 40
18.0
 40
19.0
 40
19.0
 40
19.0
 40
20.0
 40
20.0
 40
20.0
 40
21.0
 40
21.0
 40
21.0
 40
22.0
 40
22.0
 40
22.0
 40
23.0
 40
23.0
 40
23.0
 40
24.0
 40
24.0
 40
24.0
 40
25.0
 40
25.0
 40
25.0
 40
25.0
 10
163.5669324677888
 20
-53.34282496496291
 30
0.0
 10
163.5669324677888
 20
-53.13129610216857
 30
0.0
 10
163.562453843658
 20
-52.95783554448624
 30
0.0
 10
163.5497069903626
 20
-52.78868135616047
 30
0.0
 10
163.5497069903626
 20
-52.78868135616047
 30
0.0
 10
163.8756130232672
 20
-52.78868135616047
 30
0.0
 10
163.8756130232672
 20
-52.78868135616047
 30
0.0
 10
163.8756130232672
 20
-52.78868135616047
 30
0.0
 10
163.8924939911449
 20
-53.11872150364741
 30
0.0
 10
163.8924939911449
 20
-53.11872150364741
 30
0.0
 10
163.8924939911449
 20
-53.11872150364741
 30
0.0
 10
163.9052408444404
 20
-53.11872150364741
 30
0.0
 10
163.9052408444404
 20
-53.11872150364741
 30
0.0
 10
164.0196180145506
 20
-52.92407360873079
 30
0.0
 10
164.2097872853365
 20
-52.7421725671096
 30
0.0
 10
164.5484401715365
 20
-52.7421725671096
 30
0.0
 10
164.8274929058418
 20
-52.7421725671096
 30
0.0
 10
165.0390217686361
 20
-52.91132675543537
 30
0.0
 10
165.1279052321555
 20
-53.15248343940285
 30
0.0
 10
165.1279052321555
 20
-53.15248343940285
 30
0.0
 10
165.1365179708687
 20
-53.15248343940285
 30
0.0
 10
165.1365179708687
 20
-53.15248343940285
 30
0.0
 10
165.1999077277972
 20
-53.03827852406682
 30
0.0
 10
165.2801784526036
 20
-52.94939506054737
 30
0.0
 10
165.3649278015407
 20
-52.88600530361878
 30
0.0
 10
165.4875732008156
 20
-52.79281547074277
 30
0.0
 10
165.6229654533859
 20
-52.7421725671096
 30
0.0
 10
165.8176133483026
 20
-52.7421725671096
 30
0.0
 10
166.0883978534432
 20
-52.7421725671096
 30
0.0
 10
166.4904404965718
 20
-52.91976723937422
 30
0.0
 10
166.4904404965718
 20
-53.63066269275553
 30
0.0
 10
166.4904404965718
 20
-53.63066269275553
 30
0.0
 10
166.4904404965718
 20
-54.83644611259297
 30
0.0
 10
166.4904404965718
 20
-54.83644611259297
 30
0.0
 10
166.4904404965718
 20
-54.83644611259297
 30
0.0
 10
166.1266384133295
 20
-54.83644611259297
 30
0.0
 10
166.1266384133295
 20
-54.83644611259297
 30
0.0
 10
166.1266384133295
 20
-54.83644611259297
 30
0.0
 10
166.1266384133295
 20
-53.6771714818064
 30
0.0
 10
166.1266384133295
 20
-53.6771714818064
 30
0.0
 10
166.1266384133295
 20
-53.28374157739087
 30
0.0
 10
165.982633422046
 20
-53.04671900800568
 30
0.0
 10
165.6822210957322
 20
-53.04671900800568
 30
0.0
 10
165.4706922329379
 20
-53.04671900800568
 30
0.0
 10
165.3056721591944
 20
-53.20329859781029
 30
0.0
 10
165.2422824022658
 20
-53.38519963943148
 30
0.0
 10
165.2254014343881
 20
-53.43601479783892
 30
0.0
 10
165.2126545810927
 20
-53.50371092412407
 30
0.0
 10
165.2126545810927
 20
-53.57140705040923
 30
0.0
 10
165.2126545810927
 20
-53.57140705040923
 30
0.0
 10
165.2126545810927
 20
-54.83644611259297
 30
0.0
 10
165.2126545810927
 20
-54.83644611259297
 30
0.0
 10
165.2126545810927
 20
-54.83644611259297
 30
0.0
 10
164.8488524978503
 20
-54.83644611259297
 30
0.0
 10
164.8488524978503
 20
-54.83644611259297
 30
0.0
 10
164.8488524978503
 20
-54.83644611259297
 30
0.0
 10
164.8488524978503
 20
-53.60947535552125
 30
0.0
 10
164.8488524978503
 20
-53.60947535552125
 30
0.0
 10
164.8488524978503
 20
-53.28374157739087
 30
0.0
 10
164.7048475065669
 20
-53.04671900800568
 30
0.0
 10
164.4213161481308
 20
-53.04671900800568
 30
0.0
 10
164.1887722028764
 20
-53.04671900800568
 30
0.0
 10
164.0196180145506
 20
-53.23292641898344
 30
0.0
 10
163.9603623722044
 20
-53.41913382996119
 30
0.0
 10
163.9390027801958
 20
-53.47408310295093
 30
0.0
 10
163.9307345510312
 20
-53.53747285987952
 30
0.0
 10
163.9307345510312
 20
-53.60103487158239
 30
0.0
 10
163.9307345510312
 20
-53.60103487158239
 30
0.0
 10
163.9307345510312
 20
-54.83644611259297
 30
0.0
 10
163.9307345510312
 20
-54.83644611259297
 30
0.0
 10
163.9307345510312
 20
-54.83644611259297
 30
0.0
 10
163.5669324677888
 20
-54.83644611259297
 30
0.0
 10
163.5669324677888
 20
-54.83644611259297
 30
0.0
 10
163.5669324677888
 20
-54.83644611259297
 30
0.0
 10
163.5669324677888
 20
-53.34282496496291
 30
0.0
 10
163.5669324677888
 20
-53.34282496496291
 30
0.0
  0
HATCH
  5
79
330
6E
100
AcDbEntity
  8
Layer 1
 62
   178
420
    65793
100
AcDbHatch
 10
0.0
 20
0.0
 30
0.0
210
0.0
220
0.0
230
1.0
  2
SOLID
 70
     1
 71
     0
 91
        1
 92
        1
 93
        1
 72
     4
 94
        3
 73
     0
 74
     1
 95
       80
 96
       76
 40
0.0
 40
0.0
 40
0.0
 40
0.0
 40
1.0
 40
1.0
 40
1.0
 40
2.0
 40
2.0
 40
2.0
 40
3.0
 40
3.0
 40
3.0
 40
4.0
 40
4.0
 40
4.0
 40
5.0
 40
5.0
 40
5.0
 40
6.0
 40
6.0
 40
6.0
 40
7.0
 40
7.0
 40
7.0
 40
8.0
 40
8.0
 40
8.0
 40
9.0
 40
9.0
 40
9.0
 40
10.0
 40
10.0
 40
10.0
 40
11.0
 40
11.0
 40
11.0
 40
12.0
 40
12.0
 40
12.0
 40
13.0
 40
13.0
 40
13.0
 40
14.0
 40
14.0
 40
14.0
 40
15.0
 40
15.0
 40
15.0
 40
16.0
 40
16.0
 40
16.0
 40
17.0
 40
17.0
 40
17.0
 40
18.0
 40
18.0
 40
18.0
 40
19.0
 40
19.0
 40
19.0
 40
20.0
 40
20.0
 40
20.0
 40
21.0
 40
21.0
 40
21.0
 40
22.0
 40
22.0
 40
22.0
 40
23.0
 40
23.0
 40
23.0
 40
24.0
 40
24.0
 40
24.0
 40
25.0
 40
25.0
 40
25.0
 40
25.0
 10
163.5669324677888
 20
-53.34282496496291
 10
163.5669324677888
 20
-53.13129610216857
 10
163.562453843658
 20
-52.95783554448624
 10
163.5497069903626
 20
-52.78868135616047
 10
163.5497069903626
 20
-52.78868135616047
 10
163.8756130232672
 20
-52.78868135616047
 10
163.8756130232672
 20
-52.78868135616047
 10
163.8756130232672
 20
-52.78868135616047
 10
163.8924939911449
 20
-53.11872150364741
 10
163.8924939911449
 20
-53.11872150364741
 10
163.8924939911449
 20
-53.11872150364741
 10
163.9052408444404
 20
-53.11872150364741
 10
163.9052408444404
 20
-53.11872150364741
 10
164.0196180145506
 20
-52.92407360873079
 10
164.2097872853365
 20
-52.7421725671096
 10
164.5484401715365
 20
-52.7421725671096
 10
164.8274929058418
 20
-52.7421725671096
 10
165.0390217686361
 20
-52.91132675543537
 10
165.1279052321555
 20
-53.15248343940285
 10
165.1279052321555
 20
-53.15248343940285
 10
165.1365179708687
 20
-53.15248343940285
 10
165.1365179708687
 20
-53.15248343940285
 10
165.1999077277972
 20
-53.03827852406682
 10
165.2801784526036
 20
-52.94939506054737
 10
165.3649278015407
 20
-52.88600530361878
 10
165.4875732008156
 20
-52.79281547074277
 10
165.6229654533859
 20
-52.7421725671096
 10
165.8176133483026
 20
-52.7421725671096
 10
166.0883978534432
 20
-52.7421725671096
 10
166.4904404965718
 20
-52.91976723937422
 10
166.4904404965718
 20
-53.63066269275553
 10
166.4904404965718
 20
-53.63066269275553
 10
166.4904404965718
 20
-54.83644611259297
 10
166.4904404965718
 20
-54.83644611259297
 10
166.4904404965718
 20
-54.83644611259297
 10
166.1266384133295
 20
-54.83644611259297
 10
166.1266384133295
 20
-54.83644611259297
 10
166.1266384133295
 20
-54.83644611259297
 10
166.1266384133295
 20
-53.6771714818064
 10
166.1266384133295
 20
-53.6771714818064
 10
166.1266384133295
 20
-53.28374157739087
 10
165.982633422046
 20
-53.04671900800568
 10
165.6822210957322
 20
-53.04671900800568
 10
165.4706922329379
 20
-53.04671900800568
 10
165.3056721591944
 20
-53.20329859781029
 10
165.2422824022658
 20
-53.38519963943148
 10
165.2254014343881
 20
-53.43601479783892
 10
165.2126545810927
 20
-53.50371092412407
 10
165.2126545810927
 20
-53.57140705040923
 10
165.2126545810927
 20
-53.57140705040923
 10
165.2126545810927
 20
-54.83644611259297
 10
165.2126545810927
 20
-54.83644611259297
 10
165.2126545810927
 20
-54.83644611259297
 10
164.8488524978503
 20
-54.83644611259297
 10
164.8488524978503
 20
-54.83644611259297
 10
164.8488524978503
 20
-54.83644611259297
 10
164.8488524978503
 20
-53.60947535552125
 10
164.8488524978503
 20
-53.60947535552125
 10
164.8488524978503
 20
-53.28374157739087
 10
164.7048475065669
 20
-53.04671900800568
 10
164.4213161481308
 20
-53.04671900800568
 10
164.1887722028764
 20
-53.04671900800568
 10
164.0196180145506
 20
-53.23292641898344
 10
163.9603623722044
 20
-53.41913382996119
 10
163.9390027801958
 20
-53.47408310295093
 10
163.9307345510312
 20
-53.53747285987952
 10
163.9307345510312
 20
-53.60103487158239
 10
163.9307345510312
 20
-53.60103487158239
 10
163.9307345510312
 20
-54.83644611259297
 10
163.9307345510312
 20
-54.83644611259297
 10
163.9307345510312
 20
-54.83644611259297
 10
163.5669324677888
 20
-54.83644611259297
 10
163.5669324677888
 20
-54.83644611259297
 10
163.5669324677888
 20
-54.83644611259297
 10
163.5669324677888
 20
-53.34282496496291
 10
163.5669324677888
 20
-53.34282496496291
 97
        0
 75
     2
 76
     1
 98
        0
  0
SPLINE
  5
7A
330
6E
100
AcDbEntity
  8
Layer 1
370
     0
100
AcDbSpline
210
0.0
220
0.0
230
1.0
 70
    11
 71
     3
 72
    41
 73
    37
 74
     0
 42
0.0000000001
 43
0.0000000001
 40
0.0
 40
0.0
 40
0.0
 40
0.0
 40
1.0
 40
1.0
 40
1.0
 40
2.0
 40
2.0
 40
2.0
 40
3.0
 40
3.0
 40
3.0
 40
4.0
 40
4.0
 40
4.0
 40
5.0
 40
5.0
 40
5.0
 40
6.0
 40
6.0
 40
6.0
 40
7.0
 40
7.0
 40
7.0
 40
8.0
 40
8.0
 40
8.0
 40
9.0
 40
9.0
 40
9.0
 40
10.0
 40
10.0
 40
10.0
 40
11.0
 40
11.0
 40
11.0
 40
12.0
 40
12.0
 40
12.0
 40
12.0
 10
167.9776882175542
 20
-54.83644611259297
 30
0.0
 10
167.9863009562673
 20
-54.69674749066609
 30
0.0
 10
167.9949136949805
 20
-54.48952499722832
 30
0.0
 10
167.9949136949805
 20
-54.30762395560713
 30
0.0
 10
167.9949136949805
 20
-54.30762395560713
 30
0.0
 10
167.9949136949805
 20
-51.83249510422938
 30
0.0
 10
167.9949136949805
 20
-51.83249510422938
 30
0.0
 10
167.9949136949805
 20
-51.83249510422938
 30
0.0
 10
168.3628498928051
 20
-51.83249510422938
 30
0.0
 10
168.3628498928051
 20
-51.83249510422938
 30
0.0
 10
168.3628498928051
 20
-51.83249510422938
 30
0.0
 10
168.3628498928051
 20
-53.11872150364741
 30
0.0
 10
168.3628498928051
 20
-53.11872150364741
 30
0.0
 10
168.3628498928051
 20
-53.11872150364741
 30
0.0
 10
168.3714626315183
 20
-53.11872150364741
 30
0.0
 10
168.3714626315183
 20
-53.11872150364741
 30
0.0
 10
168.5023762599577
 20
-52.89013941820108
 30
0.0
 10
168.7393988293429
 20
-52.7421725671096
 30
0.0
 10
169.0694389768299
 20
-52.7421725671096
 30
0.0
 10
169.5772460513557
 20
-52.7421725671096
 30
0.0
 10
169.9369140200158
 20
-53.16523029269828
 30
0.0
 10
169.932435395885
 20
-53.78707002778587
 30
0.0
 10
169.932435395885
 20
-54.51915281840147
 30
0.0
 10
169.4714816199585
 20
-54.88295490164385
 30
0.0
 10
169.0143174490659
 20
-54.88295490164385
 30
0.0
 10
168.7183837468829
 20
-54.88295490164385
 30
0.0
 10
168.4813611774977
 20
-54.76874998630782
 30
0.0
 10
168.3290879570497
 20
-54.49796548116718
 30
0.0
 10
168.3290879570497
 20
-54.49796548116718
 30
0.0
 10
168.3163411037543
 20
-54.49796548116718
 30
0.0
 10
168.3163411037543
 20
-54.49796548116718
 30
0.0
 10
168.3163411037543
 20
-54.49796548116718
 30
0.0
 10
168.2994601358765
 20
-54.83644611259297
 30
0.0
 10
168.2994601358765
 20
-54.83644611259297
 30
0.0
 10
168.2994601358765
 20
-54.83644611259297
 30
0.0
 10
167.9776882175542
 20
-54.83644611259297
 30
0.0
 10
167.9776882175542
 20
-54.83644611259297
 30
0.0
  0
SPLINE
  5
7B
330
6E
100
AcDbEntity
  8
Layer 1
370
     0
100
AcDbSpline
210
0.0
220
0.0
230
1.0
 70
    11
 71
     3
 72
    26
 73
    22
 74
     0
 42
0.0000000001
 43
0.0000000001
 40
0.0
 40
0.0
 40
0.0
 40
0.0
 40
1.0
 40
1.0
 40
1.0
 40
2.0
 40
2.0
 40
2.0
 40
3.0
 40
3.0
 40
3.0
 40
4.0
 40
4.0
 40
4.0
 40
5.0
 40
5.0
 40
5.0
 40
6.0
 40
6.0
 40
6.0
 40
7.0
 40
7.0
 40
7.0
 40
7.0
 10
168.3628498928051
 20
-54.0156521132322
 30
0.0
 10
168.3628498928051
 20
-54.06216090228308
 30
0.0
 10
168.3714626315183
 20
-54.10866969133394
 30
0.0
 10
168.3797308606829
 20
-54.15104436580252
 30
0.0
 10
168.4517333563246
 20
-54.40908201764773
 30
0.0
 10
168.6673963337012
 20
-54.58684894468662
 30
0.0
 10
168.9381808388418
 20
-54.58684894468662
 30
0.0
 10
169.3274766286751
 20
-54.58684894468662
 30
0.0
 10
169.560365083478
 20
-54.26955565049511
 30
0.0
 10
169.560365083478
 20
-53.7998168810813
 30
0.0
 10
169.560365083478
 20
-53.38950600878804
 30
0.0
 10
169.3488362206836
 20
-53.03827852406682
 30
0.0
 10
168.9509276921373
 20
-53.03827852406682
 30
0.0
 10
168.6970241548744
 20
-53.03827852406682
 30
0.0
 10
168.4600015854892
 20
-53.21173908174915
 30
0.0
 10
168.3838649752651
 20
-53.49527044018522
 30
0.0
 10
168.3755967461005
 20
-53.53747285987952
 30
0.0
 10
168.3628498928051
 20
-53.58828801828696
 30
0.0
 10
168.3628498928051
 20
-53.64754366063325
 30
0.0
 10
168.3628498928051
 20
-53.64754366063325
 30
0.0
 10
168.3628498928051
 20
-54.0156521132322
 30
0.0
 10
168.3628498928051
 20
-54.0156521132322
 30
0.0
  0
HATCH
  5
7C
330
6E
100
AcDbEntity
  8
Layer 1
 62
   178
420
    65793
100
AcDbHatch
 10
0.0
 20
0.0
 30
0.0
210
0.0
220
0.0
230
1.0
  2
SOLID
 70
     1
 71
     0
 91
        2
 92
        1
 93
        1
 72
     4
 94
        3
 73
     0
 74
     1
 95
       41
 96
       37
 40
0.0
 40
0.0
 40
0.0
 40
0.0
 40
1.0
 40
1.0
 40
1.0
 40
2.0
 40
2.0
 40
2.0
 40
3.0
 40
3.0
 40
3.0
 40
4.0
 40
4.0
 40
4.0
 40
5.0
 40
5.0
 40
5.0
 40
6.0
 40
6.0
 40
6.0
 40
7.0
 40
7.0
 40
7.0
 40
8.0
 40
8.0
 40
8.0
 40
9.0
 40
9.0
 40
9.0
 40
10.0
 40
10.0
 40
10.0
 40
11.0
 40
11.0
 40
11.0
 40
12.0
 40
12.0
 40
12.0
 40
12.0
 10
167.9776882175542
 20
-54.83644611259297
 10
167.9863009562673
 20
-54.69674749066609
 10
167.9949136949805
 20
-54.48952499722832
 10
167.9949136949805
 20
-54.30762395560713
 10
167.9949136949805
 20
-54.30762395560713
 10
167.9949136949805
 20
-51.83249510422938
 10
167.9949136949805
 20
-51.83249510422938
 10
167.9949136949805
 20
-51.83249510422938
 10
168.3628498928051
 20
-51.83249510422938
 10
168.3628498928051
 20
-51.83249510422938
 10
168.3628498928051
 20
-51.83249510422938
 10
168.3628498928051
 20
-53.11872150364741
 10
168.3628498928051
 20
-53.11872150364741
 10
168.3628498928051
 20
-53.11872150364741
 10
168.3714626315183
 20
-53.11872150364741
 10
168.3714626315183
 20
-53.11872150364741
 10
168.5023762599577
 20
-52.89013941820108
 10
168.7393988293429
 20
-52.7421725671096
 10
169.0694389768299
 20
-52.7421725671096
 10
169.5772460513557
 20
-52.7421725671096
 10
169.9369140200158
 20
-53.16523029269828
 10
169.932435395885
 20
-53.78707002778587
 10
169.932435395885
 20
-54.51915281840147
 10
169.4714816199585
 20
-54.88295490164385
 10
169.0143174490659
 20
-54.88295490164385
 10
168.7183837468829
 20
-54.88295490164385
 10
168.4813611774977
 20
-54.76874998630782
 10
168.3290879570497
 20
-54.49796548116718
 10
168.3290879570497
 20
-54.49796548116718
 10
168.3163411037543
 20
-54.49796548116718
 10
168.3163411037543
 20
-54.49796548116718
 10
168.3163411037543
 20
-54.49796548116718
 10
168.2994601358765
 20
-54.83644611259297
 10
168.2994601358765
 20
-54.83644611259297
 10
168.2994601358765
 20
-54.83644611259297
 10
167.9776882175542
 20
-54.83644611259297
 10
167.9776882175542
 20
-54.83644611259297
 97
        0
 92
        1
 93
        1
 72
     4
 94
        3
 73
     0
 74
     1
 95
       26
 96
       22
 40
0.0
 40
0.0
 40
0.0
 40
0.0
 40
1.0
 40
1.0
 40
1.0
 40
2.0
 40
2.0
 40
2.0
 40
3.0
 40
3.0
 40
3.0
 40
4.0
 40
4.0
 40
4.0
 40
5.0
 40
5.0
 40
5.0
 40
6.0
 40
6.0
 40
6.0
 40
7.0
 40
7.0
 40
7.0
 40
7.0
 10
168.3628498928051
 20
-54.0156521132322
 10
168.3628498928051
 20
-54.06216090228308
 10
168.3714626315183
 20
-54.10866969133394
 10
168.3797308606829
 20
-54.15104436580252
 10
168.4517333563246
 20
-54.40908201764773
 10
168.6673963337012
 20
-54.58684894468662
 10
168.9381808388418
 20
-54.58684894468662
 10
169.3274766286751
 20
-54.58684894468662
 10
169.560365083478
 20
-54.26955565049511
 10
169.560365083478
 20
-53.7998168810813
 10
169.560365083478
 20
-53.38950600878804
 10
169.3488362206836
 20
-53.03827852406682
 10
168.9509276921373
 20
-53.03827852406682
 10
168.6970241548744
 20
-53.03827852406682
 10
168.4600015854892
 20
-53.21173908174915
 10
168.3838649752651
 20
-53.49527044018522
 10
168.3755967461005
 20
-53.53747285987952
 10
168.3628498928051
 20
-53.58828801828696
 10
168.3628498928051
 20
-53.64754366063325
 10
168.3628498928051
 20
-53.64754366063325
 10
168.3628498928051
 20
-54.0156521132322
 10
168.3628498928051
 20
-54.0156521132322
 97
        0
 75
     2
 76
     1
 98
        0
  0
SPLINE
  5
7D
330
6E
100
AcDbEntity
  8
Layer 1
370
     0
100
AcDbSpline
210
0.0
220
0.0
230
1.0
 70
    11
 71
     3
 72
    50
 73
    46
 74
     0
 42
0.0000000001
 43
0.0000000001
 40
0.0
 40
0.0
 40
0.0
 40
0.0
 40
1.0
 40
1.0
 40
1.0
 40
2.0
 40
2.0
 40
2.0
 40
3.0
 40
3.0
 40
3.0
 40
4.0
 40
4.0
 40
4.0
 40
5.0
 40
5.0
 40
5.0
 40
6.0
 40
6.0
 40
6.0
 40
7.0
 40
7.0
 40
7.0
 40
8.0
 40
8.0
 40
8.0
 40
9.0
 40
9.0
 40
9.0
 40
10.0
 40
10.0
 40
10.0
 40
11.0
 40
11.0
 40
11.0
 40
12.0
 40
12.0
 40
12.0
 40
13.0
 40
13.0
 40
13.0
 40
14.0
 40
14.0
 40
14.0
 40
15.0
 40
15.0
 40
15.0
 40
15.0
 10
172.1169704430819
 20
-54.27799613443398
 30
0.0
 10
172.1169704430819
 20
-54.48952499722832
 30
0.0
 10
172.1214490672127
 20
-54.67573240820607
 30
0.0
 10
172.1341959205081
 20
-54.83644611259297
 30
0.0
 10
172.1341959205081
 20
-54.83644611259297
 30
0.0
 10
171.8041557730212
 20
-54.83644611259297
 30
0.0
 10
171.8041557730212
 20
-54.83644611259297
 30
0.0
 10
171.8041557730212
 20
-54.83644611259297
 30
0.0
 10
171.7827961810126
 20
-54.50227185052374
 30
0.0
 10
171.7827961810126
 20
-54.50227185052374
 30
0.0
 10
171.7827961810126
 20
-54.50227185052374
 30
0.0
 10
171.774527951848
 20
-54.50227185052374
 30
0.0
 10
171.774527951848
 20
-54.50227185052374
 30
0.0
 10
171.6770317496155
 20
-54.66729192426721
 30
0.0
 10
171.4613687722388
 20
-54.88295490164385
 30
0.0
 10
171.0975666889964
 20
-54.88295490164385
 30
0.0
 10
170.7757947706741
 20
-54.88295490164385
 30
0.0
 10
170.3909776049717
 20
-54.70536022937922
 30
0.0
 10
170.3909776049717
 20
-53.98602429205905
 30
0.0
 10
170.3909776049717
 20
-53.98602429205905
 30
0.0
 10
170.3909776049717
 20
-52.78868135616047
 30
0.0
 10
170.3909776049717
 20
-52.78868135616047
 30
0.0
 10
170.3909776049717
 20
-52.78868135616047
 30
0.0
 10
170.7630479173787
 20
-52.78868135616047
 30
0.0
 10
170.7630479173787
 20
-52.78868135616047
 30
0.0
 10
170.7630479173787
 20
-52.78868135616047
 30
0.0
 10
170.7630479173787
 20
-53.92246228035619
 30
0.0
 10
170.7630479173787
 20
-53.92246228035619
 30
0.0
 10
170.7630479173787
 20
-54.31175807018943
 30
0.0
 10
170.8815592020713
 20
-54.5741020913912
 30
0.0
 10
171.2202120882714
 20
-54.5741020913912
 30
0.0
 10
171.4696370014034
 20
-54.5741020913912
 30
0.0
 10
171.64326981386
 20
-54.40064153370887
 30
0.0
 10
171.7107936853709
 20
-54.2356214599654
 30
0.0
 10
171.7321532773795
 20
-54.18067218697567
 30
0.0
 10
171.7449001306749
 20
-54.11297606069051
 30
0.0
 10
171.7449001306749
 20
-54.04527993440535
 30
0.0
 10
171.7449001306749
 20
-54.04527993440535
 30
0.0
 10
171.7449001306749
 20
-52.78868135616047
 30
0.0
 10
171.7449001306749
 20
-52.78868135616047
 30
0.0
 10
171.7449001306749
 20
-52.78868135616047
 30
0.0
 10
172.1169704430819
 20
-52.78868135616047
 30
0.0
 10
172.1169704430819
 20
-52.78868135616047
 30
0.0
 10
172.1169704430819
 20
-52.78868135616047
 30
0.0
 10
172.1169704430819
 20
-54.27799613443398
 30
0.0
 10
172.1169704430819
 20
-54.27799613443398
 30
0.0
  0
HATCH
  5
7E
330
6E
100
AcDbEntity
  8
Layer 1
 62
   178
420
    65793
100
AcDbHatch
 10
0.0
 20
0.0
 30
0.0
210
0.0
220
0.0
230
1.0
  2
SOLID
 70
     1
 71
     0
 91
        1
 92
        1
 93
        1
 72
     4
 94
        3
 73
     0
 74
     1
 95
       50
 96
       46
 40
0.0
 40
0.0
 40
0.0
 40
0.0
 40
1.0
 40
1.0
 40
1.0
 40
2.0
 40
2.0
 40
2.0
 40
3.0
 40
3.0
 40
3.0
 40
4.0
 40
4.0
 40
4.0
 40
5.0
 40
5.0
 40
5.0
 40
6.0
 40
6.0
 40
6.0
 40
7.0
 40
7.0
 40
7.0
 40
8.0
 40
8.0
 40
8.0
 40
9.0
 40
9.0
 40
9.0
 40
10.0
 40
10.0
 40
10.0
 40
11.0
 40
11.0
 40
11.0
 40
12.0
 40
12.0
 40
12.0
 40
13.0
 40
13.0
 40
13.0
 40
14.0
 40
14.0
 40
14.0
 40
15.0
 40
15.0
 40
15.0
 40
15.0
 10
172.1169704430819
 20
-54.27799613443398
 10
172.1169704430819
 20
-54.48952499722832
 10
172.1214490672127
 20
-54.67573240820607
 10
172.1341959205081
 20
-54.83644611259297
 10
172.1341959205081
 20
-54.83644611259297
 10
171.8041557730212
 20
-54.83644611259297
 10
171.8041557730212
 20
-54.83644611259297
 10
171.8041557730212
 20
-54.83644611259297
 10
171.7827961810126
 20
-54.50227185052374
 10
171.7827961810126
 20
-54.50227185052374
 10
171.7827961810126
 20
-54.50227185052374
 10
171.774527951848
 20
-54.50227185052374
 10
171.774527951848
 20
-54.50227185052374
 10
171.6770317496155
 20
-54.66729192426721
 10
171.4613687722388
 20
-54.88295490164385
 10
171.0975666889964
 20
-54.88295490164385
 10
170.7757947706741
 20
-54.88295490164385
 10
170.3909776049717
 20
-54.70536022937922
 10
170.3909776049717
 20
-53.98602429205905
 10
170.3909776049717
 20
-53.98602429205905
 10
170.3909776049717
 20
-52.78868135616047
 10
170.3909776049717
 20
-52.78868135616047
 10
170.3909776049717
 20
-52.78868135616047
 10
170.7630479173787
 20
-52.78868135616047
 10
170.7630479173787
 20
-52.78868135616047
 10
170.7630479173787
 20
-52.78868135616047
 10
170.7630479173787
 20
-53.92246228035619
 10
170.7630479173787
 20
-53.92246228035619
 10
170.7630479173787
 20
-54.31175807018943
 10
170.8815592020713
 20
-54.5741020913912
 10
171.2202120882714
 20
-54.5741020913912
 10
171.4696370014034
 20
-54.5741020913912
 10
171.64326981386
 20
-54.40064153370887
 10
171.7107936853709
 20
-54.2356214599654
 10
171.7321532773795
 20
-54.18067218697567
 10
171.7449001306749
 20
-54.11297606069051
 10
171.7449001306749
 20
-54.04527993440535
 10
171.7449001306749
 20
-54.04527993440535
 10
171.7449001306749
 20
-52.78868135616047
 10
171.7449001306749
 20
-52.78868135616047
 10
171.7449001306749
 20
-52.78868135616047
 10
172.1169704430819
 20
-52.78868135616047
 10
172.1169704430819
 20
-52.78868135616047
 10
172.1169704430819
 20
-52.78868135616047
 10
172.1169704430819
 20
-54.27799613443398
 10
172.1169704430819
 20
-54.27799613443398
 97
        0
 75
     2
 76
     1
 98
        0
  0
SPLINE
  5
7F
330
6E
100
AcDbEntity
  8
Layer 1
370
     0
100
AcDbSpline
210
0.0
220
0.0
230
1.0
 70
    11
 71
     3
 72
    47
 73
    43
 74
     0
 42
0.0000000001
 43
0.0000000001
 40
0.0
 40
0.0
 40
0.0
 40
0.0
 40
1.0
 40
1.0
 40
1.0
 40
2.0
 40
2.0
 40
2.0
 40
3.0
 40
3.0
 40
3.0
 40
4.0
 40
4.0
 40
4.0
 40
5.0
 40
5.0
 40
5.0
 40
6.0
 40
6.0
 40
6.0
 40
7.0
 40
7.0
 40
7.0
 40
8.0
 40
8.0
 40
8.0
 40
9.0
 40
9.0
 40
9.0
 40
10.0
 40
10.0
 40
10.0
 40
11.0
 40
11.0
 40
11.0
 40
12.0
 40
12.0
 40
12.0
 40
13.0
 40
13.0
 40
13.0
 40
14.0
 40
14.0
 40
14.0
 40
14.0
 10
172.6850666885996
 20
-54.4555908066986
 30
0.0
 10
172.7949652345791
 20
-54.52759330234033
 30
0.0
 10
172.9896131294957
 20
-54.60372991256435
 30
0.0
 10
173.1759927952477
 20
-54.60372991256435
 30
0.0
 10
173.4467773003883
 20
-54.60372991256435
 30
0.0
 10
173.5735568142455
 20
-54.46833765999403
 30
0.0
 10
173.5735568142455
 20
-54.29918347166826
 30
0.0
 10
173.5735568142455
 20
-54.12141654462937
 30
0.0
 10
173.4677923828483
 20
-54.02409259717106
 30
0.0
 10
173.1928737631254
 20
-53.92246228035619
 30
0.0
 10
172.8245930557522
 20
-53.79137639714244
 30
0.0
 10
172.6513047528441
 20
-53.58828801828696
 30
0.0
 10
172.6513047528441
 20
-53.34282496496291
 30
0.0
 10
172.6513047528441
 20
-53.01295707225024
 30
0.0
 10
172.9179551434025
 20
-52.7421725671096
 30
0.0
 10
173.3578938368689
 20
-52.7421725671096
 30
0.0
 10
173.5652885850809
 20
-52.7421725671096
 30
0.0
 10
173.7471896267021
 20
-52.80125595468164
 30
0.0
 10
173.8612222872639
 20
-52.86895208096679
 30
0.0
 10
173.8612222872639
 20
-52.86895208096679
 30
0.0
 10
173.7682047091621
 20
-53.13973658610743
 30
0.0
 10
173.7682047091621
 20
-53.13973658610743
 30
0.0
 10
173.6879339843558
 20
-53.08909368247426
 30
0.0
 10
173.5397948784901
 20
-53.0213975561891
 30
0.0
 10
173.3492810981558
 20
-53.0213975561891
 30
0.0
 10
173.1294840061968
 20
-53.0213975561891
 30
0.0
 10
173.0068386069219
 20
-53.14834932482055
 30
0.0
 10
173.0068386069219
 20
-53.3006225452686
 30
0.0
 10
173.0068386069219
 20
-53.46977673359437
 30
0.0
 10
173.1294840061968
 20
-53.54591334381838
 30
0.0
 10
173.3957898872066
 20
-53.64754366063325
 30
0.0
 10
173.7513237412844
 20
-53.78293591320357
 30
0.0
 10
173.9332247829056
 20
-53.96070284024247
 30
0.0
 10
173.9332247829056
 20
-54.26524928113855
 30
0.0
 10
173.9332247829056
 20
-54.62491724979864
 30
0.0
 10
173.6541720486003
 20
-54.87882078706155
 30
0.0
 10
173.1673800565345
 20
-54.87882078706155
 30
0.0
 10
172.9431043404448
 20
-54.87882078706155
 30
0.0
 10
172.7360541017813
 20
-54.82369925929755
 30
0.0
 10
172.5920491104978
 20
-54.73912216513467
 30
0.0
 10
172.5920491104978
 20
-54.73912216513467
 30
0.0
 10
172.6850666885996
 20
-54.4555908066986
 30
0.0
 10
172.6850666885996
 20
-54.4555908066986
 30
0.0
  0
HATCH
  5
80
330
6E
100
AcDbEntity
  8
Layer 1
 62
   178
420
    65793
100
AcDbHatch
 10
0.0
 20
0.0
 30
0.0
210
0.0
220
0.0
230
1.0
  2
SOLID
 70
     1
 71
     0
 91
        1
 92
        1
 93
        1
 72
     4
 94
        3
 73
     0
 74
     1
 95
       47
 96
       43
 40
0.0
 40
0.0
 40
0.0
 40
0.0
 40
1.0
 40
1.0
 40
1.0
 40
2.0
 40
2.0
 40
2.0
 40
3.0
 40
3.0
 40
3.0
 40
4.0
 40
4.0
 40
4.0
 40
5.0
 40
5.0
 40
5.0
 40
6.0
 40
6.0
 40
6.0
 40
7.0
 40
7.0
 40
7.0
 40
8.0
 40
8.0
 40
8.0
 40
9.0
 40
9.0
 40
9.0
 40
10.0
 40
10.0
 40
10.0
 40
11.0
 40
11.0
 40
11.0
 40
12.0
 40
12.0
 40
12.0
 40
13.0
 40
13.0
 40
13.0
 40
14.0
 40
14.0
 40
14.0
 40
14.0
 10
172.6850666885996
 20
-54.4555908066986
 10
172.7949652345791
 20
-54.52759330234033
 10
172.9896131294957
 20
-54.60372991256435
 10
173.1759927952477
 20
-54.60372991256435
 10
173.4467773003883
 20
-54.60372991256435
 10
173.5735568142455
 20
-54.46833765999403
 10
173.5735568142455
 20
-54.29918347166826
 10
173.5735568142455
 20
-54.12141654462937
 10
173.4677923828483
 20
-54.02409259717106
 10
173.1928737631254
 20
-53.92246228035619
 10
172.8245930557522
 20
-53.79137639714244
 10
172.6513047528441
 20
-53.58828801828696
 10
172.6513047528441
 20
-53.34282496496291
 10
172.6513047528441
 20
-53.01295707225024
 10
172.9179551434025
 20
-52.7421725671096
 10
173.3578938368689
 20
-52.7421725671096
 10
173.5652885850809
 20
-52.7421725671096
 10
173.7471896267021
 20
-52.80125595468164
 10
173.8612222872639
 20
-52.86895208096679
 10
173.8612222872639
 20
-52.86895208096679
 10
173.7682047091621
 20
-53.13973658610743
 10
173.7682047091621
 20
-53.13973658610743
 10
173.6879339843558
 20
-53.08909368247426
 10
173.5397948784901
 20
-53.0213975561891
 10
173.3492810981558
 20
-53.0213975561891
 10
173.1294840061968
 20
-53.0213975561891
 10
173.0068386069219
 20
-53.14834932482055
 10
173.0068386069219
 20
-53.3006225452686
 10
173.0068386069219
 20
-53.46977673359437
 10
173.1294840061968
 20
-53.54591334381838
 10
173.3957898872066
 20
-53.64754366063325
 10
173.7513237412844
 20
-53.78293591320357
 10
173.9332247829056
 20
-53.96070284024247
 10
173.9332247829056
 20
-54.26524928113855
 10
173.9332247829056
 20
-54.62491724979864
 10
173.6541720486003
 20
-54.87882078706155
 10
173.1673800565345
 20
-54.87882078706155
 10
172.9431043404448
 20
-54.87882078706155
 10
172.7360541017813
 20
-54.82369925929755
 10
172.5920491104978
 20
-54.73912216513467
 10
172.5920491104978
 20
-54.73912216513467
 10
172.6850666885996
 20
-54.4555908066986
 10
172.6850666885996
 20
-54.4555908066986
 97
        0
 75
     2
 76
     1
 98
        0
  0
SPLINE
  5
81
330
6E
100
AcDbEntity
  8
Layer 1
370
     0
100
AcDbSpline
210
0.0
220
0.0
230
1.0
 70
    11
 71
     3
 72
    50
 73
    46
 74
     0
 42
0.0000000001
 43
0.0000000001
 40
0.0
 40
0.0
 40
0.0
 40
0.0
 40
1.0
 40
1.0
 40
1.0
 40
2.0
 40
2.0
 40
2.0
 40
3.0
 40
3.0
 40
3.0
 40
4.0
 40
4.0
 40
4.0
 40
5.0
 40
5.0
 40
5.0
 40
6.0
 40
6.0
 40
6.0
 40
7.0
 40
7.0
 40
7.0
 40
8.0
 40
8.0
 40
8.0
 40
9.0
 40
9.0
 40
9.0
 40
10.0
 40
10.0
 40
10.0
 40
11.0
 40
11.0
 40
11.0
 40
12.0
 40
12.0
 40
12.0
 40
13.0
 40
13.0
 40
13.0
 40
14.0
 40
14.0
 40
14.0
 40
15.0
 40
15.0
 40
15.0
 40
15.0
 10
174.4124375649039
 20
-51.83249510422938
 30
0.0
 10
174.4124375649039
 20
-51.83249510422938
 30
0.0
 10
174.7845078773108
 20
-51.83249510422938
 30
0.0
 10
174.7845078773108
 20
-51.83249510422938
 30
0.0
 10
174.7845078773108
 20
-51.83249510422938
 30
0.0
 10
174.7845078773108
 20
-53.11010876493428
 30
0.0
 10
174.7845078773108
 20
-53.11010876493428
 30
0.0
 10
174.7845078773108
 20
-53.11010876493428
 30
0.0
 10
174.7931206160239
 20
-53.11010876493428
 30
0.0
 10
174.7931206160239
 20
-53.11010876493428
 30
0.0
 10
174.8523762583702
 20
-53.00434433353711
 30
0.0
 10
174.945393836472
 20
-52.91132675543537
 30
0.0
 10
175.0597710065823
 20
-52.84793699850677
 30
0.0
 10
175.1696695525618
 20
-52.78437498680391
 30
0.0
 10
175.3009276905498
 20
-52.7421725671096
 30
0.0
 10
175.4404540577024
 20
-52.7421725671096
 30
0.0
 10
175.7153726774253
 20
-52.7421725671096
 30
0.0
 10
176.1553113708917
 20
-52.91132675543537
 30
0.0
 10
176.1553113708917
 20
-53.61791583946011
 30
0.0
 10
176.1553113708917
 20
-53.61791583946011
 30
0.0
 10
176.1553113708917
 20
-54.83644611259297
 30
0.0
 10
176.1553113708917
 20
-54.83644611259297
 30
0.0
 10
176.1553113708917
 20
-54.83644611259297
 30
0.0
 10
175.7832410584847
 20
-54.83644611259297
 30
0.0
 10
175.7832410584847
 20
-54.83644611259297
 30
0.0
 10
175.7832410584847
 20
-54.83644611259297
 30
0.0
 10
175.7832410584847
 20
-53.66029051392868
 30
0.0
 10
175.7832410584847
 20
-53.66029051392868
 30
0.0
 10
175.7832410584847
 20
-53.33025036644175
 30
0.0
 10
175.6602511496613
 20
-53.05102537736224
 30
0.0
 10
175.3091959197144
 20
-53.05102537736224
 30
0.0
 10
175.0680392357469
 20
-53.05102537736224
 30
0.0
 10
174.8775254554126
 20
-53.22017956568801
 30
0.0
 10
174.8100015839017
 20
-53.42326794454349
 30
0.0
 10
174.7889865014417
 20
-53.47408310295093
 30
0.0
 10
174.7845078773108
 20
-53.52903237594066
 30
0.0
 10
174.7845078773108
 20
-53.60103487158239
 30
0.0
 10
174.7845078773108
 20
-53.60103487158239
 30
0.0
 10
174.7845078773108
 20
-54.83644611259297
 30
0.0
 10
174.7845078773108
 20
-54.83644611259297
 30
0.0
 10
174.7845078773108
 20
-54.83644611259297
 30
0.0
 10
174.4124375649039
 20
-54.83644611259297
 30
0.0
 10
174.4124375649039
 20
-54.83644611259297
 30
0.0
 10
174.4124375649039
 20
-54.83644611259297
 30
0.0
 10
174.4124375649039
 20
-51.83249510422938
 30
0.0
 10
174.4124375649039
 20
-51.83249510422938
 30
0.0
  0
HATCH
  5
82
330
6E
100
AcDbEntity
  8
Layer 1
 62
   178
420
    65793
100
AcDbHatch
 10
0.0
 20
0.0
 30
0.0
210
0.0
220
0.0
230
1.0
  2
SOLID
 70
     1
 71
     0
 91
        1
 92
        1
 93
        1
 72
     4
 94
        3
 73
     0
 74
     1
 95
       50
 96
       46
 40
0.0
 40
0.0
 40
0.0
 40
0.0
 40
1.0
 40
1.0
 40
1.0
 40
2.0
 40
2.0
 40
2.0
 40
3.0
 40
3.0
 40
3.0
 40
4.0
 40
4.0
 40
4.0
 40
5.0
 40
5.0
 40
5.0
 40
6.0
 40
6.0
 40
6.0
 40
7.0
 40
7.0
 40
7.0
 40
8.0
 40
8.0
 40
8.0
 40
9.0
 40
9.0
 40
9.0
 40
10.0
 40
10.0
 40
10.0
 40
11.0
 40
11.0
 40
11.0
 40
12.0
 40
12.0
 40
12.0
 40
13.0
 40
13.0
 40
13.0
 40
14.0
 40
14.0
 40
14.0
 40
15.0
 40
15.0
 40
15.0
 40
15.0
 10
174.4124375649039
 20
-51.83249510422938
 10
174.4124375649039
 20
-51.83249510422938
 10
174.7845078773108
 20
-51.83249510422938
 10
174.7845078773108
 20
-51.83249510422938
 10
174.7845078773108
 20
-51.83249510422938
 10
174.7845078773108
 20
-53.11010876493428
 10
174.7845078773108
 20
-53.11010876493428
 10
174.7845078773108
 20
-53.11010876493428
 10
174.7931206160239
 20
-53.11010876493428
 10
174.7931206160239
 20
-53.11010876493428
 10
174.8523762583702
 20
-53.00434433353711
 10
174.945393836472
 20
-52.91132675543537
 10
175.0597710065823
 20
-52.84793699850677
 10
175.1696695525618
 20
-52.78437498680391
 10
175.3009276905498
 20
-52.7421725671096
 10
175.4404540577024
 20
-52.7421725671096
 10
175.7153726774253
 20
-52.7421725671096
 10
176.1553113708917
 20
-52.91132675543537
 10
176.1553113708917
 20
-53.61791583946011
 10
176.1553113708917
 20
-53.61791583946011
 10
176.1553113708917
 20
-54.83644611259297
 10
176.1553113708917
 20
-54.83644611259297
 10
176.1553113708917
 20
-54.83644611259297
 10
175.7832410584847
 20
-54.83644611259297
 10
175.7832410584847
 20
-54.83644611259297
 10
175.7832410584847
 20
-54.83644611259297
 10
175.7832410584847
 20
-53.66029051392868
 10
175.7832410584847
 20
-53.66029051392868
 10
175.7832410584847
 20
-53.33025036644175
 10
175.6602511496613
 20
-53.05102537736224
 10
175.3091959197144
 20
-53.05102537736224
 10
175.0680392357469
 20
-53.05102537736224
 10
174.8775254554126
 20
-53.22017956568801
 10
174.8100015839017
 20
-53.42326794454349
 10
174.7889865014417
 20
-53.47408310295093
 10
174.7845078773108
 20
-53.52903237594066
 10
174.7845078773108
 20
-53.60103487158239
 10
174.7845078773108
 20
-53.60103487158239
 10
174.7845078773108
 20
-54.83644611259297
 10
174.7845078773108
 20
-54.83644611259297
 10
174.7845078773108
 20
-54.83644611259297
 10
174.4124375649039
 20
-54.83644611259297
 10
174.4124375649039
 20
-54.83644611259297
 10
174.4124375649039
 20
-54.83644611259297
 10
174.4124375649039
 20
-51.83249510422938
 10
174.4124375649039
 20
-51.83249510422938
 97
        0
 75
     2
 76
     1
 98
        0
  0
SPLINE
  5
83
330
6E
100
AcDbEntity
  8
Layer 1
370
     0
100
AcDbSpline
210
0.0
220
0.0
230
1.0
 70
    11
 71
     3
 72
    59
 73
    55
 74
     0
 42
0.0000000001
 43
0.0000000001
 40
0.0
 40
0.0
 40
0.0
 40
0.0
 40
1.0
 40
1.0
 40
1.0
 40
2.0
 40
2.0
 40
2.0
 40
3.0
 40
3.0
 40
3.0
 40
4.0
 40
4.0
 40
4.0
 40
5.0
 40
5.0
 40
5.0
 40
6.0
 40
6.0
 40
6.0
 40
7.0
 40
7.0
 40
7.0
 40
8.0
 40
8.0
 40
8.0
 40
9.0
 40
9.0
 40
9.0
 40
10.0
 40
10.0
 40
10.0
 40
11.0
 40
11.0
 40
11.0
 40
12.0
 40
12.0
 40
12.0
 40
13.0
 40
13.0
 40
13.0
 40
14.0
 40
14.0
 40
14.0
 40
15.0
 40
15.0
 40
15.0
 40
16.0
 40
16.0
 40
16.0
 40
17.0
 40
17.0
 40
17.0
 40
18.0
 40
18.0
 40
18.0
 40
18.0
 10
158.7324299733377
 20
-59.48904756542288
 30
0.0
 10
158.8381944047349
 20
-59.55674369170804
 30
0.0
 10
159.0834852032847
 20
-59.66250812310521
 30
0.0
 10
159.3415228551299
 20
-59.66250812310521
 30
0.0
 10
159.8197021084826
 20
-59.66250812310521
 30
0.0
 10
159.9678412143483
 20
-59.35796168220912
 30
0.0
 10
159.9633625902175
 20
-59.1293795967628
 30
0.0
 10
159.9592284756352
 20
-58.74439017628612
 30
0.0
 10
159.6123073602705
 20
-58.57937010254266
 30
0.0
 10
159.2526393916105
 20
-58.57937010254266
 30
0.0
 10
159.2526393916105
 20
-58.57937010254266
 30
0.0
 10
159.0452446433984
 20
-58.57937010254266
 30
0.0
 10
159.0452446433984
 20
-58.57937010254266
 30
0.0
 10
159.0452446433984
 20
-58.57937010254266
 30
0.0
 10
159.0452446433984
 20
-58.30014511346316
 30
0.0
 10
159.0452446433984
 20
-58.30014511346316
 30
0.0
 10
159.0452446433984
 20
-58.30014511346316
 30
0.0
 10
159.2526393916105
 20
-58.30014511346316
 30
0.0
 10
159.2526393916105
 20
-58.30014511346316
 30
0.0
 10
159.5234238967511
 20
-58.30014511346316
 30
0.0
 10
159.8662108975334
 20
-58.16061874631054
 30
0.0
 10
159.8662108975334
 20
-57.83471271340591
 30
0.0
 10
159.8662108975334
 20
-57.61474336667271
 30
0.0
 10
159.7266845303808
 20
-57.42009547175609
 30
0.0
 10
159.3838975295985
 20
-57.42009547175609
 30
0.0
 10
159.163755928091
 20
-57.42009547175609
 30
0.0
 10
158.9522270652967
 20
-57.5174194192144
 30
0.0
 10
158.8337157806041
 20
-57.60199651337728
 30
0.0
 10
158.8337157806041
 20
-57.60199651337728
 30
0.0
 10
158.73656408792
 20
-57.33121200823664
 30
0.0
 10
158.73656408792
 20
-57.33121200823664
 30
0.0
 10
158.880224569655
 20
-57.22544757683947
 30
0.0
 10
159.1596218135087
 20
-57.1196831454423
 30
0.0
 10
159.4559000252402
 20
-57.1196831454423
 30
0.0
 10
159.9974690355215
 20
-57.1196831454423
 30
0.0
 10
160.2427598340713
 20
-57.44128280899038
 30
0.0
 10
160.2427598340713
 20
-57.77545707105961
 30
0.0
 10
160.2427598340713
 20
-58.05898842949567
 30
0.0
 10
160.0736056457455
 20
-58.30014511346316
 30
0.0
 10
159.7349527595454
 20
-58.42279051273805
 30
0.0
 10
159.7349527595454
 20
-58.42279051273805
 30
0.0
 10
159.7349527595454
 20
-58.43140325145118
 30
0.0
 10
159.7349527595454
 20
-58.43140325145118
 30
0.0
 10
160.0736056457455
 20
-58.49909937773634
 30
0.0
 10
160.3485242654684
 20
-58.75283066022499
 30
0.0
 10
160.3485242654684
 20
-59.13799233547592
 30
0.0
 10
160.3485242654684
 20
-59.57793102894232
 30
0.0
 10
160.0057372646861
 20
-59.96292044941899
 30
0.0
 10
159.3456569697122
 20
-59.96292044941899
 30
0.0
 10
159.0369764142338
 20
-59.96292044941899
 30
0.0
 10
158.7661919090932
 20
-59.86559650196069
 30
0.0
 10
158.6307996565229
 20
-59.77671303844124
 30
0.0
 10
158.6307996565229
 20
-59.77671303844124
 30
0.0
 10
158.7324299733377
 20
-59.48904756542288
 30
0.0
 10
158.7324299733377
 20
-59.48904756542288
 30
0.0
  0
HATCH
  5
84
330
6E
100
AcDbEntity
  8
Layer 1
 62
   178
420
    65793
100
AcDbHatch
 10
0.0
 20
0.0
 30
0.0
210
0.0
220
0.0
230
1.0
  2
SOLID
 70
     1
 71
     0
 91
        1
 92
        1
 93
        1
 72
     4
 94
        3
 73
     0
 74
     1
 95
       59
 96
       55
 40
0.0
 40
0.0
 40
0.0
 40
0.0
 40
1.0
 40
1.0
 40
1.0
 40
2.0
 40
2.0
 40
2.0
 40
3.0
 40
3.0
 40
3.0
 40
4.0
 40
4.0
 40
4.0
 40
5.0
 40
5.0
 40
5.0
 40
6.0
 40
6.0
 40
6.0
 40
7.0
 40
7.0
 40
7.0
 40
8.0
 40
8.0
 40
8.0
 40
9.0
 40
9.0
 40
9.0
 40
10.0
 40
10.0
 40
10.0
 40
11.0
 40
11.0
 40
11.0
 40
12.0
 40
12.0
 40
12.0
 40
13.0
 40
13.0
 40
13.0
 40
14.0
 40
14.0
 40
14.0
 40
15.0
 40
15.0
 40
15.0
 40
16.0
 40
16.0
 40
16.0
 40
17.0
 40
17.0
 40
17.0
 40
18.0
 40
18.0
 40
18.0
 40
18.0
 10
158.7324299733377
 20
-59.48904756542288
 10
158.8381944047349
 20
-59.55674369170804
 10
159.0834852032847
 20
-59.66250812310521
 10
159.3415228551299
 20
-59.66250812310521
 10
159.8197021084826
 20
-59.66250812310521
 10
159.9678412143483
 20
-59.35796168220912
 10
159.9633625902175
 20
-59.1293795967628
 10
159.9592284756352
 20
-58.74439017628612
 10
159.6123073602705
 20
-58.57937010254266
 10
159.2526393916105
 20
-58.57937010254266
 10
159.2526393916105
 20
-58.57937010254266
 10
159.0452446433984
 20
-58.57937010254266
 10
159.0452446433984
 20
-58.57937010254266
 10
159.0452446433984
 20
-58.57937010254266
 10
159.0452446433984
 20
-58.30014511346316
 10
159.0452446433984
 20
-58.30014511346316
 10
159.0452446433984
 20
-58.30014511346316
 10
159.2526393916105
 20
-58.30014511346316
 10
159.2526393916105
 20
-58.30014511346316
 10
159.5234238967511
 20
-58.30014511346316
 10
159.8662108975334
 20
-58.16061874631054
 10
159.8662108975334
 20
-57.83471271340591
 10
159.8662108975334
 20
-57.61474336667271
 10
159.7266845303808
 20
-57.42009547175609
 10
159.3838975295985
 20
-57.42009547175609
 10
159.163755928091
 20
-57.42009547175609
 10
158.9522270652967
 20
-57.5174194192144
 10
158.8337157806041
 20
-57.60199651337728
 10
158.8337157806041
 20
-57.60199651337728
 10
158.73656408792
 20
-57.33121200823664
 10
158.73656408792
 20
-57.33121200823664
 10
158.880224569655
 20
-57.22544757683947
 10
159.1596218135087
 20
-57.1196831454423
 10
159.4559000252402
 20
-57.1196831454423
 10
159.9974690355215
 20
-57.1196831454423
 10
160.2427598340713
 20
-57.44128280899038
 10
160.2427598340713
 20
-57.77545707105961
 10
160.2427598340713
 20
-58.05898842949567
 10
160.0736056457455
 20
-58.30014511346316
 10
159.7349527595454
 20
-58.42279051273805
 10
159.7349527595454
 20
-58.42279051273805
 10
159.7349527595454
 20
-58.43140325145118
 10
159.7349527595454
 20
-58.43140325145118
 10
160.0736056457455
 20
-58.49909937773634
 10
160.3485242654684
 20
-58.75283066022499
 10
160.3485242654684
 20
-59.13799233547592
 10
160.3485242654684
 20
-59.57793102894232
 10
160.0057372646861
 20
-59.96292044941899
 10
159.3456569697122
 20
-59.96292044941899
 10
159.0369764142338
 20
-59.96292044941899
 10
158.7661919090932
 20
-59.86559650196069
 10
158.6307996565229
 20
-59.77671303844124
 10
158.6307996565229
 20
-59.77671303844124
 10
158.7324299733377
 20
-59.48904756542288
 10
158.7324299733377
 20
-59.48904756542288
 97
        0
 75
     2
 76
     1
 98
        0
  0
SPLINE
  5
85
330
6E
100
AcDbEntity
  8
Layer 1
370
     0
100
AcDbSpline
210
0.0
220
0.0
230
1.0
 70
    11
 71
     3
 72
    80
 73
    76
 74
     0
 42
0.0000000001
 43
0.0000000001
 40
0.0
 40
0.0
 40
0.0
 40
0.0
 40
1.0
 40
1.0
 40
1.0
 40
2.0
 40
2.0
 40
2.0
 40
3.0
 40
3.0
 40
3.0
 40
4.0
 40
4.0
 40
4.0
 40
5.0
 40
5.0
 40
5.0
 40
6.0
 40
6.0
 40
6.0
 40
7.0
 40
7.0
 40
7.0
 40
8.0
 40
8.0
 40
8.0
 40
9.0
 40
9.0
 40
9.0
 40
10.0
 40
10.0
 40
10.0
 40
11.0
 40
11.0
 40
11.0
 40
12.0
 40
12.0
 40
12.0
 40
13.0
 40
13.0
 40
13.0
 40
14.0
 40
14.0
 40
14.0
 40
15.0
 40
15.0
 40
15.0
 40
16.0
 40
16.0
 40
16.0
 40
17.0
 40
17.0
 40
17.0
 40
18.0
 40
18.0
 40
18.0
 40
19.0
 40
19.0
 40
19.0
 40
20.0
 40
20.0
 40
20.0
 40
21.0
 40
21.0
 40
21.0
 40
22.0
 40
22.0
 40
22.0
 40
23.0
 40
23.0
 40
23.0
 40
24.0
 40
24.0
 40
24.0
 40
25.0
 40
25.0
 40
25.0
 40
25.0
 10
160.9335014788639
 20
-58.42279051273805
 30
0.0
 10
160.9335014788639
 20
-58.21126164994372
 30
0.0
 10
160.929022854733
 20
-58.03780109226138
 30
0.0
 10
160.9162760014376
 20
-57.86864690393562
 30
0.0
 10
160.9162760014376
 20
-57.86864690393562
 30
0.0
 10
161.2421820343422
 20
-57.86864690393562
 30
0.0
 10
161.2421820343422
 20
-57.86864690393562
 30
0.0
 10
161.2421820343422
 20
-57.86864690393562
 30
0.0
 10
161.25906300222
 20
-58.19868705142255
 30
0.0
 10
161.25906300222
 20
-58.19868705142255
 30
0.0
 10
161.25906300222
 20
-58.19868705142255
 30
0.0
 10
161.2718098555154
 20
-58.19868705142255
 30
0.0
 10
161.2718098555154
 20
-58.19868705142255
 30
0.0
 10
161.3861870256257
 20
-58.00403915650594
 30
0.0
 10
161.5763562964115
 20
-57.82213811488474
 30
0.0
 10
161.9150091826115
 20
-57.82213811488474
 30
0.0
 10
162.1940619169168
 20
-57.82213811488474
 30
0.0
 10
162.4055907797111
 20
-57.99129230321051
 30
0.0
 10
162.4944742432305
 20
-58.232448987178
 30
0.0
 10
162.4944742432305
 20
-58.232448987178
 30
0.0
 10
162.5030869819437
 20
-58.232448987178
 30
0.0
 10
162.5030869819437
 20
-58.232448987178
 30
0.0
 10
162.5664767388723
 20
-58.11824407184197
 30
0.0
 10
162.6467474636786
 20
-58.02936060832253
 30
0.0
 10
162.7314968126157
 20
-57.96597085139393
 30
0.0
 10
162.8541422118906
 20
-57.87278101851792
 30
0.0
 10
162.9895344644609
 20
-57.82213811488474
 30
0.0
 10
163.1841823593776
 20
-57.82213811488474
 30
0.0
 10
163.4549668645182
 20
-57.82213811488474
 30
0.0
 10
163.8570095076469
 20
-57.99973278714938
 30
0.0
 10
163.8570095076469
 20
-58.71062824053068
 30
0.0
 10
163.8570095076469
 20
-58.71062824053068
 30
0.0
 10
163.8570095076469
 20
-59.91641166036812
 30
0.0
 10
163.8570095076469
 20
-59.91641166036812
 30
0.0
 10
163.8570095076469
 20
-59.91641166036812
 30
0.0
 10
163.4932074244045
 20
-59.91641166036812
 30
0.0
 10
163.4932074244045
 20
-59.91641166036812
 30
0.0
 10
163.4932074244045
 20
-59.91641166036812
 30
0.0
 10
163.4932074244045
 20
-58.75713702958155
 30
0.0
 10
163.4932074244045
 20
-58.75713702958155
 30
0.0
 10
163.4932074244045
 20
-58.36370712516602
 30
0.0
 10
163.349202433121
 20
-58.12668455578083
 30
0.0
 10
163.0487901068072
 20
-58.12668455578083
 30
0.0
 10
162.8372612440129
 20
-58.12668455578083
 30
0.0
 10
162.6722411702694
 20
-58.28326414558543
 30
0.0
 10
162.6088514133409
 20
-58.46516518720663
 30
0.0
 10
162.5919704454631
 20
-58.51598034561406
 30
0.0
 10
162.5792235921677
 20
-58.58367647189922
 30
0.0
 10
162.5792235921677
 20
-58.65137259818438
 30
0.0
 10
162.5792235921677
 20
-58.65137259818438
 30
0.0
 10
162.5792235921677
 20
-59.91641166036812
 30
0.0
 10
162.5792235921677
 20
-59.91641166036812
 30
0.0
 10
162.5792235921677
 20
-59.91641166036812
 30
0.0
 10
162.2154215089253
 20
-59.91641166036812
 30
0.0
 10
162.2154215089253
 20
-59.91641166036812
 30
0.0
 10
162.2154215089253
 20
-59.91641166036812
 30
0.0
 10
162.2154215089253
 20
-58.68944090329639
 30
0.0
 10
162.2154215089253
 20
-58.68944090329639
 30
0.0
 10
162.2154215089253
 20
-58.36370712516602
 30
0.0
 10
162.0714165176419
 20
-58.12668455578083
 30
0.0
 10
161.7878851592058
 20
-58.12668455578083
 30
0.0
 10
161.5553412139514
 20
-58.12668455578083
 30
0.0
 10
161.3861870256257
 20
-58.31289196675858
 30
0.0
 10
161.3269313832794
 20
-58.49909937773634
 30
0.0
 10
161.3055717912708
 20
-58.55404865072607
 30
0.0
 10
161.2973035621062
 20
-58.61743840765467
 30
0.0
 10
161.2973035621062
 20
-58.68100041935753
 30
0.0
 10
161.2973035621062
 20
-58.68100041935753
 30
0.0
 10
161.2973035621062
 20
-59.91641166036812
 30
0.0
 10
161.2973035621062
 20
-59.91641166036812
 30
0.0
 10
161.2973035621062
 20
-59.91641166036812
 30
0.0
 10
160.9335014788639
 20
-59.91641166036812
 30
0.0
 10
160.9335014788639
 20
-59.91641166036812
 30
0.0
 10
160.9335014788639
 20
-59.91641166036812
 30
0.0
 10
160.9335014788639
 20
-58.42279051273805
 30
0.0
 10
160.9335014788639
 20
-58.42279051273805
 30
0.0
  0
HATCH
  5
86
330
6E
100
AcDbEntity
  8
Layer 1
 62
   178
420
    65793
100
AcDbHatch
 10
0.0
 20
0.0
 30
0.0
210
0.0
220
0.0
230
1.0
  2
SOLID
 70
     1
 71
     0
 91
        1
 92
        1
 93
        1
 72
     4
 94
        3
 73
     0
 74
     1
 95
       80
 96
       76
 40
0.0
 40
0.0
 40
0.0
 40
0.0
 40
1.0
 40
1.0
 40
1.0
 40
2.0
 40
2.0
 40
2.0
 40
3.0
 40
3.0
 40
3.0
 40
4.0
 40
4.0
 40
4.0
 40
5.0
 40
5.0
 40
5.0
 40
6.0
 40
6.0
 40
6.0
 40
7.0
 40
7.0
 40
7.0
 40
8.0
 40
8.0
 40
8.0
 40
9.0
 40
9.0
 40
9.0
 40
10.0
 40
10.0
 40
10.0
 40
11.0
 40
11.0
 40
11.0
 40
12.0
 40
12.0
 40
12.0
 40
13.0
 40
13.0
 40
13.0
 40
14.0
 40
14.0
 40
14.0
 40
15.0
 40
15.0
 40
15.0
 40
16.0
 40
16.0
 40
16.0
 40
17.0
 40
17.0
 40
17.0
 40
18.0
 40
18.0
 40
18.0
 40
19.0
 40
19.0
 40
19.0
 40
20.0
 40
20.0
 40
20.0
 40
21.0
 40
21.0
 40
21.0
 40
22.0
 40
22.0
 40
22.0
 40
23.0
 40
23.0
 40
23.0
 40
24.0
 40
24.0
 40
24.0
 40
25.0
 40
25.0
 40
25.0
 40
25.0
 10
160.9335014788639
 20
-58.42279051273805
 10
160.9335014788639
 20
-58.21126164994372
 10
160.929022854733
 20
-58.03780109226138
 10
160.9162760014376
 20
-57.86864690393562
 10
160.9162760014376
 20
-57.86864690393562
 10
161.2421820343422
 20
-57.86864690393562
 10
161.2421820343422
 20
-57.86864690393562
 10
161.2421820343422
 20
-57.86864690393562
 10
161.25906300222
 20
-58.19868705142255
 10
161.25906300222
 20
-58.19868705142255
 10
161.25906300222
 20
-58.19868705142255
 10
161.2718098555154
 20
-58.19868705142255
 10
161.2718098555154
 20
-58.19868705142255
 10
161.3861870256257
 20
-58.00403915650594
 10
161.5763562964115
 20
-57.82213811488474
 10
161.9150091826115
 20
-57.82213811488474
 10
162.1940619169168
 20
-57.82213811488474
 10
162.4055907797111
 20
-57.99129230321051
 10
162.4944742432305
 20
-58.232448987178
 10
162.4944742432305
 20
-58.232448987178
 10
162.5030869819437
 20
-58.232448987178
 10
162.5030869819437
 20
-58.232448987178
 10
162.5664767388723
 20
-58.11824407184197
 10
162.6467474636786
 20
-58.02936060832253
 10
162.7314968126157
 20
-57.96597085139393
 10
162.8541422118906
 20
-57.87278101851792
 10
162.9895344644609
 20
-57.82213811488474
 10
163.1841823593776
 20
-57.82213811488474
 10
163.4549668645182
 20
-57.82213811488474
 10
163.8570095076469
 20
-57.99973278714938
 10
163.8570095076469
 20
-58.71062824053068
 10
163.8570095076469
 20
-58.71062824053068
 10
163.8570095076469
 20
-59.91641166036812
 10
163.8570095076469
 20
-59.91641166036812
 10
163.8570095076469
 20
-59.91641166036812
 10
163.4932074244045
 20
-59.91641166036812
 10
163.4932074244045
 20
-59.91641166036812
 10
163.4932074244045
 20
-59.91641166036812
 10
163.4932074244045
 20
-58.75713702958155
 10
163.4932074244045
 20
-58.75713702958155
 10
163.4932074244045
 20
-58.36370712516602
 10
163.349202433121
 20
-58.12668455578083
 10
163.0487901068072
 20
-58.12668455578083
 10
162.8372612440129
 20
-58.12668455578083
 10
162.6722411702694
 20
-58.28326414558543
 10
162.6088514133409
 20
-58.46516518720663
 10
162.5919704454631
 20
-58.51598034561406
 10
162.5792235921677
 20
-58.58367647189922
 10
162.5792235921677
 20
-58.65137259818438
 10
162.5792235921677
 20
-58.65137259818438
 10
162.5792235921677
 20
-59.91641166036812
 10
162.5792235921677
 20
-59.91641166036812
 10
162.5792235921677
 20
-59.91641166036812
 10
162.2154215089253
 20
-59.91641166036812
 10
162.2154215089253
 20
-59.91641166036812
 10
162.2154215089253
 20
-59.91641166036812
 10
162.2154215089253
 20
-58.68944090329639
 10
162.2154215089253
 20
-58.68944090329639
 10
162.2154215089253
 20
-58.36370712516602
 10
162.0714165176419
 20
-58.12668455578083
 10
161.7878851592058
 20
-58.12668455578083
 10
161.5553412139514
 20
-58.12668455578083
 10
161.3861870256257
 20
-58.31289196675858
 10
161.3269313832794
 20
-58.49909937773634
 10
161.3055717912708
 20
-58.55404865072607
 10
161.2973035621062
 20
-58.61743840765467
 10
161.2973035621062
 20
-58.68100041935753
 10
161.2973035621062
 20
-58.68100041935753
 10
161.2973035621062
 20
-59.91641166036812
 10
161.2973035621062
 20
-59.91641166036812
 10
161.2973035621062
 20
-59.91641166036812
 10
160.9335014788639
 20
-59.91641166036812
 10
160.9335014788639
 20
-59.91641166036812
 10
160.9335014788639
 20
-59.91641166036812
 10
160.9335014788639
 20
-58.42279051273805
 10
160.9335014788639
 20
-58.42279051273805
 97
        0
 75
     2
 76
     1
 98
        0
  0
SPLINE
  5
87
330
6E
100
AcDbEntity
  8
Layer 1
370
     0
100
AcDbSpline
210
0.0
220
0.0
230
1.0
 70
    11
 71
     3
 72
    80
 73
    76
 74
     0
 42
0.0000000001
 43
0.0000000001
 40
0.0
 40
0.0
 40
0.0
 40
0.0
 40
1.0
 40
1.0
 40
1.0
 40
2.0
 40
2.0
 40
2.0
 40
3.0
 40
3.0
 40
3.0
 40
4.0
 40
4.0
 40
4.0
 40
5.0
 40
5.0
 40
5.0
 40
6.0
 40
6.0
 40
6.0
 40
7.0
 40
7.0
 40
7.0
 40
8.0
 40
8.0
 40
8.0
 40
9.0
 40
9.0
 40
9.0
 40
10.0
 40
10.0
 40
10.0
 40
11.0
 40
11.0
 40
11.0
 40
12.0
 40
12.0
 40
12.0
 40
13.0
 40
13.0
 40
13.0
 40
14.0
 40
14.0
 40
14.0
 40
15.0
 40
15.0
 40
15.0
 40
16.0
 40
16.0
 40
16.0
 40
17.0
 40
17.0
 40
17.0
 40
18.0
 40
18.0
 40
18.0
 40
19.0
 40
19.0
 40
19.0
 40
20.0
 40
20.0
 40
20.0
 40
21.0
 40
21.0
 40
21.0
 40
22.0
 40
22.0
 40
22.0
 40
23.0
 40
23.0
 40
23.0
 40
24.0
 40
24.0
 40
24.0
 40
25.0
 40
25.0
 40
25.0
 40
25.0
 10
164.4643798416964
 20
-58.42279051273805
 30
0.0
 10
164.4643798416964
 20
-58.21126164994372
 30
0.0
 10
164.4599012175656
 20
-58.03780109226138
 30
0.0
 10
164.4471543642702
 20
-57.86864690393562
 30
0.0
 10
164.4471543642702
 20
-57.86864690393562
 30
0.0
 10
164.7730603971748
 20
-57.86864690393562
 30
0.0
 10
164.7730603971748
 20
-57.86864690393562
 30
0.0
 10
164.7730603971748
 20
-57.86864690393562
 30
0.0
 10
164.7899413650525
 20
-58.19868705142255
 30
0.0
 10
164.7899413650525
 20
-58.19868705142255
 30
0.0
 10
164.7899413650525
 20
-58.19868705142255
 30
0.0
 10
164.802688218348
 20
-58.19868705142255
 30
0.0
 10
164.802688218348
 20
-58.19868705142255
 30
0.0
 10
164.9170653884582
 20
-58.00403915650594
 30
0.0
 10
165.107234659244
 20
-57.82213811488474
 30
0.0
 10
165.4458875454441
 20
-57.82213811488474
 30
0.0
 10
165.7249402797493
 20
-57.82213811488474
 30
0.0
 10
165.9364691425437
 20
-57.99129230321051
 30
0.0
 10
166.0253526060631
 20
-58.232448987178
 30
0.0
 10
166.0253526060631
 20
-58.232448987178
 30
0.0
 10
166.0339653447762
 20
-58.232448987178
 30
0.0
 10
166.0339653447762
 20
-58.232448987178
 30
0.0
 10
166.0973551017048
 20
-58.11824407184197
 30
0.0
 10
166.1776258265112
 20
-58.02936060832253
 30
0.0
 10
166.2623751754483
 20
-57.96597085139393
 30
0.0
 10
166.3850205747232
 20
-57.87278101851792
 30
0.0
 10
166.5204128272935
 20
-57.82213811488474
 30
0.0
 10
166.7150607222101
 20
-57.82213811488474
 30
0.0
 10
166.9858452273508
 20
-57.82213811488474
 30
0.0
 10
167.3878878704794
 20
-57.99973278714938
 30
0.0
 10
167.3878878704794
 20
-58.71062824053068
 30
0.0
 10
167.3878878704794
 20
-58.71062824053068
 30
0.0
 10
167.3878878704794
 20
-59.91641166036812
 30
0.0
 10
167.3878878704794
 20
-59.91641166036812
 30
0.0
 10
167.3878878704794
 20
-59.91641166036812
 30
0.0
 10
167.0240857872371
 20
-59.91641166036812
 30
0.0
 10
167.0240857872371
 20
-59.91641166036812
 30
0.0
 10
167.0240857872371
 20
-59.91641166036812
 30
0.0
 10
167.0240857872371
 20
-58.75713702958155
 30
0.0
 10
167.0240857872371
 20
-58.75713702958155
 30
0.0
 10
167.0240857872371
 20
-58.36370712516602
 30
0.0
 10
166.8800807959536
 20
-58.12668455578083
 30
0.0
 10
166.5796684696398
 20
-58.12668455578083
 30
0.0
 10
166.3681396068455
 20
-58.12668455578083
 30
0.0
 10
166.203119533102
 20
-58.28326414558543
 30
0.0
 10
166.1397297761734
 20
-58.46516518720663
 30
0.0
 10
166.1228488082957
 20
-58.51598034561406
 30
0.0
 10
166.1101019550003
 20
-58.58367647189922
 30
0.0
 10
166.1101019550003
 20
-58.65137259818438
 30
0.0
 10
166.1101019550003
 20
-58.65137259818438
 30
0.0
 10
166.1101019550003
 20
-59.91641166036812
 30
0.0
 10
166.1101019550003
 20
-59.91641166036812
 30
0.0
 10
166.1101019550003
 20
-59.91641166036812
 30
0.0
 10
165.7462998717579
 20
-59.91641166036812
 30
0.0
 10
165.7462998717579
 20
-59.91641166036812
 30
0.0
 10
165.7462998717579
 20
-59.91641166036812
 30
0.0
 10
165.7462998717579
 20
-58.68944090329639
 30
0.0
 10
165.7462998717579
 20
-58.68944090329639
 30
0.0
 10
165.7462998717579
 20
-58.36370712516602
 30
0.0
 10
165.6022948804744
 20
-58.12668455578083
 30
0.0
 10
165.3187635220384
 20
-58.12668455578083
 30
0.0
 10
165.086219576784
 20
-58.12668455578083
 30
0.0
 10
164.9170653884582
 20
-58.31289196675858
 30
0.0
 10
164.8578097461119
 20
-58.49909937773634
 30
0.0
 10
164.8364501541034
 20
-58.55404865072607
 30
0.0
 10
164.8281819249388
 20
-58.61743840765467
 30
0.0
 10
164.8281819249388
 20
-58.68100041935753
 30
0.0
 10
164.8281819249388
 20
-58.68100041935753
 30
0.0
 10
164.8281819249388
 20
-59.91641166036812
 30
0.0
 10
164.8281819249388
 20
-59.91641166036812
 30
0.0
 10
164.8281819249388
 20
-59.91641166036812
 30
0.0
 10
164.4643798416964
 20
-59.91641166036812
 30
0.0
 10
164.4643798416964
 20
-59.91641166036812
 30
0.0
 10
164.4643798416964
 20
-59.91641166036812
 30
0.0
 10
164.4643798416964
 20
-58.42279051273805
 30
0.0
 10
164.4643798416964
 20
-58.42279051273805
 30
0.0
  0
HATCH
  5
88
330
6E
100
AcDbEntity
  8
Layer 1
 62
   178
420
    65793
100
AcDbHatch
 10
0.0
 20
0.0
 30
0.0
210
0.0
220
0.0
230
1.0
  2
SOLID
 70
     1
 71
     0
 91
        1
 92
        1
 93
        1
 72
     4
 94
        3
 73
     0
 74
     1
 95
       80
 96
       76
 40
0.0
 40
0.0
 40
0.0
 40
0.0
 40
1.0
 40
1.0
 40
1.0
 40
2.0
 40
2.0
 40
2.0
 40
3.0
 40
3.0
 40
3.0
 40
4.0
 40
4.0
 40
4.0
 40
5.0
 40
5.0
 40
5.0
 40
6.0
 40
6.0
 40
6.0
 40
7.0
 40
7.0
 40
7.0
 40
8.0
 40
8.0
 40
8.0
 40
9.0
 40
9.0
 40
9.0
 40
10.0
 40
10.0
 40
10.0
 40
11.0
 40
11.0
 40
11.0
 40
12.0
 40
12.0
 40
12.0
 40
13.0
 40
13.0
 40
13.0
 40
14.0
 40
14.0
 40
14.0
 40
15.0
 40
15.0
 40
15.0
 40
16.0
 40
16.0
 40
16.0
 40
17.0
 40
17.0
 40
17.0
 40
18.0
 40
18.0
 40
18.0
 40
19.0
 40
19.0
 40
19.0
 40
20.0
 40
20.0
 40
20.0
 40
21.0
 40
21.0
 40
21.0
 40
22.0
 40
22.0
 40
22.0
 40
23.0
 40
23.0
 40
23.0
 40
24.0
 40
24.0
 40
24.0
 40
25.0
 40
25.0
 40
25.0
 40
25.0
 10
164.4643798416964
 20
-58.42279051273805
 10
164.4643798416964
 20
-58.21126164994372
 10
164.4599012175656
 20
-58.03780109226138
 10
164.4471543642702
 20
-57.86864690393562
 10
164.4471543642702
 20
-57.86864690393562
 10
164.7730603971748
 20
-57.86864690393562
 10
164.7730603971748
 20
-57.86864690393562
 10
164.7730603971748
 20
-57.86864690393562
 10
164.7899413650525
 20
-58.19868705142255
 10
164.7899413650525
 20
-58.19868705142255
 10
164.7899413650525
 20
-58.19868705142255
 10
164.802688218348
 20
-58.19868705142255
 10
164.802688218348
 20
-58.19868705142255
 10
164.9170653884582
 20
-58.00403915650594
 10
165.107234659244
 20
-57.82213811488474
 10
165.4458875454441
 20
-57.82213811488474
 10
165.7249402797493
 20
-57.82213811488474
 10
165.9364691425437
 20
-57.99129230321051
 10
166.0253526060631
 20
-58.232448987178
 10
166.0253526060631
 20
-58.232448987178
 10
166.0339653447762
 20
-58.232448987178
 10
166.0339653447762
 20
-58.232448987178
 10
166.0973551017048
 20
-58.11824407184197
 10
166.1776258265112
 20
-58.02936060832253
 10
166.2623751754483
 20
-57.96597085139393
 10
166.3850205747232
 20
-57.87278101851792
 10
166.5204128272935
 20
-57.82213811488474
 10
166.7150607222101
 20
-57.82213811488474
 10
166.9858452273508
 20
-57.82213811488474
 10
167.3878878704794
 20
-57.99973278714938
 10
167.3878878704794
 20
-58.71062824053068
 10
167.3878878704794
 20
-58.71062824053068
 10
167.3878878704794
 20
-59.91641166036812
 10
167.3878878704794
 20
-59.91641166036812
 10
167.3878878704794
 20
-59.91641166036812
 10
167.0240857872371
 20
-59.91641166036812
 10
167.0240857872371
 20
-59.91641166036812
 10
167.0240857872371
 20
-59.91641166036812
 10
167.0240857872371
 20
-58.75713702958155
 10
167.0240857872371
 20
-58.75713702958155
 10
167.0240857872371
 20
-58.36370712516602
 10
166.8800807959536
 20
-58.12668455578083
 10
166.5796684696398
 20
-58.12668455578083
 10
166.3681396068455
 20
-58.12668455578083
 10
166.203119533102
 20
-58.28326414558543
 10
166.1397297761734
 20
-58.46516518720663
 10
166.1228488082957
 20
-58.51598034561406
 10
166.1101019550003
 20
-58.58367647189922
 10
166.1101019550003
 20
-58.65137259818438
 10
166.1101019550003
 20
-58.65137259818438
 10
166.1101019550003
 20
-59.91641166036812
 10
166.1101019550003
 20
-59.91641166036812
 10
166.1101019550003
 20
-59.91641166036812
 10
165.7462998717579
 20
-59.91641166036812
 10
165.7462998717579
 20
-59.91641166036812
 10
165.7462998717579
 20
-59.91641166036812
 10
165.7462998717579
 20
-58.68944090329639
 10
165.7462998717579
 20
-58.68944090329639
 10
165.7462998717579
 20
-58.36370712516602
 10
165.6022948804744
 20
-58.12668455578083
 10
165.3187635220384
 20
-58.12668455578083
 10
165.086219576784
 20
-58.12668455578083
 10
164.9170653884582
 20
-58.31289196675858
 10
164.8578097461119
 20
-58.49909937773634
 10
164.8364501541034
 20
-58.55404865072607
 10
164.8281819249388
 20
-58.61743840765467
 10
164.8281819249388
 20
-58.68100041935753
 10
164.8281819249388
 20
-58.68100041935753
 10
164.8281819249388
 20
-59.91641166036812
 10
164.8281819249388
 20
-59.91641166036812
 10
164.8281819249388
 20
-59.91641166036812
 10
164.4643798416964
 20
-59.91641166036812
 10
164.4643798416964
 20
-59.91641166036812
 10
164.4643798416964
 20
-59.91641166036812
 10
164.4643798416964
 20
-58.42279051273805
 10
164.4643798416964
 20
-58.42279051273805
 97
        0
 75
     2
 76
     1
 98
        0
  0
SPLINE
  5
89
330
6E
100
AcDbEntity
  8
Layer 1
370
     0
100
AcDbSpline
210
0.0
220
0.0
230
1.0
 70
    11
 71
     3
 72
    41
 73
    37
 74
     0
 42
0.0000000001
 43
0.0000000001
 40
0.0
 40
0.0
 40
0.0
 40
0.0
 40
1.0
 40
1.0
 40
1.0
 40
2.0
 40
2.0
 40
2.0
 40
3.0
 40
3.0
 40
3.0
 40
4.0
 40
4.0
 40
4.0
 40
5.0
 40
5.0
 40
5.0
 40
6.0
 40
6.0
 40
6.0
 40
7.0
 40
7.0
 40
7.0
 40
8.0
 40
8.0
 40
8.0
 40
9.0
 40
9.0
 40
9.0
 40
10.0
 40
10.0
 40
10.0
 40
11.0
 40
11.0
 40
11.0
 40
12.0
 40
12.0
 40
12.0
 40
12.0
 10
168.8751355914618
 20
-59.91641166036812
 30
0.0
 10
168.8837483301749
 20
-59.77671303844124
 30
0.0
 10
168.892361068888
 20
-59.56949054500346
 30
0.0
 10
168.892361068888
 20
-59.38758950338227
 30
0.0
 10
168.892361068888
 20
-59.38758950338227
 30
0.0
 10
168.892361068888
 20
-56.91246065200453
 30
0.0
 10
168.892361068888
 20
-56.91246065200453
 30
0.0
 10
168.892361068888
 20
-56.91246065200453
 30
0.0
 10
169.2602972667127
 20
-56.91246065200453
 30
0.0
 10
169.2602972667127
 20
-56.91246065200453
 30
0.0
 10
169.2602972667127
 20
-56.91246065200453
 30
0.0
 10
169.2602972667127
 20
-58.19868705142255
 30
0.0
 10
169.2602972667127
 20
-58.19868705142255
 30
0.0
 10
169.2602972667127
 20
-58.19868705142255
 30
0.0
 10
169.2689100054258
 20
-58.19868705142255
 30
0.0
 10
169.2689100054258
 20
-58.19868705142255
 30
0.0
 10
169.3998236338653
 20
-57.97010496597623
 30
0.0
 10
169.6368462032505
 20
-57.82213811488474
 30
0.0
 10
169.9668863507374
 20
-57.82213811488474
 30
0.0
 10
170.4746934252633
 20
-57.82213811488474
 30
0.0
 10
170.8343613939234
 20
-58.24519584047343
 30
0.0
 10
170.8298827697925
 20
-58.86720783033528
 30
0.0
 10
170.8298827697925
 20
-59.59911836617661
 30
0.0
 10
170.3689289938661
 20
-59.96292044941899
 30
0.0
 10
169.9117648229735
 20
-59.96292044941899
 30
0.0
 10
169.6158311207905
 20
-59.96292044941899
 30
0.0
 10
169.3788085514053
 20
-59.84871553408296
 30
0.0
 10
169.2265353309573
 20
-59.57793102894232
 30
0.0
 10
169.2265353309573
 20
-59.57793102894232
 30
0.0
 10
169.2137884776618
 20
-59.57793102894232
 30
0.0
 10
169.2137884776618
 20
-59.57793102894232
 30
0.0
 10
169.2137884776618
 20
-59.57793102894232
 30
0.0
 10
169.1969075097841
 20
-59.91641166036812
 30
0.0
 10
169.1969075097841
 20
-59.91641166036812
 30
0.0
 10
169.1969075097841
 20
-59.91641166036812
 30
0.0
 10
168.8751355914618
 20
-59.91641166036812
 30
0.0
 10
168.8751355914618
 20
-59.91641166036812
 30
0.0
  0
SPLINE
  5
8A
330
6E
100
AcDbEntity
  8
Layer 1
370
     0
100
AcDbSpline
210
0.0
220
0.0
230
1.0
 70
    11
 71
     3
 72
    26
 73
    22
 74
     0
 42
0.0000000001
 43
0.0000000001
 40
0.0
 40
0.0
 40
0.0
 40
0.0
 40
1.0
 40
1.0
 40
1.0
 40
2.0
 40
2.0
 40
2.0
 40
3.0
 40
3.0
 40
3.0
 40
4.0
 40
4.0
 40
4.0
 40
5.0
 40
5.0
 40
5.0
 40
6.0
 40
6.0
 40
6.0
 40
7.0
 40
7.0
 40
7.0
 40
7.0
 10
169.2602972667127
 20
-59.09561766100735
 30
0.0
 10
169.2602972667127
 20
-59.14212645005822
 30
0.0
 10
169.2689100054258
 20
-59.1886352391091
 30
0.0
 10
169.2771782345904
 20
-59.23100991357767
 30
0.0
 10
169.3491807302321
 20
-59.48904756542288
 30
0.0
 10
169.5648437076088
 20
-59.66681449246177
 30
0.0
 10
169.8356282127494
 20
-59.66681449246177
 30
0.0
 10
170.2249240025827
 20
-59.66681449246177
 30
0.0
 10
170.4578124573856
 20
-59.34952119827026
 30
0.0
 10
170.4578124573856
 20
-58.87978242885644
 30
0.0
 10
170.4578124573856
 20
-58.46947155656319
 30
0.0
 10
170.2462835945912
 20
-58.11824407184197
 30
0.0
 10
169.8483750660449
 20
-58.11824407184197
 30
0.0
 10
169.594471528782
 20
-58.11824407184197
 30
0.0
 10
169.3574489593967
 20
-58.2917046295243
 30
0.0
 10
169.2813123491727
 20
-58.57523598796036
 30
0.0
 10
169.2730441200081
 20
-58.61743840765467
 30
0.0
 10
169.2602972667127
 20
-58.66825356606211
 30
0.0
 10
169.2602972667127
 20
-58.72750920840841
 30
0.0
 10
169.2602972667127
 20
-58.72750920840841
 30
0.0
 10
169.2602972667127
 20
-59.09561766100735
 30
0.0
 10
169.2602972667127
 20
-59.09561766100735
 30
0.0
  0
HATCH
  5
8B
330
6E
100
AcDbEntity
  8
Layer 1
 62
   178
420
    65793
100
AcDbHatch
 10
0.0
 20
0.0
 30
0.0
210
0.0
220
0.0
230
1.0
  2
SOLID
 70
     1
 71
     0
 91
        2
 92
        1
 93
        1
 72
     4
 94
        3
 73
     0
 74
     1
 95
       41
 96
       37
 40
0.0
 40
0.0
 40
0.0
 40
0.0
 40
1.0
 40
1.0
 40
1.0
 40
2.0
 40
2.0
 40
2.0
 40
3.0
 40
3.0
 40
3.0
 40
4.0
 40
4.0
 40
4.0
 40
5.0
 40
5.0
 40
5.0
 40
6.0
 40
6.0
 40
6.0
 40
7.0
 40
7.0
 40
7.0
 40
8.0
 40
8.0
 40
8.0
 40
9.0
 40
9.0
 40
9.0
 40
10.0
 40
10.0
 40
10.0
 40
11.0
 40
11.0
 40
11.0
 40
12.0
 40
12.0
 40
12.0
 40
12.0
 10
168.8751355914618
 20
-59.91641166036812
 10
168.8837483301749
 20
-59.77671303844124
 10
168.892361068888
 20
-59.56949054500346
 10
168.892361068888
 20
-59.38758950338227
 10
168.892361068888
 20
-59.38758950338227
 10
168.892361068888
 20
-56.91246065200453
 10
168.892361068888
 20
-56.91246065200453
 10
168.892361068888
 20
-56.91246065200453
 10
169.2602972667127
 20
-56.91246065200453
 10
169.2602972667127
 20
-56.91246065200453
 10
169.2602972667127
 20
-56.91246065200453
 10
169.2602972667127
 20
-58.19868705142255
 10
169.2602972667127
 20
-58.19868705142255
 10
169.2602972667127
 20
-58.19868705142255
 10
169.2689100054258
 20
-58.19868705142255
 10
169.2689100054258
 20
-58.19868705142255
 10
169.3998236338653
 20
-57.97010496597623
 10
169.6368462032505
 20
-57.82213811488474
 10
169.9668863507374
 20
-57.82213811488474
 10
170.4746934252633
 20
-57.82213811488474
 10
170.8343613939234
 20
-58.24519584047343
 10
170.8298827697925
 20
-58.86720783033528
 10
170.8298827697925
 20
-59.59911836617661
 10
170.3689289938661
 20
-59.96292044941899
 10
169.9117648229735
 20
-59.96292044941899
 10
169.6158311207905
 20
-59.96292044941899
 10
169.3788085514053
 20
-59.84871553408296
 10
169.2265353309573
 20
-59.57793102894232
 10
169.2265353309573
 20
-59.57793102894232
 10
169.2137884776618
 20
-59.57793102894232
 10
169.2137884776618
 20
-59.57793102894232
 10
169.2137884776618
 20
-59.57793102894232
 10
169.1969075097841
 20
-59.91641166036812
 10
169.1969075097841
 20
-59.91641166036812
 10
169.1969075097841
 20
-59.91641166036812
 10
168.8751355914618
 20
-59.91641166036812
 10
168.8751355914618
 20
-59.91641166036812
 97
        0
 92
        1
 93
        1
 72
     4
 94
        3
 73
     0
 74
     1
 95
       26
 96
       22
 40
0.0
 40
0.0
 40
0.0
 40
0.0
 40
1.0
 40
1.0
 40
1.0
 40
2.0
 40
2.0
 40
2.0
 40
3.0
 40
3.0
 40
3.0
 40
4.0
 40
4.0
 40
4.0
 40
5.0
 40
5.0
 40
5.0
 40
6.0
 40
6.0
 40
6.0
 40
7.0
 40
7.0
 40
7.0
 40
7.0
 10
169.2602972667127
 20
-59.09561766100735
 10
169.2602972667127
 20
-59.14212645005822
 10
169.2689100054258
 20
-59.1886352391091
 10
169.2771782345904
 20
-59.23100991357767
 10
169.3491807302321
 20
-59.48904756542288
 10
169.5648437076088
 20
-59.66681449246177
 10
169.8356282127494
 20
-59.66681449246177
 10
170.2249240025827
 20
-59.66681449246177
 10
170.4578124573856
 20
-59.34952119827026
 10
170.4578124573856
 20
-58.87978242885644
 10
170.4578124573856
 20
-58.46947155656319
 10
170.2462835945912
 20
-58.11824407184197
 10
169.8483750660449
 20
-58.11824407184197
 10
169.594471528782
 20
-58.11824407184197
 10
169.3574489593967
 20
-58.2917046295243
 10
169.2813123491727
 20
-58.57523598796036
 10
169.2730441200081
 20
-58.61743840765467
 10
169.2602972667127
 20
-58.66825356606211
 10
169.2602972667127
 20
-58.72750920840841
 10
169.2602972667127
 20
-58.72750920840841
 10
169.2602972667127
 20
-59.09561766100735
 10
169.2602972667127
 20
-59.09561766100735
 97
        0
 75
     2
 76
     1
 98
        0
  0
SPLINE
  5
8C
330
6E
100
AcDbEntity
  8
Layer 1
370
     0
100
AcDbSpline
210
0.0
220
0.0
230
1.0
 70
    11
 71
     3
 72
    17
 73
    13
 74
     0
 42
0.0000000001
 43
0.0000000001
 40
0.0
 40
0.0
 40
0.0
 40
0.0
 40
1.0
 40
1.0
 40
1.0
 40
2.0
 40
2.0
 40
2.0
 40
3.0
 40
3.0
 40
3.0
 40
4.0
 40
4.0
 40
4.0
 40
4.0
 10
171.7156168190503
 20
-57.29314370312463
 30
0.0
 10
171.7197509336326
 20
-57.42009547175609
 30
0.0
 10
171.6267333555308
 20
-57.52172578857096
 30
0.0
 10
171.4785942496651
 20
-57.52172578857096
 30
0.0
 10
171.3476806212256
 20
-57.52172578857096
 30
0.0
 10
171.2543185335753
 20
-57.42009547175609
 30
0.0
 10
171.2543185335753
 20
-57.29314370312463
 30
0.0
 10
171.2543185335753
 20
-57.16205781991088
 30
0.0
 10
171.3518147358079
 20
-57.06042750309601
 30
0.0
 10
171.4872069883782
 20
-57.06042750309601
 30
0.0
 10
171.6267333555308
 20
-57.06042750309601
 30
0.0
 10
171.7156168190503
 20
-57.16205781991088
 30
0.0
 10
171.7156168190503
 20
-57.29314370312463
 30
0.0
  0
POLYLINE
  5
8D
330
6E
100
AcDbEntity
  8
Layer 1
370
     0
100
AcDb2dPolyline
 66
     1
 10
0.0
 20
0.0
 30
0.0
  0
VERTEX
  5
8E
330
8D
100
AcDbEntity
  8
Layer 1
370
     0
100
AcDbVertex
100
AcDb2dVertex
 10
171.3011718321747
 20
-59.91641166036812
 30
0.0
  0
VERTEX
  5
8F
330
8D
100
AcDbEntity
  8
Layer 1
370
     0
100
AcDbVertex
100
AcDb2dVertex
 10
171.3011718321747
 20
-57.86864690393562
 30
0.0
  0
VERTEX
  5
90
330
8D
100
AcDbEntity
  8
Layer 1
370
     0
100
AcDbVertex
100
AcDb2dVertex
 10
171.6732421445817
 20
-57.86864690393562
 30
0.0
  0
VERTEX
  5
91
330
8D
100
AcDbEntity
  8
Layer 1
370
     0
100
AcDbVertex
100
AcDb2dVertex
 10
171.6732421445817
 20
-59.91641166036812
 30
0.0
  0
VERTEX
  5
92
330
8D
100
AcDbEntity
  8
Layer 1
370
     0
100
AcDbVertex
100
AcDb2dVertex
 10
171.3011718321747
 20
-59.91641166036812
 30
0.0
  0
SEQEND
  5
93
330
8D
100
AcDbEntity
  8
Layer 1
370
     0
  0
HATCH
  5
94
330
6E
100
AcDbEntity
  8
Layer 1
 62
   178
420
    65793
100
AcDbHatch
 10
0.0
 20
0.0
 30
0.0
210
0.0
220
0.0
230
1.0
  2
SOLID
 70
     1
 71
     0
 91
        2
 92
        1
 93
        1
 72
     4
 94
        3
 73
     0
 74
     1
 95
       17
 96
       13
 40
0.0
 40
0.0
 40
0.0
 40
0.0
 40
1.0
 40
1.0
 40
1.0
 40
2.0
 40
2.0
 40
2.0
 40
3.0
 40
3.0
 40
3.0
 40
4.0
 40
4.0
 40
4.0
 40
4.0
 10
171.7156168190503
 20
-57.29314370312463
 10
171.7197509336326
 20
-57.42009547175609
 10
171.6267333555308
 20
-57.52172578857096
 10
171.4785942496651
 20
-57.52172578857096
 10
171.3476806212256
 20
-57.52172578857096
 10
171.2543185335753
 20
-57.42009547175609
 10
171.2543185335753
 20
-57.29314370312463
 10
171.2543185335753
 20
-57.16205781991088
 10
171.3518147358079
 20
-57.06042750309601
 10
171.4872069883782
 20
-57.06042750309601
 10
171.6267333555308
 20
-57.06042750309601
 10
171.7156168190503
 20
-57.16205781991088
 10
171.7156168190503
 20
-57.29314370312463
 97
        0
 92
        1
 93
        4
 72
     1
 10
171.3011718321747
 20
-59.91641166036812
 11
171.3011718321747
 21
-57.86864690393562
 72
     1
 10
171.3011718321747
 20
-57.86864690393562
 11
171.6732421445817
 21
-57.86864690393562
 72
     1
 10
171.6732421445817
 20
-57.86864690393562
 11
171.6732421445817
 21
-59.91641166036812
 72
     1
 10
171.6732421445817
 20
-59.91641166036812
 11
171.3011718321747
 21
-59.91641166036812
 97
        0
 75
     2
 76
     1
 98
        0
  0
SPLINE
  5
95
330
6E
100
AcDbEntity
  8
Layer 1
370
     0
100
AcDbSpline
210
0.0
220
0.0
230
1.0
 70
    11
 71
     3
 72
    56
 73
    52
 74
     0
 42
0.0000000001
 43
0.0000000001
 40
0.0
 40
0.0
 40
0.0
 40
0.0
 40
1.0
 40
1.0
 40
1.0
 40
2.0
 40
2.0
 40
2.0
 40
3.0
 40
3.0
 40
3.0
 40
4.0
 40
4.0
 40
4.0
 40
5.0
 40
5.0
 40
5.0
 40
6.0
 40
6.0
 40
6.0
 40
7.0
 40
7.0
 40
7.0
 40
8.0
 40
8.0
 40
8.0
 40
9.0
 40
9.0
 40
9.0
 40
10.0
 40
10.0
 40
10.0
 40
11.0
 40
11.0
 40
11.0
 40
12.0
 40
12.0
 40
12.0
 40
13.0
 40
13.0
 40
13.0
 40
14.0
 40
14.0
 40
14.0
 40
15.0
 40
15.0
 40
15.0
 40
16.0
 40
16.0
 40
16.0
 40
17.0
 40
17.0
 40
17.0
 40
17.0
 10
172.739843706815
 20
-57.28056910460347
 30
0.0
 10
172.739843706815
 20
-57.28056910460347
 30
0.0
 10
172.739843706815
 20
-57.86864690393562
 30
0.0
 10
172.739843706815
 20
-57.86864690393562
 30
0.0
 10
172.739843706815
 20
-57.86864690393562
 30
0.0
 10
173.2731444879317
 20
-57.86864690393562
 30
0.0
 10
173.2731444879317
 20
-57.86864690393562
 30
0.0
 10
173.2731444879317
 20
-57.86864690393562
 30
0.0
 10
173.2731444879317
 20
-58.15200600759741
 30
0.0
 10
173.2731444879317
 20
-58.15200600759741
 30
0.0
 10
173.2731444879317
 20
-58.15200600759741
 30
0.0
 10
172.739843706815
 20
-58.15200600759741
 30
0.0
 10
172.739843706815
 20
-58.15200600759741
 30
0.0
 10
172.739843706815
 20
-58.15200600759741
 30
0.0
 10
172.739843706815
 20
-59.25633136539425
 30
0.0
 10
172.739843706815
 20
-59.25633136539425
 30
0.0
 10
172.739843706815
 20
-59.51023490265717
 30
0.0
 10
172.8118462024568
 20
-59.65406763916635
 30
0.0
 10
173.0192409506688
 20
-59.65406763916635
 30
0.0
 10
173.1163926433529
 20
-59.65406763916635
 30
0.0
 10
173.1883951389946
 20
-59.64132078587092
 30
0.0
 10
173.2349039280454
 20
-59.62874618734976
 30
0.0
 10
173.2349039280454
 20
-59.62874618734976
 30
0.0
 10
173.2517848959232
 20
-59.90797117642926
 30
0.0
 10
173.2517848959232
 20
-59.90797117642926
 30
0.0
 10
173.18012690983
 20
-59.93759899760241
 30
0.0
 10
173.0657497397197
 20
-59.9587863348367
 30
0.0
 10
172.9217447484362
 20
-59.9587863348367
 30
0.0
 10
172.7484564455282
 20
-59.9587863348367
 30
0.0
 10
172.6089300783756
 20
-59.9036648070727
 30
0.0
 10
172.5200466148561
 20
-59.80220674503209
 30
0.0
 10
172.4142821834589
 20
-59.69213594427836
 30
0.0
 10
172.3760416235727
 20
-59.51023490265717
 30
0.0
 10
172.3760416235727
 20
-59.26907821868968
 30
0.0
 10
172.3760416235727
 20
-59.26907821868968
 30
0.0
 10
172.3760416235727
 20
-58.15200600759741
 30
0.0
 10
172.3760416235727
 20
-58.15200600759741
 30
0.0
 10
172.3760416235727
 20
-58.15200600759741
 30
0.0
 10
172.0587483293812
 20
-58.15200600759741
 30
0.0
 10
172.0587483293812
 20
-58.15200600759741
 30
0.0
 10
172.0587483293812
 20
-58.15200600759741
 30
0.0
 10
172.0587483293812
 20
-57.86864690393562
 30
0.0
 10
172.0587483293812
 20
-57.86864690393562
 30
0.0
 10
172.0587483293812
 20
-57.86864690393562
 30
0.0
 10
172.3760416235727
 20
-57.86864690393562
 30
0.0
 10
172.3760416235727
 20
-57.86864690393562
 30
0.0
 10
172.3760416235727
 20
-57.86864690393562
 30
0.0
 10
172.3760416235727
 20
-57.37789305206178
 30
0.0
 10
172.3760416235727
 20
-57.37789305206178
 30
0.0
 10
172.3760416235727
 20
-57.37789305206178
 30
0.0
 10
172.739843706815
 20
-57.28056910460347
 30
0.0
 10
172.739843706815
 20
-57.28056910460347
 30
0.0
  0
HATCH
  5
96
330
6E
100
AcDbEntity
  8
Layer 1
 62
   178
420
    65793
100
AcDbHatch
 10
0.0
 20
0.0
 30
0.0
210
0.0
220
0.0
230
1.0
  2
SOLID
 70
     1
 71
     0
 91
        1
 92
        1
 93
        1
 72
     4
 94
        3
 73
     0
 74
     1
 95
       56
 96
       52
 40
0.0
 40
0.0
 40
0.0
 40
0.0
 40
1.0
 40
1.0
 40
1.0
 40
2.0
 40
2.0
 40
2.0
 40
3.0
 40
3.0
 40
3.0
 40
4.0
 40
4.0
 40
4.0
 40
5.0
 40
5.0
 40
5.0
 40
6.0
 40
6.0
 40
6.0
 40
7.0
 40
7.0
 40
7.0
 40
8.0
 40
8.0
 40
8.0
 40
9.0
 40
9.0
 40
9.0
 40
10.0
 40
10.0
 40
10.0
 40
11.0
 40
11.0
 40
11.0
 40
12.0
 40
12.0
 40
12.0
 40
13.0
 40
13.0
 40
13.0
 40
14.0
 40
14.0
 40
14.0
 40
15.0
 40
15.0
 40
15.0
 40
16.0
 40
16.0
 40
16.0
 40
17.0
 40
17.0
 40
17.0
 40
17.0
 10
172.739843706815
 20
-57.28056910460347
 10
172.739843706815
 20
-57.28056910460347
 10
172.739843706815
 20
-57.86864690393562
 10
172.739843706815
 20
-57.86864690393562
 10
172.739843706815
 20
-57.86864690393562
 10
173.2731444879317
 20
-57.86864690393562
 10
173.2731444879317
 20
-57.86864690393562
 10
173.2731444879317
 20
-57.86864690393562
 10
173.2731444879317
 20
-58.15200600759741
 10
173.2731444879317
 20
-58.15200600759741
 10
173.2731444879317
 20
-58.15200600759741
 10
172.739843706815
 20
-58.15200600759741
 10
172.739843706815
 20
-58.15200600759741
 10
172.739843706815
 20
-58.15200600759741
 10
172.739843706815
 20
-59.25633136539425
 10
172.739843706815
 20
-59.25633136539425
 10
172.739843706815
 20
-59.51023490265717
 10
172.8118462024568
 20
-59.65406763916635
 10
173.0192409506688
 20
-59.65406763916635
 10
173.1163926433529
 20
-59.65406763916635
 10
173.1883951389946
 20
-59.64132078587092
 10
173.2349039280454
 20
-59.62874618734976
 10
173.2349039280454
 20
-59.62874618734976
 10
173.2517848959232
 20
-59.90797117642926
 10
173.2517848959232
 20
-59.90797117642926
 10
173.18012690983
 20
-59.93759899760241
 10
173.0657497397197
 20
-59.9587863348367
 10
172.9217447484362
 20
-59.9587863348367
 10
172.7484564455282
 20
-59.9587863348367
 10
172.6089300783756
 20
-59.9036648070727
 10
172.5200466148561
 20
-59.80220674503209
 10
172.4142821834589
 20
-59.69213594427836
 10
172.3760416235727
 20
-59.51023490265717
 10
172.3760416235727
 20
-59.26907821868968
 10
172.3760416235727
 20
-59.26907821868968
 10
172.3760416235727
 20
-58.15200600759741
 10
172.3760416235727
 20
-58.15200600759741
 10
172.3760416235727
 20
-58.15200600759741
 10
172.0587483293812
 20
-58.15200600759741
 10
172.0587483293812
 20
-58.15200600759741
 10
172.0587483293812
 20
-58.15200600759741
 10
172.0587483293812
 20
-57.86864690393562
 10
172.0587483293812
 20
-57.86864690393562
 10
172.0587483293812
 20
-57.86864690393562
 10
172.3760416235727
 20
-57.86864690393562
 10
172.3760416235727
 20
-57.86864690393562
 10
172.3760416235727
 20
-57.86864690393562
 10
172.3760416235727
 20
-57.37789305206178
 10
172.3760416235727
 20
-57.37789305206178
 10
172.3760416235727
 20
-57.37789305206178
 10
172.739843706815
 20
-57.28056910460347
 10
172.739843706815
 20
-57.28056910460347
 97
        0
 75
     2
 76
     1
 98
        0
  0
ENDBLK
  5
71
330
6E
100
AcDbEntity
  8
0
100
AcDbBlockEnd
  0
ENDSEC
  0
SECTION
  2
ENTITIES
  0
POLYLINE
  5
3C
330
1F
100
AcDbEntity
  8
Layer 1
 62
   179
420
  2236191
370
     5
100
AcDb2dPolyline
 66
     1
 10
0.0
 20
0.0
 30
0.0
  0
VERTEX
  5
3D
330
3C
100
AcDbEntity
  8
Layer 1
 62
   179
420
  2236191
370
     5
100
AcDbVertex
100
AcDb2dVertex
 10
142.0554117483403
 20
-23.97235242456247
 30
0.0
  0
VERTEX
  5
3E
330
3C
100
AcDbEntity
  8
Layer 1
 62
   179
420
  2236191
370
     5
100
AcDbVertex
100
AcDb2dVertex
 10
132.0556775928542
 20
-23.97235242456247
 30
0.0
  0
VERTEX
  5
3F
330
3C
100
AcDbEntity
  8
Layer 1
 62
   179
420
  2236191
370
     5
100
AcDbVertex
100
AcDb2dVertex
 10
132.0556775928542
 20
-29.97233072167359
 30
0.0
  0
VERTEX
  5
40
330
3C
100
AcDbEntity
  8
Layer 1
 62
   179
420
  2236191
370
     5
100
AcDbVertex
100
AcDb2dVertex
 10
142.0554117483403
 20
-29.97233072167359
 30
0.0
  0
VERTEX
  5
41
330
3C
100
AcDbEntity
  8
Layer 1
 62
   179
420
  2236191
370
     5
100
AcDbVertex
100
AcDb2dVertex
 10
142.0554117483403
 20
-23.97235242456247
 30
0.0
  0
SEQEND
  5
42
330
3C
100
AcDbEntity
  8
Layer 1
370
     5
  0
POLYLINE
  5
43
330
1F
100
AcDbEntity
  8
Layer 1
 62
   179
420
  2236191
370
     5
100
AcDb2dPolyline
 66
     1
 10
0.0
 20
0.0
 30
0.0
  0
VERTEX
  5
44
330
43
100
AcDbEntity
  8
Layer 1
 62
   179
420
  2236191
370
     5
100
AcDbVertex
100
AcDb2dVertex
 10
142.0554117483403
 20
-112.0853203387321
 30
0.0
  0
VERTEX
  5
45
330
43
100
AcDbEntity
  8
Layer 1
 62
   179
420
  2236191
370
     5
100
AcDbVertex
100
AcDb2dVertex
 10
132.0556775928542
 20
-112.0853203387321
 30
0.0
  0
VERTEX
  5
46
330
43
100
AcDbEntity
  8
Layer 1
 62
   179
420
  2236191
370
     5
100
AcDbVertex
100
AcDb2dVertex
 10
132.0556775928542
 20
-118.0852986358433
 30
0.0
  0
VERTEX
  5
47
330
43
100
AcDbEntity
  8
Layer 1
 62
   179
420
  2236191
370
     5
100
AcDbVertex
100
AcDb2dVertex
 10
142.0554117483403
 20
-118.0852986358433
 30
0.0
  0
VERTEX
  5
48
330
43
100
AcDbEntity
  8
Layer 1
 62
   179
420
  2236191
370
     5
100
AcDbVertex
100
AcDb2dVertex
 10
142.0554117483403
 20
-112.0853203387321
 30
0.0
  0
SEQEND
  5
49
330
43
100
AcDbEntity
  8
Layer 1
370
     5
  0
POLYLINE
  5
4A
330
1F
100
AcDbEntity
  8
Layer 1
 62
   179
420
  2236191
370
     5
100
AcDb2dPolyline
 66
     1
 10
0.0
 20
0.0
 30
0.0
  0
VERTEX
  5
4B
330
4A
100
AcDbEntity
  8
Layer 1
 62
   179
420
  2236191
370
     5
100
AcDbVertex
100
AcDb2dVertex
 10
187.0555934862222
 20
-144.2334011141153
 30
0.0
  0
VERTEX
  5
4C
330
4A
100
AcDbEntity
  8
Layer 1
 62
   179
420
  2236191
370
     5
100
AcDbVertex
100
AcDb2dVertex
 10
87.0556681097465
 20
-144.2334011141153
 30
0.0
  0
VERTEX
  5
4D
330
4A
100
AcDbEntity
  8
Layer 1
 62
   179
420
  2236191
370
     5
100
AcDbVertex
100
AcDb2dVertex
 10
87.0556681097465
 20
-4.233333332275
 30
0.0
  0
VERTEX
  5
4E
330
4A
100
AcDbEntity
  8
Layer 1
 62
   179
420
  2236191
370
     5
100
AcDbVertex
100
AcDb2dVertex
 10
187.0555934862222
 20
-4.233333332275
 30
0.0
  0
VERTEX
  5
4F
330
4A
100
AcDbEntity
  8
Layer 1
 62
   179
420
  2236191
370
     5
100
AcDbVertex
100
AcDb2dVertex
 10
187.0555934862222
 20
-144.2334011141153
 30
0.0
  0
SEQEND
  5
50
330
4A
100
AcDbEntity
  8
Layer 1
370
     5
  0
POLYLINE
  5
51
330
1F
100
AcDbEntity
  8
Layer 1
 62
   179
420
  2236191
370
     5
100
AcDb2dPolyline
 66
     1
 10
0.0
 20
0.0
 30
0.0
  0
VERTEX
  5
52
330
51
100
AcDbEntity
  8
Layer 1
 62
   179
420
  2236191
370
     5
100
AcDbVertex
100
AcDb2dVertex
 10
154.5555962070208
 20
-35.63055554664792
 30
0.0
  0
VERTEX
  5
53
330
51
100
AcDbEntity
  8
Layer 1
 62
   179
420
  2236191
370
     5
100
AcDbVertex
100
AcDb2dVertex
 10
154.5555962070208
 20
-45.6302897021341
 30
0.0
  0
VERTEX
  5
54
330
51
100
AcDbEntity
  8
Layer 1
 62
   179
420
  2236191
370
     5
100
AcDbVertex
100
AcDb2dVertex
 10
160.555574504132
 20
-45.6302897021341
 30
0.0
  0
VERTEX
  5
55
330
51
100
AcDbEntity
  8
Layer 1
 62
   179
420
  2236191
370
     5
100
AcDbVertex
100
AcDb2dVertex
 10
160.555574504132
 20
-35.63055554664792
 30
0.0
  0
VERTEX
  5
56
330
51
100
AcDbEntity
  8
Layer 1
 62
   179
420
  2236191
370
     5
100
AcDbVertex
100
AcDb2dVertex
 10
154.5555962070208
 20
-35.63055554664792
 30
0.0
  0
SEQEND
  5
57
330
51
100
AcDbEntity
  8
Layer 1
370
     5
  0
POLYLINE
  5
58
330
1F
100
AcDbEntity
  8
Layer 1
 62
   179
420
  2236191
370
     5
100
AcDb2dPolyline
 66
     1
 10
0.0
 20
0.0
 30
0.0
  0
VERTEX
  5
59
330
58
100
AcDbEntity
  8
Layer 1
 62
   179
420
  2236191
370
     5
100
AcDbVertex
100
AcDb2dVertex
 10
154.5555962070208
 20
-97.28140052906507
 30
0.0
  0
VERTEX
  5
5A
330
58
100
AcDbEntity
  8
Layer 1
 62
   179
420
  2236191
370
     5
100
AcDbVertex
100
AcDb2dVertex
 10
154.5555962070208
 20
-107.2811346845512
 30
0.0
  0
VERTEX
  5
5B
330
58
100
AcDbEntity
  8
Layer 1
 62
   179
420
  2236191
370
     5
100
AcDbVertex
100
AcDb2dVertex
 10
160.555574504132
 20
-107.2811346845512
 30
0.0
  0
VERTEX
  5
5C
330
58
100
AcDbEntity
  8
Layer 1
 62
   179
420
  2236191
370
     5
100
AcDbVertex
100
AcDb2dVertex
 10
160.555574504132
 20
-97.28140052906507
 30
0.0
  0
VERTEX
  5
5D
330
58
100
AcDbEntity
  8
Layer 1
 62
   179
420
  2236191
370
     5
100
AcDbVertex
100
AcDb2dVertex
 10
154.5555962070208
 20
-97.28140052906507
 30
0.0
  0
SEQEND
  5
5E
330
58
100
AcDbEntity
  8
Layer 1
370
     5
  0
POLYLINE
  5
5F
330
1F
100
AcDbEntity
  8
Layer 1
 62
   179
420
  2236191
370
     5
100
AcDb2dPolyline
 66
     1
 10
0.0
 20
0.0
 30
0.0
  0
VERTEX
  5
60
330
5F
100
AcDbEntity
  8
Layer 1
 62
   179
420
  2236191
370
     5
100
AcDbVertex
100
AcDb2dVertex
 10
113.5555148370625
 20
-35.63055554664792
 30
0.0
  0
VERTEX
  5
61
330
5F
100
AcDbEntity
  8
Layer 1
 62
   179
420
  2236191
370
     5
100
AcDbVertex
100
AcDb2dVertex
 10
113.5555148370625
 20
-45.6302897021341
 30
0.0
  0
VERTEX
  5
62
330
5F
100
AcDbEntity
  8
Layer 1
 62
   179
420
  2236191
370
     5
100
AcDbVertex
100
AcDb2dVertex
 10
119.5554931341736
 20
-45.6302897021341
 30
0.0
  0
VERTEX
  5
63
330
5F
100
AcDbEntity
  8
Layer 1
 62
   179
420
  2236191
370
     5
100
AcDbVertex
100
AcDb2dVertex
 10
119.5554931341736
 20
-35.63055554664792
 30
0.0
  0
VERTEX
  5
64
330
5F
100
AcDbEntity
  8
Layer 1
 62
   179
420
  2236191
370
     5
100
AcDbVertex
100
AcDb2dVertex
 10
113.5555148370625
 20
-35.63055554664792
 30
0.0
  0
SEQEND
  5
65
330
5F
100
AcDbEntity
  8
Layer 1
370
     5
  0
POLYLINE
  5
66
330
1F
100
AcDbEntity
  8
Layer 1
 62
   179
420
  2236191
370
     5
100
AcDb2dPolyline
 66
     1
 10
0.0
 20
0.0
 30
0.0
  0
VERTEX
  5
67
330
66
100
AcDbEntity
  8
Layer 1
 62
   179
420
  2236191
370
     5
100
AcDbVertex
100
AcDb2dVertex
 10
113.5555148370625
 20
-97.28140052906507
 30
0.0
  0
VERTEX
  5
68
330
66
100
AcDbEntity
  8
Layer 1
 62
   179
420
  2236191
370
     5
100
AcDbVertex
100
AcDb2dVertex
 10
113.5555148370625
 20
-107.2811346845512
 30
0.0
  0
VERTEX
  5
69
330
66
100
AcDbEntity
  8
Layer 1
 62
   179
420
  2236191
370
     5
100
AcDbVertex
100
AcDb2dVertex
 10
119.5554931341736
 20
-107.2811346845512
 30
0.0
  0
VERTEX
  5
6A
330
66
100
AcDbEntity
  8
Layer 1
 62
   179
420
  2236191
370
     5
100
AcDbVertex
100
AcDb2dVertex
 10
119.5554931341736
 20
-97.28140052906507
 30
0.0
  0
VERTEX
  5
6B
330
66
100
AcDbEntity
  8
Layer 1
 62
   179
420
  2236191
370
     5
100
AcDbVertex
100
AcDb2dVertex
 10
113.5555148370625
 20
-97.28140052906507
 30
0.0
  0
SEQEND
  5
6C
330
66
100
AcDbEntity
  8
Layer 1
370
     5
  0
SPLINE
  5
6D
330
1F
100
AcDbEntity
  8
Layer 1
 62
   179
420
  2236191
370
     5
100
AcDbSpline
210
0.0
220
0.0
230
1.0
 70
    11
 71
     3
 72
    44
 73
    40
 74
     0
 42
0.0000000001
 43
0.0000000001
 40
0.0
 40
0.0
 40
0.0
 40
0.0
 40
1.0
 40
1.0
 40
1.0
 40
2.0
 40
2.0
 40
2.0
 40
3.0
 40
3.0
 40
3.0
 40
4.0
 40
4.0
 40
4.0
 40
5.0
 40
5.0
 40
5.0
 40
6.0
 40
6.0
 40
6.0
 40
7.0
 40
7.0
 40
7.0
 40
8.0
 40
8.0
 40
8.0
 40
9.0
 40
9.0
 40
9.0
 40
10.0
 40
10.0
 40
10.0
 40
11.0
 40
11.0
 40
11.0
 40
12.0
 40
12.0
 40
12.0
 40
13.0
 40
13.0
 40
13.0
 40
13.0
 10
149.0555012648195
 20
-46.16686332396176
 30
0.0
 10
149.0555012648195
 20
-46.16686332396176
 30
0.0
 10
125.055588076375
 20
-46.16686332396176
 30
0.0
 10
125.055588076375
 20
-46.16686332396176
 30
0.0
 10
123.0036892053602
 20
-46.16686332396176
 30
0.0
 10
121.3145588889422
 20
-47.71284992296762
 30
0.0
 10
121.0844265105275
 20
-49.70308158479646
 30
0.0
 10
121.0844265105275
 20
-49.70308158479646
 30
0.0
 10
121.0837374914305
 20
-49.7037706038935
 30
0.0
 10
121.0837374914305
 20
-49.7037706038935
 30
0.0
 10
121.0837374914305
 20
-49.7037706038935
 30
0.0
 10
121.0837374914305
 20
-49.70807697325007
 30
0.0
 10
121.0837374914305
 20
-49.70807697325007
 30
0.0
 10
121.0665120140042
 20
-49.85879990072975
 30
0.0
 10
121.0554877084514
 20
-50.01141763072631
 30
0.0
 10
121.0554877084514
 20
-50.16679143711108
 30
0.0
 10
121.0554877084514
 20
-50.32216524349585
 30
0.0
 10
121.0665120140042
 20
-50.47478297349242
 30
0.0
 10
121.0837374914305
 20
-50.6255059009721
 30
0.0
 10
121.0837374914305
 20
-50.6255059009721
 30
0.0
 10
121.0837374914305
 20
-62.67403834153635
 30
0.0
 10
121.0837374914305
 20
-62.67403834153635
 30
0.0
 10
121.0665120140042
 20
-62.82476126901604
 30
0.0
 10
121.0554877084514
 20
-62.9773789990126
 30
0.0
 10
121.0554877084514
 20
-63.13275280539737
 30
0.0
 10
121.0554877084514
 20
-65.34192028531383
 30
0.0
 10
122.8465928512328
 20
-67.13285317332095
 30
0.0
 10
125.055588076375
 20
-67.13285317332095
 30
0.0
 10
125.055588076375
 20
-67.13285317332095
 30
0.0
 10
149.0555012648195
 20
-67.13285317332095
 30
0.0
 10
149.0555012648195
 20
-67.13285317332095
 30
0.0
 10
151.2644964899617
 20
-67.13285317332095
 30
0.0
 10
153.055601632743
 20
-65.34192028531383
 30
0.0
 10
153.055601632743
 20
-63.13275280539737
 30
0.0
 10
153.055601632743
 20
-63.13275280539737
 30
0.0
 10
153.055601632743
 20
-50.16679143711108
 30
0.0
 10
153.055601632743
 20
-50.16679143711108
 30
0.0
 10
153.055601632743
 20
-47.95779621196888
 30
0.0
 10
151.2644964899617
 20
-46.16686332396176
 30
0.0
 10
149.0555012648195
 20
-46.16686332396176
 30
0.0
  0
INSERT
  5
6F
330
1F
100
AcDbEntity
  8
Layer 1
100
AcDbBlockReference
  2
block 2
 10
0.0
 20
0.0
 30
0.0
  0
POLYLINE
  5
97
330
1F
100
AcDbEntity
  8
Layer 1
 62
   179
420
  2236191
370
     5
100
AcDb2dPolyline
 66
     1
 10
0.0
 20
0.0
 30
0.0
  0
VERTEX
  5
98
330
97
100
AcDbEntity
  8
Layer 1
 62
   179
420
  2236191
370
     5
100
AcDbVertex
100
AcDb2dVertex
 10
191.4722058983125
 20
-18.42333712647056
 30
0.0
  0
VERTEX
  5
99
330
97
100
AcDbEntity
  8
Layer 1
 62
   179
420
  2236191
370
     5
100
AcDbVertex
100
AcDb2dVertex
 10
191.4722058983125
 20
-44.92335610856083
 30
0.0
  0
VERTEX
  5
9A
330
97
100
AcDbEntity
  8
Layer 1
 62
   179
420
  2236191
370
     5
100
AcDbVertex
100
AcDb2dVertex
 10
217.9718803708543
 20
-44.92335610856083
 30
0.0
  0
VERTEX
  5
9B
330
97
100
AcDbEntity
  8
Layer 1
 62
   179
420
  2236191
370
     5
100
AcDbVertex
100
AcDb2dVertex
 10
217.9718803708543
 20
-31.67334661751569
 30
0.0
  0
VERTEX
  5
9C
330
97
100
AcDbEntity
  8
Layer 1
 62
   179
420
  2236191
370
     5
100
AcDbVertex
100
AcDb2dVertex
 10
223.9718586679654
 20
-31.67334661751569
 30
0.0
  0
VERTEX
  5
9D
330
97
100
AcDbEntity
  8
Layer 1
 62
   179
420
  2236191
370
     5
100
AcDbVertex
100
AcDb2dVertex
 10
223.9718586679654
 20
-44.92335610856083
 30
0.0
  0
VERTEX
  5
9E
330
97
100
AcDbEntity
  8
Layer 1
 62
   179
420
  2236191
370
     5
100
AcDbVertex
100
AcDb2dVertex
 10
236.4723876361944
 20
-44.92335610856083
 30
0.0
  0
VERTEX
  5
9F
330
97
100
AcDbEntity
  8
Layer 1
 62
   179
420
  2236191
370
     5
100
AcDbVertex
100
AcDb2dVertex
 10
236.4723876361944
 20
-50.92333440567194
 30
0.0
  0
VERTEX
  5
A0
330
97
100
AcDbEntity
  8
Layer 1
 62
   179
420
  2236191
370
     5
100
AcDbVertex
100
AcDb2dVertex
 10
246.4721217916806
 20
-50.92333440567194
 30
0.0
  0
VERTEX
  5
A1
330
97
100
AcDbEntity
  8
Layer 1
 62
   179
420
  2236191
370
     5
100
AcDbVertex
100
AcDb2dVertex
 10
246.4721217916806
 20
-44.92335610856083
 30
0.0
  0
VERTEX
  5
A2
330
97
100
AcDbEntity
  8
Layer 1
 62
   179
420
  2236191
370
     5
100
AcDbVertex
100
AcDb2dVertex
 10
258.9719617408126
 20
-44.92335610856083
 30
0.0
  0
VERTEX
  5
A3
330
97
100
AcDbEntity
  8
Layer 1
 62
   179
420
  2236191
370
     5
100
AcDbVertex
100
AcDb2dVertex
 10
258.9719617408126
 20
-31.67334661751569
 30
0.0
  0
VERTEX
  5
A4
330
97
100
AcDbEntity
  8
Layer 1
 62
   179
420
  2236191
370
     5
100
AcDbVertex
100
AcDb2dVertex
 10
264.9722845474722
 20
-31.67334661751569
 30
0.0
  0
VERTEX
  5
A5
330
97
100
AcDbEntity
  8
Layer 1
 62
   179
420
  2236191
370
     5
100
AcDbVertex
100
AcDb2dVertex
 10
264.9722845474722
 20
-44.92335610856083
 30
0.0
  0
VERTEX
  5
A6
330
97
100
AcDbEntity
  8
Layer 1
 62
   179
420
  2236191
370
     5
100
AcDbVertex
100
AcDb2dVertex
 10
291.471959020014
 20
-44.92335610856083
 30
0.0
  0
VERTEX
  5
A7
330
97
100
AcDbEntity
  8
Layer 1
 62
   179
420
  2236191
370
     5
100
AcDbVertex
100
AcDb2dVertex
 10
291.471959020014
 20
-18.42333712647056
 30
0.0
  0
VERTEX
  5
A8
330
97
100
AcDbEntity
  8
Layer 1
 62
   179
420
  2236191
370
     5
100
AcDbVertex
100
AcDb2dVertex
 10
191.4722058983125
 20
-18.42333712647056
 30
0.0
  0
SEQEND
  5
A9
330
97
100
AcDbEntity
  8
Layer 1
370
     5
  0
POLYLINE
  5
AA
330
1F
100
AcDbEntity
  8
Layer 1
 62
   179
420
  2236191
370
     5
100
AcDb2dPolyline
 66
     1
 10
0.0
 20
0.0
 30
0.0
  0
VERTEX
  5
AB
330
AA
100
AcDbEntity
  8
Layer 1
 62
   179
420
  2236191
370
     5
100
AcDbVertex
100
AcDb2dVertex
 10
76.55415579683368
 20
-45.6302897021341
 30
0.0
  0
VERTEX
  5
AC
330
AA
100
AcDbEntity
  8
Layer 1
 62
   179
420
  2236191
370
     5
100
AcDbVertex
100
AcDb2dVertex
 10
76.55415579683368
 20
-35.63055554664792
 30
0.0
  0
VERTEX
  5
AD
330
AA
100
AcDbEntity
  8
Layer 1
 62
   179
420
  2236191
370
     5
100
AcDbVertex
100
AcDb2dVertex
 10
70.55417749972257
 20
-35.63055554664792
 30
0.0
  0
VERTEX
  5
AE
330
AA
100
AcDbEntity
  8
Layer 1
 62
   179
420
  2236191
370
     5
100
AcDbVertex
100
AcDb2dVertex
 10
70.55417749972257
 20
-18.07624375633164
 30
0.0
  0
VERTEX
  5
AF
330
AA
100
AcDbEntity
  8
Layer 1
 62
   179
420
  2236191
370
     5
100
AcDbVertex
100
AcDb2dVertex
 10
44.05433077240656
 20
-18.07624375633164
 30
0.0
  0
VERTEX
  5
B0
330
AA
100
AcDbEntity
  8
Layer 1
 62
   179
420
  2236191
370
     5
100
AcDbVertex
100
AcDb2dVertex
 10
44.05433077240656
 20
-23.97218016978821
 30
0.0
  0
VERTEX
  5
B1
330
AA
100
AcDbEntity
  8
Layer 1
 62
   179
420
  2236191
370
     5
100
AcDbVertex
100
AcDb2dVertex
 10
57.30416800867744
 20
-23.97218016978821
 30
0.0
  0
VERTEX
  5
B2
330
AA
100
AcDbEntity
  8
Layer 1
 62
   179
420
  2236191
370
     5
100
AcDbVertex
100
AcDb2dVertex
 10
57.30416800867744
 20
-29.97250297644785
 30
0.0
  0
VERTEX
  5
B3
330
AA
100
AcDbEntity
  8
Layer 1
 62
   179
420
  2236191
370
     5
100
AcDbVertex
100
AcDb2dVertex
 10
44.05433077240656
 20
-29.97250297644785
 30
0.0
  0
VERTEX
  5
B4
330
AA
100
AcDbEntity
  8
Layer 1
 62
   179
420
  2236191
370
     5
100
AcDbVertex
100
AcDb2dVertex
 10
44.05433077240656
 20
-111.8262491582414
 30
0.0
  0
VERTEX
  5
B5
330
AA
100
AcDbEntity
  8
Layer 1
 62
   179
420
  2236191
370
     5
100
AcDbVertex
100
AcDb2dVertex
 10
57.30416800867744
 20
-111.8262491582414
 30
0.0
  0
VERTEX
  5
B6
330
AA
100
AcDbEntity
  8
Layer 1
 62
   179
420
  2236191
370
     5
100
AcDbVertex
100
AcDb2dVertex
 10
57.30416800867744
 20
-117.826571964901
 30
0.0
  0
VERTEX
  5
B7
330
AA
100
AcDbEntity
  8
Layer 1
 62
   179
420
  2236191
370
     5
100
AcDbVertex
100
AcDb2dVertex
 10
44.05433077240656
 20
-117.826571964901
 30
0.0
  0
VERTEX
  5
B8
330
AA
100
AcDbEntity
  8
Layer 1
 62
   179
420
  2236191
370
     5
100
AcDbVertex
100
AcDb2dVertex
 10
44.05433077240656
 20
-128.0762477978421
 30
0.0
  0
VERTEX
  5
B9
330
AA
100
AcDbEntity
  8
Layer 1
 62
   179
420
  2236191
370
     5
100
AcDbVertex
100
AcDb2dVertex
 10
70.55417749972257
 20
-128.0762477978421
 30
0.0
  0
VERTEX
  5
BA
330
AA
100
AcDbEntity
  8
Layer 1
 62
   179
420
  2236191
370
     5
100
AcDbVertex
100
AcDb2dVertex
 10
70.55417749972257
 20
-107.2811346845512
 30
0.0
  0
VERTEX
  5
BB
330
AA
100
AcDbEntity
  8
Layer 1
 62
   179
420
  2236191
370
     5
100
AcDbVertex
100
AcDb2dVertex
 10
76.55415579683368
 20
-107.2811346845512
 30
0.0
  0
VERTEX
  5
BC
330
AA
100
AcDbEntity
  8
Layer 1
 62
   179
420
  2236191
370
     5
100
AcDbVertex
100
AcDb2dVertex
 10
76.55415579683368
 20
-97.28140052906507
 30
0.0
  0
VERTEX
  5
BD
330
AA
100
AcDbEntity
  8
Layer 1
 62
   179
420
  2236191
370
     5
100
AcDbVertex
100
AcDb2dVertex
 10
70.55417749972257
 20
-97.28140052906507
 30
0.0
  0
VERTEX
  5
BE
330
AA
100
AcDbEntity
  8
Layer 1
 62
   179
420
  2236191
370
     5
100
AcDbVertex
100
AcDb2dVertex
 10
70.55417749972257
 20
-45.6302897021341
 30
0.0
  0
VERTEX
  5
BF
330
AA
100
AcDbEntity
  8
Layer 1
 62
   179
420
  2236191
370
     5
100
AcDbVertex
100
AcDb2dVertex
 10
76.55415579683368
 20
-45.6302897021341
 30
0.0
  0
SEQEND
  5
C0
330
AA
100
AcDbEntity
  8
Layer 1
370
     5
  0
POLYLINE
  5
C1
330
1F
100
AcDbEntity
  8
Layer 1
 62
   179
420
  2236191
370
     5
100
AcDb2dPolyline
 66
     1
 10
0.0
 20
0.0
 30
0.0
  0
VERTEX
  5
C2
330
C1
100
AcDbEntity
  8
Layer 1
 62
   179
420
  2236191
370
     5
100
AcDbVertex
100
AcDb2dVertex
 10
191.4722058983125
 20
-91.53170841895735
 30
0.0
  0
VERTEX
  5
C3
330
C1
100
AcDbEntity
  8
Layer 1
 62
   179
420
  2236191
370
     5
100
AcDbVertex
100
AcDb2dVertex
 10
191.4722058983125
 20
-65.03168943686708
 30
0.0
  0
VERTEX
  5
C4
330
C1
100
AcDbEntity
  8
Layer 1
 62
   179
420
  2236191
370
     5
100
AcDbVertex
100
AcDb2dVertex
 10
217.9715358613057
 20
-65.03168943686708
 30
0.0
  0
VERTEX
  5
C5
330
C1
100
AcDbEntity
  8
Layer 1
 62
   179
420
  2236191
370
     5
100
AcDbVertex
100
AcDb2dVertex
 10
217.9715358613057
 20
-78.28169892791222
 30
0.0
  0
VERTEX
  5
C6
330
C1
100
AcDbEntity
  8
Layer 1
 62
   179
420
  2236191
370
     5
100
AcDbVertex
100
AcDb2dVertex
 10
223.9718586679654
 20
-78.28169892791222
 30
0.0
  0
VERTEX
  5
C7
330
C1
100
AcDbEntity
  8
Layer 1
 62
   179
420
  2236191
370
     5
100
AcDbVertex
100
AcDb2dVertex
 10
223.9718586679654
 20
-65.03168943686708
 30
0.0
  0
VERTEX
  5
C8
330
C1
100
AcDbEntity
  8
Layer 1
 62
   179
420
  2236191
370
     5
100
AcDbVertex
100
AcDb2dVertex
 10
236.4723876361944
 20
-65.03168943686708
 30
0.0
  0
VERTEX
  5
C9
330
C1
100
AcDbEntity
  8
Layer 1
 62
   179
420
  2236191
370
     5
100
AcDbVertex
100
AcDb2dVertex
 10
236.4723876361944
 20
-59.03171113975596
 30
0.0
  0
VERTEX
  5
CA
330
C1
100
AcDbEntity
  8
Layer 1
 62
   179
420
  2236191
370
     5
100
AcDbVertex
100
AcDb2dVertex
 10
246.4721217916806
 20
-59.03171113975596
 30
0.0
  0
VERTEX
  5
CB
330
C1
100
AcDbEntity
  8
Layer 1
 62
   179
420
  2236191
370
     5
100
AcDbVertex
100
AcDb2dVertex
 10
246.4721217916806
 20
-65.03168943686708
 30
0.0
  0
VERTEX
  5
CC
330
C1
100
AcDbEntity
  8
Layer 1
 62
   179
420
  2236191
370
     5
100
AcDbVertex
100
AcDb2dVertex
 10
258.9723062503611
 20
-65.03168943686708
 30
0.0
  0
VERTEX
  5
CD
330
C1
100
AcDbEntity
  8
Layer 1
 62
   179
420
  2236191
370
     5
100
AcDbVertex
100
AcDb2dVertex
 10
258.9723062503611
 20
-78.28169892791222
 30
0.0
  0
VERTEX
  5
CE
330
C1
100
AcDbEntity
  8
Layer 1
 62
   179
420
  2236191
370
     5
100
AcDbVertex
100
AcDb2dVertex
 10
264.9722845474722
 20
-78.28169892791222
 30
0.0
  0
VERTEX
  5
CF
330
C1
100
AcDbEntity
  8
Layer 1
 62
   179
420
  2236191
370
     5
100
AcDbVertex
100
AcDb2dVertex
 10
264.9722845474722
 20
-65.03168943686708
 30
0.0
  0
VERTEX
  5
D0
330
C1
100
AcDbEntity
  8
Layer 1
 62
   179
420
  2236191
370
     5
100
AcDbVertex
100
AcDb2dVertex
 10
291.471959020014
 20
-65.03168943686708
 30
0.0
  0
VERTEX
  5
D1
330
C1
100
AcDbEntity
  8
Layer 1
 62
   179
420
  2236191
370
     5
100
AcDbVertex
100
AcDb2dVertex
 10
291.471959020014
 20
-91.53170841895735
 30
0.0
  0
VERTEX
  5
D2
330
C1
100
AcDbEntity
  8
Layer 1
 62
   179
420
  2236191
370
     5
100
AcDbVertex
100
AcDb2dVertex
 10
191.4722058983125
 20
-91.53170841895735
 30
0.0
  0
SEQEND
  5
D3
330
C1
100
AcDbEntity
  8
Layer 1
370
     5
  0
POLYLINE
  5
D4
330
1F
100
AcDbEntity
  8
Layer 1
 62
   179
420
  2236191
370
     5
100
AcDb2dPolyline
 66
     1
 10
0.0
 20
0.0
 30
0.0
  0
VERTEX
  5
D5
330
D4
100
AcDbEntity
  8
Layer 1
 62
   179
420
  2236191
370
     5
100
AcDbVertex
100
AcDb2dVertex
 10
37.60287271195345
 20
-45.6302897021341
 30
0.0
  0
VERTEX
  5
D6
330
D4
100
AcDbEntity
  8
Layer 1
 62
   179
420
  2236191
370
     5
100
AcDbVertex
100
AcDb2dVertex
 10
37.60287271195345
 20
-35.63055554664792
 30
0.0
  0
VERTEX
  5
D7
330
D4
100
AcDbEntity
  8
Layer 1
 62
   179
420
  2236191
370
     5
100
AcDbVertex
100
AcDb2dVertex
 10
31.60289441484233
 20
-35.63055554664792
 30
0.0
  0
VERTEX
  5
D8
330
D4
100
AcDbEntity
  8
Layer 1
 62
   179
420
  2236191
370
     5
100
AcDbVertex
100
AcDb2dVertex
 10
31.60289441484233
 20
-18.07624375633164
 30
0.0
  0
VERTEX
  5
D9
330
D4
100
AcDbEntity
  8
Layer 1
 62
   179
420
  2236191
370
     5
100
AcDbVertex
100
AcDb2dVertex
 10
5.102875432752059
 20
-18.07624375633164
 30
0.0
  0
VERTEX
  5
DA
330
D4
100
AcDbEntity
  8
Layer 1
 62
   179
420
  2236191
370
     5
100
AcDbVertex
100
AcDb2dVertex
 10
5.102875432752059
 20
-23.97218016978821
 30
0.0
  0
VERTEX
  5
DB
330
D4
100
AcDbEntity
  8
Layer 1
 62
   179
420
  2236191
370
     5
100
AcDbVertex
100
AcDb2dVertex
 10
18.35271266902294
 20
-23.97218016978821
 30
0.0
  0
VERTEX
  5
DC
330
D4
100
AcDbEntity
  8
Layer 1
 62
   179
420
  2236191
370
     5
100
AcDbVertex
100
AcDb2dVertex
 10
18.35271266902294
 20
-29.97250297644785
 30
0.0
  0
VERTEX
  5
DD
330
D4
100
AcDbEntity
  8
Layer 1
 62
   179
420
  2236191
370
     5
100
AcDbVertex
100
AcDb2dVertex
 10
5.102875432752059
 20
-29.97250297644785
 30
0.0
  0
VERTEX
  5
DE
330
D4
100
AcDbEntity
  8
Layer 1
 62
   179
420
  2236191
370
     5
100
AcDbVertex
100
AcDb2dVertex
 10
5.102875432752059
 20
-111.8262491582414
 30
0.0
  0
VERTEX
  5
DF
330
D4
100
AcDbEntity
  8
Layer 1
 62
   179
420
  2236191
370
     5
100
AcDbVertex
100
AcDb2dVertex
 10
18.35271266902294
 20
-111.8262491582414
 30
0.0
  0
VERTEX
  5
E0
330
D4
100
AcDbEntity
  8
Layer 1
 62
   179
420
  2236191
370
     5
100
AcDbVertex
100
AcDb2dVertex
 10
18.35271266902294
 20
-117.826571964901
 30
0.0
  0
VERTEX
  5
E1
330
D4
100
AcDbEntity
  8
Layer 1
 62
   179
420
  2236191
370
     5
100
AcDbVertex
100
AcDb2dVertex
 10
5.102875432752059
 20
-117.826571964901
 30
0.0
  0
VERTEX
  5
E2
330
D4
100
AcDbEntity
  8
Layer 1
 62
   179
420
  2236191
370
     5
100
AcDbVertex
100
AcDb2dVertex
 10
5.102875432752059
 20
-128.0762477978421
 30
0.0
  0
VERTEX
  5
E3
330
D4
100
AcDbEntity
  8
Layer 1
 62
   179
420
  2236191
370
     5
100
AcDbVertex
100
AcDb2dVertex
 10
31.60289441484233
 20
-128.0762477978421
 30
0.0
  0
VERTEX
  5
E4
330
D4
100
AcDbEntity
  8
Layer 1
 62
   179
420
  2236191
370
     5
100
AcDbVertex
100
AcDb2dVertex
 10
31.60289441484233
 20
-107.2811346845512
 30
0.0
  0
VERTEX
  5
E5
330
D4
100
AcDbEntity
  8
Layer 1
 62
   179
420
  2236191
370
     5
100
AcDbVertex
100
AcDb2dVertex
 10
37.60287271195345
 20
-107.2811346845512
 30
0.0
  0
VERTEX
  5
E6
330
D4
100
AcDbEntity
  8
Layer 1
 62
   179
420
  2236191
370
     5
100
AcDbVertex
100
AcDb2dVertex
 10
37.60287271195345
 20
-97.28140052906507
 30
0.0
  0
VERTEX
  5
E7
330
D4
100
AcDbEntity
  8
Layer 1
 62
   179
420
  2236191
370
     5
100
AcDbVertex
100
AcDb2dVertex
 10
31.60289441484233
 20
-97.28140052906507
 30
0.0
  0
VERTEX
  5
E8
330
D4
100
AcDbEntity
  8
Layer 1
 62
   179
420
  2236191
370
     5
100
AcDbVertex
100
AcDb2dVertex
 10
31.60289441484233
 20
-45.6302897021341
 30
0.0
  0
VERTEX
  5
E9
330
D4
100
AcDbEntity
  8
Layer 1
 62
   179
420
  2236191
370
     5
100
AcDbVertex
100
AcDb2dVertex
 10
37.60287271195345
 20
-45.6302897021341
 30
0.0
  0
SEQEND
  5
EA
330
D4
100
AcDbEntity
  8
Layer 1
370
     5
  0
ENDSEC
  0
SECTION
  2
OBJECTS
  0
DICTIONARY
  5
C
330
0
100
AcDbDictionary
281
     1
  3
ACAD_GROUP
350
D
  3
ACAD_LAYOUT
350
1A
  3
ACAD_MLINESTYLE
350
17
  3
ACAD_PLOTSETTINGS
350
19
  3
ACAD_PLOTSTYLENAME
350
E
  3
ACAD_TABLESTYLE
350
EB
  3
ACAD_VISUALSTYLE
350
2A
  0
DICTIONARY
  5
D
102
{ACAD_REACTORS
330
C
102
}
330
C
100
AcDbDictionary
281
     1
  0
DICTIONARY
  5
1A
102
{ACAD_REACTORS
330
C
102
}
330
C
100
AcDbDictionary
281
     1
  3
Layout1
350
1E
  3
Layout2
350
26
  3
Model
350
22
  0
DICTIONARY
  5
17
102
{ACAD_REACTORS
330
C
102
}
330
C
100
AcDbDictionary
281
     1
  3
Standard
350
18
  0
DICTIONARY
  5
19
102
{ACAD_REACTORS
330
C
102
}
330
C
100
AcDbDictionary
281
     1
  0
ACDBDICTIONARYWDFLT
  5
E
102
{ACAD_REACTORS
330
C
102
}
330
C
100
AcDbDictionary
281
     1
  3
Normal
350
F
100
AcDbDictionaryWithDefault
340
F
  0
DICTIONARY
  5
EB
102
{ACAD_REACTORS
330
C
102
}
330
C
100
AcDbDictionary
281
     1
  0
DICTIONARY
  5
2A
102
{ACAD_REACTORS
330
C
102
}
330
C
100
AcDbDictionary
281
     1
  3
2dWireframe
350
2F
  3
3D Hidden
350
31
  3
3dWireframe
350
30
  3
Basic
350
32
  3
Brighten
350
36
  3
ColorChange
350
3A
  3
Conceptual
350
34
  3
Dim
350
35
  3
Facepattern
350
39
  3
Flat
350
2B
  3
FlatWithEdges
350
2C
  3
Gouraud
350
2D
  3
GouraudWithEdges
350
2E
  3
Linepattern
350
38
  3
Realistic
350
33
  3
Thicken
350
37
  0
LAYOUT
  5
1E
102
{ACAD_REACTORS
330
1A
102
}
330
1A
100
AcDbPlotSettings
  1

  2
none_device
  4

  6

 40
0.0
 41
0.0
 42
0.0
 43
0.0
 44
0.0
 45
0.0
 46
0.0
 47
0.0
 48
0.0
 49
0.0
140
0.0
141
0.0
142
1.0
143
1.0
 70
   688
 72
     0
 73
     0
 74
     5
  7

 75
    16
 76
     0
 77
     2
 78
   300
147
1.0
148
0.0
149
0.0
100
AcDbLayout
  1
Layout1
 70
     1
 71
     1
 10
0.0
 20
0.0
 11
12.0
 21
9.0
 12
0.0
 22
0.0
 32
0.0
 14
1.000000000000000E+20
 24
1.000000000000000E+20
 34
1.000000000000000E+20
 15
-1.000000000000000E+20
 25
-1.000000000000000E+20
 35
-1.000000000000000E+20
146
0.0
 13
0.0
 23
0.0
 33
0.0
 16
1.0
 26
0.0
 36
0.0
 17
0.0
 27
1.0
 37
0.0
 76
     0
330
1B
  0
LAYOUT
  5
26
102
{ACAD_REACTORS
330
1A
102
}
330
1A
100
AcDbPlotSettings
  1

  2
none_device
  4

  6

 40
0.0
 41
0.0
 42
0.0
 43
0.0
 44
0.0
 45
0.0
 46
0.0
 47
0.0
 48
0.0
 49
0.0
140
0.0
141
0.0
142
1.0
143
1.0
 70
   688
 72
     0
 73
     0
 74
     5
  7

 75
    16
 76
     0
 77
     2
 78
   300
147
1.0
148
0.0
149
0.0
100
AcDbLayout
  1
Layout2
 70
     1
 71
     2
 10
0.0
 20
0.0
 11
0.0
 21
0.0
 12
0.0
 22
0.0
 32
0.0
 14
0.0
 24
0.0
 34
0.0
 15
0.0
 25
0.0
 35
0.0
146
0.0
 13
0.0
 23
0.0
 33
0.0
 16
1.0
 26
0.0
 36
0.0
 17
0.0
 27
1.0
 37
0.0
 76
     0
330
23
  0
LAYOUT
  5
22
102
{ACAD_REACTORS
330
1A
102
}
330
1A
100
AcDbPlotSettings
  1

  2
none_device
  4

  6

 40
0.0
 41
0.0
 42
0.0
 43
0.0
 44
0.0
 45
0.0
 46
0.0
 47
0.0
 48
0.0
 49
0.0
140
0.0
141
0.0
142
1.0
143
1.0
 70
  1712
 72
     0
 73
     0
 74
     0
  7

 75
     0
 76
     0
 77
     2
 78
   300
147
1.0
148
0.0
149
0.0
100
AcDbLayout
  1
Model
 70
     1
 71
     0
 10
0.0
 20
0.0
 11
12.0
 21
9.0
 12
0.0
 22
0.0
 32
0.0
 14
1.000000000000000E+20
 24
1.000000000000000E+20
 34
1.000000000000000E+20
 15
-1.000000000000000E+20
 25
-1.000000000000000E+20
 35
-1.000000000000000E+20
146
0.0
 13
0.0
 23
0.0
 33
0.0
 16
1.0
 26
0.0
 36
0.0
 17
0.0
 27
1.0
 37
0.0
 76
     0
330
1F
331
29
  0
MLINESTYLE
  5
18
102
{ACAD_REACTORS
330
17
102
}
330
17
100
AcDbMlineStyle
  2
Standard
 70
     0
  3

 62
   256
 51
90.0
 52
90.0
 71
     2
 49
0.5
 62
   256
  6
BYLAYER
 49
-0.5
 62
   256
  6
BYLAYER
  0
ACDBPLACEHOLDER
  5
F
102
{ACAD_REACTORS
330
E
102
}
330
E
  0
VISUALSTYLE
  5
2F
102
{ACAD_REACTORS
330
2A
102
}
330
2A
100
AcDbVisualStyle
  2
2dWireframe
 70
     4
 71
     0
 72
     2
 73
     0
 90
        0
 40
-0.6
 41
-30.0
 62
     5
 63
     7
421
 16777215
 74
     1
 91
        4
 64
     7
 65
   257
 75
     1
175
     1
 42
1.0
 92
        0
 66
   257
 43
1.0
 76
     1
 77
     6
 78
     2
 67
     7
 79
     5
170
     0
171
     0
290
     0
174
     0
 93
        1
 44
0.0
173
     0
291
     0
 45
0.0
1001
ACAD
1000
AcDbSavedByObjectVersion
1070
     0
  0
VISUALSTYLE
  5
31
102
{ACAD_REACTORS
330
2A
102
}
330
2A
100
AcDbVisualStyle
  2
3D Hidden
 70
     6
 71
     1
 72
     2
 73
     2
 90
        0
 40
-0.6
 41
-30.0
 62
     5
 63
     7
421
 16777215
 74
     2
 91
        2
 64
     7
 65
   257
 75
     2
175
     1
 42
40.0
 92
        0
 66
   257
 43
1.0
 76
     1
 77
     6
 78
     2
 67
     7
 79
     3
170
     0
171
     0
290
     0
174
     0
 93
        1
 44
0.0
173
     0
291
     0
 45
0.0
1001
ACAD
1000
AcDbSavedByObjectVersion
1070
     0
  0
VISUALSTYLE
  5
30
102
{ACAD_REACTORS
330
2A
102
}
330
2A
100
AcDbVisualStyle
  2
3dWireframe
 70
     5
 71
     0
 72
     2
 73
     0
 90
        0
 40
-0.6
 41
-30.0
 62
     5
 63
     7
421
 16777215
 74
     1
 91
        4
 64
     7
 65
   257
 75
     1
175
     1
 42
1.0
 92
        0
 66
   257
 43
1.0
 76
     1
 77
     6
 78
     2
 67
     7
 79
     5
170
     0
171
     0
290
     0
174
     0
 93
        1
 44
0.0
173
     0
291
     0
 45
0.0
1001
ACAD
1000
AcDbSavedByObjectVersion
1070
     0
  0
VISUALSTYLE
  5
32
102
{ACAD_REACTORS
330
2A
102
}
330
2A
100
AcDbVisualStyle
  2
Basic
 70
     7
 71
     1
 72
     0
 73
     1
 90
        0
 40
-0.6
 41
-30.0
 62
     5
 63
     7
421
 16777215
 74
     0
 91
        4
 64
     7
 65
   257
 75
     1
175
     1
 42
1.0
 92
        8
 66
     7
 43
1.0
 76
     1
 77
     6
 78
     2
 67
     7
 79
     5
170
     0
171
     0
290
     0
174
     0
 93
        1
 44
0.0
173
     0
291
     1
 45
0.0
1001
ACAD
1000
AcDbSavedByObjectVersion
1070
     0
  0
VISUALSTYLE
  5
36
102
{ACAD_REACTORS
330
2A
102
}
330
2A
100
AcDbVisualStyle
  2
Brighten
 70
    12
 71
     2
 72
     2
 73
     0
 90
        0
 40
-0.6
 41
-30.0
 62
     5
 63
     7
421
 16777215
 74
     1
 91
        4
 64
     7
 65
   257
 75
     1
175
     1
 42
1.0
 92
        8
 66
     7
 43
1.0
 76
     1
 77
     6
 78
     2
 67
     7
 79
     5
170
     0
171
     0
290
     0
174
     0
 93
        1
 44
50.0
173
     0
291
     1
 45
0.0
1001
ACAD
1000
AcDbSavedByObjectVersion
1070
     0
  0
VISUALSTYLE
  5
3A
102
{ACAD_REACTORS
330
2A
102
}
330
2A
100
AcDbVisualStyle
  2
ColorChange
 70
    16
 71
     2
 72
     2
 73
     3
 90
        0
 40
-0.6
 41
-30.0
 62
     5
 63
     8
421
  8421504
 74
     1
 91
        4
 64
     7
 65
   257
 75
     1
175
     1
 42
1.0
 92
        8
 66
     8
424
  8421504
 43
1.0
 76
     1
 77
     6
 78
     2
 67
     7
 79
     5
170
     0
171
     0
290
     0
174
     0
 93
        1
 44
0.0
173
     0
291
     1
 45
0.0
1001
ACAD
1000
AcDbSavedByObjectVersion
1070
     0
  0
VISUALSTYLE
  5
34
102
{ACAD_REACTORS
330
2A
102
}
330
2A
100
AcDbVisualStyle
  2
Conceptual
 70
     9
 71
     3
 72
     2
 73
     0
 90
        0
 40
-0.6
 41
-30.0
 62
     5
 63
     7
421
 16777215
 74
     2
 91
        2
 64
     7
 65
   257
 75
     1
175
     1
 42
40.0
 92
        8
 66
     7
 43
1.0
 76
     1
 77
     6
 78
     2
 67
     7
 79
     3
170
     0
171
     0
290
     0
174
     0
 93
        1
 44
0.0
173
     0
291
     0
 45
0.0
1001
ACAD
1000
AcDbSavedByObjectVersion
1070
     0
  0
VISUALSTYLE
  5
35
102
{ACAD_REACTORS
330
2A
102
}
330
2A
100
AcDbVisualStyle
  2
Dim
 70
    11
 71
     2
 72
     2
 73
     0
 90
        0
 40
-0.6
 41
-30.0
 62
     5
 63
     7
421
 16777215
 74
     1
 91
        4
 64
     7
 65
   257
 75
     1
175
     1
 42
1.0
 92
        8
 66
     7
 43
1.0
 76
     1
 77
     6
 78
     2
 67
     7
 79
     5
170
     0
171
     0
290
     0
174
     0
 93
        1
 44
-50.0
173
     0
291
     1
 45
0.0
1001
ACAD
1000
AcDbSavedByObjectVersion
1070
     0
  0
VISUALSTYLE
  5
39
102
{ACAD_REACTORS
330
2A
102
}
330
2A
100
AcDbVisualStyle
  2
Facepattern
 70
    15
 71
     2
 72
     2
 73
     0
 90
        0
 40
-0.6
 41
-30.0
 62
     5
 63
     7
421
 16777215
 74
     1
 91
        4
 64
     7
 65
   257
 75
     1
175
     1
 42
1.0
 92
        8
 66
     7
 43
1.0
 76
     1
 77
     6
 78
     2
 67
     7
 79
     5
170
     0
171
     0
290
     0
174
     0
 93
        1
 44
0.0
173
     0
291
     1
 45
0.0
1001
ACAD
1000
AcDbSavedByObjectVersion
1070
     0
  0
VISUALSTYLE
  5
2B
102
{ACAD_REACTORS
330
2A
102
}
330
2A
100
AcDbVisualStyle
  2
Flat
 70
     0
 71
     2
 72
     1
 73
     1
 90
        2
 40
-0.6
 41
30.0
 62
     5
 63
     7
421
 16777215
 74
     0
 91
        4
 64
     7
 65
   257
 75
     1
175
     1
 42
1.0
 92
        8
 66
     7
 43
1.0
 76
     1
 77
     6
 78
     2
 67
     7
 79
     5
170
     0
171
     0
290
     0
174
     0
 93
       13
 44
0.0
173
     0
291
     1
 45
0.0
1001
ACAD
1000
AcDbSavedByObjectVersion
1070
     0
  0
VISUALSTYLE
  5
2C
102
{ACAD_REACTORS
330
2A
102
}
330
2A
100
AcDbVisualStyle
  2
FlatWithEdges
 70
     1
 71
     2
 72
     1
 73
     1
 90
        2
 40
-0.6
 41
30.0
 62
     5
 63
     7
421
 16777215
 74
     1
 91
        4
 64
     7
 65
   257
 75
     1
175
     1
 42
1.0
 92
        0
 66
   257
 43
1.0
 76
     1
 77
     6
 78
     2
 67
     7
 79
     5
170
     0
171
     0
290
     0
174
     0
 93
       13
 44
0.0
173
     0
291
     1
 45
0.0
1001
ACAD
1000
AcDbSavedByObjectVersion
1070
     0
  0
VISUALSTYLE
  5
2D
102
{ACAD_REACTORS
330
2A
102
}
330
2A
100
AcDbVisualStyle
  2
Gouraud
 70
     2
 71
     2
 72
     2
 73
     1
 90
        2
 40
-0.6
 41
30.0
 62
     5
 63
     7
421
 16777215
 74
     0
 91
        4
 64
     7
 65
   257
 75
     1
175
     1
 42
1.0
 92
        0
 66
     7
 43
1.0
 76
     1
 77
     6
 78
     2
 67
     7
 79
     5
170
     0
171
     0
290
     0
174
     0
 93
       13
 44
0.0
173
     0
291
     1
 45
0.0
1001
ACAD
1000
AcDbSavedByObjectVersion
1070
     0
  0
VISUALSTYLE
  5
2E
102
{ACAD_REACTORS
330
2A
102
}
330
2A
100
AcDbVisualStyle
  2
GouraudWithEdges
 70
     3
 71
     2
 72
     2
 73
     1
 90
        2
 40
-0.6
 41
30.0
 62
     5
 63
     7
421
 16777215
 74
     1
 91
        4
 64
     7
 65
   257
 75
     1
175
     1
 42
1.0
 92
        0
 66
   257
 43
1.0
 76
     1
 77
     6
 78
     2
 67
     7
 79
     5
170
     0
171
     0
290
     0
174
     0
 93
       13
 44
0.0
173
     0
291
     1
 45
0.0
1001
ACAD
1000
AcDbSavedByObjectVersion
1070
     0
  0
VISUALSTYLE
  5
38
102
{ACAD_REACTORS
330
2A
102
}
330
2A
100
AcDbVisualStyle
  2
Linepattern
 70
    14
 71
     2
 72
     2
 73
     0
 90
        0
 40
-0.6
 41
-30.0
 62
     5
 63
     7
421
 16777215
 74
     1
 91
        4
 64
     7
 65
   257
 75
     7
175
     7
 42
1.0
 92
        8
 66
     7
 43
1.0
 76
     1
 77
     6
 78
     2
 67
     7
 79
     5
170
     0
171
     0
290
     0
174
     0
 93
        1
 44
0.0
173
     0
291
     1
 45
0.0
1001
ACAD
1000
AcDbSavedByObjectVersion
1070
     0
  0
VISUALSTYLE
  5
33
102
{ACAD_REACTORS
330
2A
102
}
330
2A
100
AcDbVisualStyle
  2
Realistic
 70
     8
 71
     2
 72
     2
 73
     0
 90
        0
 40
-0.6
 41
-30.0
 62
     5
 63
     7
421
 16777215
 74
     1
 91
        0
 64
     7
 65
   257
 75
     1
175
     1
 42
1.0
 92
        8
 66
     8
424
  7895160
 43
1.0
 76
     1
 77
     6
 78
     2
 67
     7
 79
     5
170
     0
171
     0
290
     0
174
     0
 93
       13
 44
0.0
173
     0
291
     0
 45
0.0
1001
ACAD
1000
AcDbSavedByObjectVersion
1070
     0
  0
VISUALSTYLE
  5
37
102
{ACAD_REACTORS
330
2A
102
}
330
2A
100
AcDbVisualStyle
  2
Thicken
 70
    13
 71
     2
 72
     2
 73
     0
 90
        0
 40
-0.6
 41
-30.0
 62
     5
 63
     7
421
 16777215
 74
     1
 91
        4
 64
     7
 65
   257
 75
     1
175
     1
 42
1.0
 92
       12
 66
     7
 43
1.0
 76
     1
 77
     6
 78
     2
 67
     7
 79
     5
170
     0
171
     0
290
     0
174
     0
 93
        1
 44
0.0
173
     0
291
     1
 45
0.0
1001
ACAD
1000
AcDbSavedByObjectVersion
1070
     0
  0
ENDSEC
  0
EOF
