  0
SECTION
  2
HEADER
  9
$ACADVER
  1
AC1015
  9
$ACADMAINTVER
 70
     6
  9
$DWGCODEPAGE
  3
ANSI_1252
  9
$INSBASE
 10
0.0
 20
0.0
 30
0.0
  9
$EXTMIN
 10
-67.5429268828
 20
0.0
 30
0.0
  9
$EXTMAX
 10
71.8788172273
 20
80.3745394008
 30
0.0
  9
$LIMMIN
 10
0.0
 20
0.0
  9
$LIMMAX
 10
420.0
 20
297.0
  9
$ORTHOMODE
 70
     0
  9
$REGENMODE
 70
     1
  9
$FILLMODE
 70
     1
  9
$QTEXTMODE
 70
     0
  9
$MIRRTEXT
 70
     1
  9
$LTSCALE
 40
1.0
  9
$ATTMODE
 70
     1
  9
$TEXTSIZE
 40
3.5
  9
$TRACEWID
 40
1.0
  9
$TEXTSTYLE
  7
Standard
  9
$CLAYER
  8
0
  9
$CELTYPE
  6
ByLayer
  9
$CECOLOR
 62
   256
  9
$CELTSCALE
 40
1.0
  9
$DISPSILH
 70
     0
  9
$DIMSCALE
 40
1.0
  9
$DIMASZ
 40
3.302
  9
$DIMEXO
 40
1.0
  9
$DIMDLI
 40
3.75
  9
$DIMRND
 40
0.0
  9
$DIMDLE
 40
0.0
  9
$DIMEXE
 40
1.0
  9
$DIMTP
 40
0.0
  9
$DIMTM
 40
0.0
  9
$DIMTXT
 40
3.5
  9
$DIMCEN
 40
2.5
  9
$DIMTSZ
 40
0.0
  9
$DIMTOL
 70
     0
  9
$DIMLIM
 70
     0
  9
$DIMTIH
 70
     1
  9
$DIMTOH
 70
     1
  9
$DIMSE1
 70
     0
  9
$DIMSE2
 70
     0
  9
$DIMTAD
 70
     1
  9
$DIMZIN
 70
     0
  9
$DIMBLK
  1

  9
$DIMASO
 70
     1
  9
$DIMSHO
 70
     1
  9
$DIMPOST
  1

  9
$DIMAPOST
  1

  9
$DIMALT
 70
     0
  9
$DIMALTD
 70
     3
  9
$DIMALTF
 40
0.0393700787
  9
$DIMLFAC
 40
1.0
  9
$DIMTOFL
 70
     1
  9
$DIMTVP
 40
0.0
  9
$DIMTIX
 70
     0
  9
$DIMSOXD
 70
     0
  9
$DIMSAH
 70
     0
  9
$DIMBLK1
  1

  9
$DIMBLK2
  1

  9
$DIMSTYLE
  2
ISO-25
  9
$DIMCLRD
 70
     0
  9
$DIMCLRE
 70
     0
  9
$DIMCLRT
 70
     0
  9
$DIMTFAC
 40
1.0
  9
$DIMGAP
 40
1.524
  9
$DIMJUST
 70
     0
  9
$DIMSD1
 70
     0
  9
$DIMSD2
 70
     0
  9
$DIMTOLJ
 70
     0
  9
$DIMTZIN
 70
     0
  9
$DIMALTZ
 70
     0
  9
$DIMALTTZ
 70
     0
  9
$DIMUPT
 70
     0
  9
$DIMDEC
 70
     2
  9
$DIMTDEC
 70
     2
  9
$DIMALTU
 70
     2
  9
$DIMALTTD
 70
     3
  9
$DIMTXSTY
  7
Standard
  9
$DIMAUNIT
 70
     0
  9
$DIMADEC
 70
     2
  9
$DIMALTRND
 40
0.0
  9
$DIMAZIN
 70
     0
  9
$DIMDSEP
 70
    44
  9
$DIMATFIT
 70
     3
  9
$DIMFRAC
 70
     0
  9
$DIMLDRBLK
  1

  9
$DIMLUNIT
 70
     2
  9
$DIMLWD
 70
    -2
  9
$DIMLWE
 70
    -2
  9
$DIMTMOVE
 70
     0
  9
$LUNITS
 70
     2
  9
$LUPREC
 70
     2
  9
$SKETCHINC
 40
1.0
  9
$FILLETRAD
 40
10.0
  9
$AUNITS
 70
     0
  9
$AUPREC
 70
     2
  9
$MENU
  1
.
  9
$ELEVATION
 40
0.0
  9
$PELEVATION
 40
0.0
  9
$THICKNESS
 40
0.0
  9
$LIMCHECK
 70
     0
  9
$CHAMFERA
 40
0.0
  9
$CHAMFERB
 40
0.0
  9
$CHAMFERC
 40
0.0
  9
$CHAMFERD
 40
0.0
  9
$SKPOLY
 70
     0
  9
$TDCREATE
 40
2458150.713334688
  9
$TDUCREATE
 40
2458150.630001354
  9
$TDUPDATE
 40
2458150.713386099
  9
$TDUUPDATE
 40
2458150.630052766
  9
$TDINDWG
 40
0.0000000116
  9
$TDUSRTIMER
 40
0.0000000116
  9
$USRTIMER
 70
     1
  9
$ANGBASE
 50
0.0
  9
$ANGDIR
 70
     0
  9
$PDMODE
 70
     0
  9
$PDSIZE
 40
-1.0
  9
$PLINEWID
 40
0.0
  9
$SPLFRAME
 70
     0
  9
$SPLINETYPE
 70
     6
  9
$SPLINESEGS
 70
     8
  9
$HANDSEED
  5
A2
  9
$SURFTAB1
 70
     6
  9
$SURFTAB2
 70
     6
  9
$SURFTYPE
 70
     6
  9
$SURFU
 70
     6
  9
$SURFV
 70
     6
  9
$UCSBASE
  2

  9
$UCSNAME
  2

  9
$UCSORG
 10
0.0
 20
0.0
 30
0.0
  9
$UCSXDIR
 10
1.0
 20
0.0
 30
0.0
  9
$UCSYDIR
 10
0.0
 20
1.0
 30
0.0
  9
$UCSORTHOREF
  2

  9
$UCSORTHOVIEW
 70
     0
  9
$UCSORGTOP
 10
0.0
 20
0.0
 30
0.0
  9
$UCSORGBOTTOM
 10
0.0
 20
0.0
 30
0.0
  9
$UCSORGLEFT
 10
0.0
 20
0.0
 30
0.0
  9
$UCSORGRIGHT
 10
0.0
 20
0.0
 30
0.0
  9
$UCSORGFRONT
 10
0.0
 20
0.0
 30
0.0
  9
$UCSORGBACK
 10
0.0
 20
0.0
 30
0.0
  9
$PUCSBASE
  2

  9
$PUCSNAME
  2

  9
$PUCSORG
 10
0.0
 20
0.0
 30
0.0
  9
$PUCSXDIR
 10
1.0
 20
0.0
 30
0.0
  9
$PUCSYDIR
 10
0.0
 20
1.0
 30
0.0
  9
$PUCSORTHOREF
  2

  9
$PUCSORTHOVIEW
 70
     0
  9
$PUCSORGTOP
 10
0.0
 20
0.0
 30
0.0
  9
$PUCSORGBOTTOM
 10
0.0
 20
0.0
 30
0.0
  9
$PUCSORGLEFT
 10
0.0
 20
0.0
 30
0.0
  9
$PUCSORGRIGHT
 10
0.0
 20
0.0
 30
0.0
  9
$PUCSORGFRONT
 10
0.0
 20
0.0
 30
0.0
  9
$PUCSORGBACK
 10
0.0
 20
0.0
 30
0.0
  9
$USERI1
 70
     0
  9
$USERI2
 70
     0
  9
$USERI3
 70
     0
  9
$USERI4
 70
     0
  9
$USERI5
 70
     0
  9
$USERR1
 40
0.0
  9
$USERR2
 40
0.0
  9
$USERR3
 40
0.0
  9
$USERR4
 40
0.0
  9
$USERR5
 40
0.0
  9
$WORLDVIEW
 70
     1
  9
$SHADEDGE
 70
     3
  9
$SHADEDIF
 70
    70
  9
$TILEMODE
 70
     1
  9
$MAXACTVP
 70
    64
  9
$PINSBASE
 10
0.0
 20
0.0
 30
0.0
  9
$PLIMCHECK
 70
     0
  9
$PEXTMIN
 10
1.0000000000E+20
 20
1.0000000000E+20
 30
1.0000000000E+20
  9
$PEXTMAX
 10
-1.0000000000E+20
 20
-1.0000000000E+20
 30
-1.0000000000E+20
  9
$PLIMMIN
 10
0.0
 20
0.0
  9
$PLIMMAX
 10
420.0
 20
297.0
  9
$UNITMODE
 70
     0
  9
$VISRETAIN
 70
     1
  9
$PLINEGEN
 70
     0
  9
$PSLTSCALE
 70
     1
  9
$TREEDEPTH
 70
  3020
  9
$CMLSTYLE
  2
Standard
  9
$CMLJUST
 70
     0
  9
$CMLSCALE
 40
20.0
  9
$PROXYGRAPHICS
 70
     1
  9
$MEASUREMENT
 70
     1
  9
$CELWEIGHT
370
    -1
  9
$ENDCAPS
280
     0
  9
$JOINSTYLE
280
     0
  9
$LWDISPLAY
290
     1
  9
$INSUNITS
 70
     4
  9
$HYPERLINKBASE
  1

  9
$STYLESHEET
  1

  9
$XEDIT
290
     1
  9
$CEPSNTYPE
380
     0
  9
$PSTYLEMODE
290
     1
  9
$FINGERPRINTGUID
  2
{8253B1E9-C08D-4BC5-970D-936A5C08E386}
  9
$VERSIONGUID
  2
{FAEB1C32-E019-11D5-929B-00C0DF256EC4}
  9
$EXTNAMES
290
     1
  9
$PSVPSCALE
 40
0.0
  9
$OLESTARTUP
290
     0
  0
ENDSEC
  0
SECTION
  2
CLASSES
  0
CLASS
  1
ACDBDICTIONARYWDFLT
  2
AcDbDictionaryWithDefault
  3
ObjectDBX Classes
 90
        0
280
     0
281
     0
  0
CLASS
  1
VISUALSTYLE
  2
AcDbVisualStyle
  3
ObjectDBX Classes
 90
     4095
280
     0
281
     0
  0
CLASS
  1
MATERIAL
  2
AcDbMaterial
  3
ObjectDBX Classes
 90
     1153
280
     0
281
     0
  0
CLASS
  1
SCALE
  2
AcDbScale
  3
ObjectDBX Classes
 90
     1153
280
     0
281
     0
  0
CLASS
  1
TABLESTYLE
  2
AcDbTableStyle
  3
ObjectDBX Classes
 90
     4095
280
     0
281
     0
  0
CLASS
  1
MLEADERSTYLE
  2
AcDbMLeaderStyle
  3
ACDB_MLEADERSTYLE_CLASS
 90
     4095
280
     0
281
     0
  0
CLASS
  1
SUN
  2
AcDbSun
  3
SCENEOE
 90
     1153
280
     0
281
     0
  0
CLASS
  1
ACDBPLACEHOLDER
  2
AcDbPlaceHolder
  3
ObjectDBX Classes
 90
        0
280
     0
281
     0
  0
CLASS
  1
LAYOUT
  2
AcDbLayout
  3
ObjectDBX Classes
 90
        0
280
     0
281
     0
  0
ENDSEC
  0
SECTION
  2
TABLES
  0
TABLE
  2
VPORT
  5
8
330
0
100
AcDbSymbolTable
 70
     1
  0
VPORT
  5
29
330
8
100
AcDbSymbolTableRecord
100
AcDbViewportTableRecord
  2
*Active
 70
     0
 10
0.0
 20
0.0
 11
1.0
 21
1.0
 12
2.1679451723
 22
40.1872697004
 13
0.0
 23
0.0
 14
10.0
 24
10.0
 15
10.0
 25
10.0
 16
0.0
 26
0.0
 36
1.0
 17
0.0
 27
0.0
 37
0.0
 40
81.9820301888
 41
1.7346506139
 42
50.0
 43
0.0
 44
0.0
 50
0.0
 51
0.0
 71
     0
 72
   100
 73
     1
 74
     3
 75
     0
 76
     0
 77
     0
 78
     0
281
     0
 65
     1
110
0.0
120
0.0
130
0.0
111
1.0
121
0.0
131
0.0
112
0.0
122
1.0
132
0.0
 79
     0
146
0.0
  0
ENDTAB
  0
TABLE
  2
LTYPE
  5
5
330
0
100
AcDbSymbolTable
 70
     6
  0
LTYPE
  5
14
330
5
100
AcDbSymbolTableRecord
100
AcDbLinetypeTableRecord
  2
ByBlock
 70
     0
  3

 72
    65
 73
     0
 40
0.0
  0
LTYPE
  5
15
330
5
100
AcDbSymbolTableRecord
100
AcDbLinetypeTableRecord
  2
ByLayer
 70
     0
  3

 72
    65
 73
     0
 40
0.0
  0
LTYPE
  5
16
330
5
100
AcDbSymbolTableRecord
100
AcDbLinetypeTableRecord
  2
Continuous
 70
     0
  3
Solid line
 72
    65
 73
     0
 40
0.0
  0
LTYPE
  5
6E
330
5
100
AcDbSymbolTableRecord
100
AcDbLinetypeTableRecord
  2
HIDDEN
 70
     0
  3
Hidden __ __ __ __ __ __ __ __ __ __ __ __ __ __
 72
    65
 73
     2
 40
1.905
 49
1.27
 74
     0
 49
-0.635
 74
     0
  0
LTYPE
  5
6F
330
5
100
AcDbSymbolTableRecord
100
AcDbLinetypeTableRecord
  2
PHANTOM
 70
     0
  3
Phantom ______  __  __  ______  __  __  ______
 72
    65
 73
     6
 40
12.7
 49
6.35
 74
     0
 49
-1.27
 74
     0
 49
1.27
 74
     0
 49
-1.27
 74
     0
 49
1.27
 74
     0
 49
-1.27
 74
     0
  0
LTYPE
  5
70
330
5
100
AcDbSymbolTableRecord
100
AcDbLinetypeTableRecord
  2
CENTER
 70
     0
  3
Center ____ _ ____ _ ____ _ ____ _ ____ _ ____
 72
    65
 73
     4
 40
10.16
 49
6.35
 74
     0
 49
-1.27
 74
     0
 49
1.27
 74
     0
 49
-1.27
 74
     0
  0
LTYPE
  5
71
330
5
100
AcDbSymbolTableRecord
100
AcDbLinetypeTableRecord
  2
CENTERX2
 70
     0
  3
Center (2x) ________  __  ________  __  _____
 72
    65
 73
     4
 40
20.32
 49
12.7
 74
     0
 49
-2.54
 74
     0
 49
2.54
 74
     0
 49
-2.54
 74
     0
  0
LTYPE
  5
72
330
5
100
AcDbSymbolTableRecord
100
AcDbLinetypeTableRecord
  2
DOT2
 70
     0
  3
Dot (.5x) ........................................
 72
    65
 73
     2
 40
0.635
 49
0.0
 74
     0
 49
-0.635
 74
     0
  0
ENDTAB
  0
TABLE
  2
LAYER
  5
2
330
0
100
AcDbSymbolTable
 70
     1
  0
LAYER
  5
10
330
2
100
AcDbSymbolTableRecord
100
AcDbLayerTableRecord
  2
0
 70
     0
 62
     7
  6
Continuous
370
    -3
390
F
  0
ENDTAB
  0
TABLE
  2
STYLE
  5
3
330
0
100
AcDbSymbolTable
 70
     1
  0
STYLE
  5
11
330
3
100
AcDbSymbolTableRecord
100
AcDbTextStyleTableRecord
  2
Standard
 70
     0
 40
0.0
 41
1.0
 50
0.0
 71
     0
 42
3.5
  3
txt
  4

  0
ENDTAB
  0
TABLE
  2
VIEW
  5
6
330
0
100
AcDbSymbolTable
 70
     0
  0
ENDTAB
  0
TABLE
  2
UCS
  5
7
330
0
100
AcDbSymbolTable
 70
     0
  0
ENDTAB
  0
TABLE
  2
APPID
  5
9
330
0
100
AcDbSymbolTable
 70
     1
  0
APPID
  5
12
330
9
100
AcDbSymbolTableRecord
100
AcDbRegAppTableRecord
  2
ACAD
 70
     0
  0
ENDTAB
  0
TABLE
  2
DIMSTYLE
  5
A
330
0
100
AcDbSymbolTable
 70
     1
100
AcDbDimStyleTable
  0
DIMSTYLE
105
27
330
A
100
AcDbSymbolTableRecord
100
AcDbDimStyleTableRecord
  2
ISO-25
 70
     0
 41
2.5
 42
0.625
 43
3.75
 44
1.25
 73
     0
 74
     0
 77
     1
 78
     8
140
2.5
141
2.5
143
0.0393700787
147
0.625
171
     3
172
     1
178
     0
271
     2
272
     2
274
     3
278
    44
283
     0
284
     8
340
11
  0
ENDTAB
  0
TABLE
  2
BLOCK_RECORD
  5
1
330
0
100
AcDbSymbolTable
 70
     1
  0
BLOCK_RECORD
  5
1F
330
1
100
AcDbSymbolTableRecord
100
AcDbBlockTableRecord
  2
*Model_Space
340
22
  0
BLOCK_RECORD
  5
1B
330
1
100
AcDbSymbolTableRecord
100
AcDbBlockTableRecord
  2
*Paper_Space
340
1E
  0
BLOCK_RECORD
  5
23
330
1
100
AcDbSymbolTableRecord
100
AcDbBlockTableRecord
  2
*Paper_Space0
340
26
  0
ENDTAB
  0
ENDSEC
  0
SECTION
  2
BLOCKS
  0
BLOCK
  5
20
330
1F
100
AcDbEntity
  8
0
100
AcDbBlockBegin
  2
*Model_Space
 70
     0
 10
0.0
 20
0.0
 30
0.0
  3
*Model_Space
  1

  0
ENDBLK
  5
21
330
1F
100
AcDbEntity
  8
0
100
AcDbBlockEnd
  0
BLOCK
  5
1C
330
1B
100
AcDbEntity
 67
     1
  8
0
100
AcDbBlockBegin
  2
*Paper_Space
 70
     0
 10
0.0
 20
0.0
 30
0.0
  3
*Paper_Space
  1

  0
ENDBLK
  5
1D
330
1B
100
AcDbEntity
 67
     1
  8
0
100
AcDbBlockEnd
  0
BLOCK
  5
24
330
23
100
AcDbEntity
  8
0
100
AcDbBlockBegin
  2
*Paper_Space0
 70
     0
 10
0.0
 20
0.0
 30
0.0
  3
*Paper_Space0
  1

  0
ENDBLK
  5
25
330
23
100
AcDbEntity
  8
0
100
AcDbBlockEnd
  0
ENDSEC
  0
SECTION
  2
ENTITIES
  0
CIRCLE
  5
74
330
1F
100
AcDbEntity
  8
0
  6
Continuous
 62
     7
370
    15
100
AcDbCircle
 10
57.1611699222
 20
61.960687537
 30
0.0
 40
1.499999999999986
  0
CIRCLE
  5
77
330
1F
100
AcDbEntity
  8
0
  6
Continuous
 62
     7
370
    15
100
AcDbCircle
 10
12.7041053065
 20
63.5131624427
 30
0.0
 40
1.500000000000002
  0
SPLINE
  5
78
330
1F
100
AcDbEntity
  8
0
  6
Continuous
 62
     7
370
    15
100
AcDbSpline
210
0.0
220
0.0
230
1.0
 70
     8
 71
     3
 72
    40
 73
    36
 74
     0
 42
0.000000001
 43
0.00000001
 40
0.0
 40
0.0
 40
0.0
 40
0.0
 40
0.003266565070225
 40
0.0189988231901799
 40
0.0268664840563243
 40
0.0347349150938213
 40
0.0504754813027141
 40
0.0662217210368713
 40
0.0819700125642089
 40
0.1134711052990423
 40
0.1449883256657032
 40
0.1765280068075414
 40
0.2396176304759879
 40
0.3027865058305871
 40
0.366017893007434
 40
0.4292944429594665
 40
0.4926076471054073
 40
0.5242751933978136
 40
0.5559478781831764
 40
0.5876246831231949
 40
0.6193047097953079
 40
0.6509862456348948
 40
0.6826693041316356
 40
0.7143509535914895
 40
0.7460330899490423
 40
0.777710468466276
 40
0.8093864468194086
 40
0.8410565678944303
 40
0.8727230728359923
 40
0.9043841080212979
 40
0.936036626462143
 40
0.9516168347136912
 40
0.9677426255555984
 40
0.9833943800899636
 40
1.0
 40
1.0
 40
1.0
 40
1.0
 10
53.72086447266275
 20
46.76584530702309
 30
0.0
 10
53.6648116034842
 20
46.80834600104997
 30
0.0
 10
53.33879986701752
 20
47.0555362923552
 30
0.0
 10
52.885580815655
 20
47.41527691745142
 30
0.0
 10
52.35915011945967
 20
47.84197026854662
 30
0.0
 10
51.83352941183795
 20
48.269959312036
 30
0.0
 10
51.17350606725162
 20
48.8016181804795
 30
0.0
 10
50.36409262133351
 20
49.41801765065775
 30
0.0
 10
49.25220045511234
 20
50.19580720389807
 30
0.0
 10
47.78770812325463
 20
51.05888995528422
 30
0.0
 10
45.9250593045096
 20
51.89141463366602
 30
0.0
 10
43.3423786784229
 20
52.74536826478452
 30
0.0
 10
39.9935483638893
 20
53.39602691464096
 30
0.0
 10
35.91765663664717
 20
53.69185313128038
 30
0.0
 10
31.82957699227761
 20
53.63208392949646
 30
0.0
 10
27.75276686593905
 20
53.30838149229915
 30
0.0
 10
24.37078637921444
 20
52.88189373598343
 30
0.0
 10
21.67277259029525
 20
52.48248252950964
 30
0.0
 10
19.65170839733833
 20
52.16302977683262
 30
0.0
 10
17.63193842420468
 20
51.83399786571074
 30
0.0
 10
15.6118134617067
 20
51.50592549661469
 30
0.0
 10
13.58937926670378
 20
51.19135028419962
 30
0.0
 10
11.56289932045769
 20
50.90329998572502
 30
0.0
 10
9.530813452613314
 20
50.65688802343227
 30
0.0
 10
7.492570013856225
 20
50.46786378806048
 30
0.0
 10
5.448814250228906
 20
50.35152773546908
 30
0.0
 10
3.402039126590522
 20
50.32342865088942
 30
0.0
 10
1.356310322215319
 20
50.39190980483077
 30
0.0
 10
-0.6829777110187634
 20
50.56457696638864
 30
0.0
 10
-2.710903081179137
 20
50.83678121904845
 30
0.0
 10
-4.382900335006705
 20
51.14128460487223
 30
0.0
 10
-5.717440030797355
 20
51.42536546816199
 30
0.0
 10
-6.710891433933448
 20
51.65599228764677
 30
0.0
 10
-7.722062957914424
 20
51.9073726585342
 30
0.0
 10
-8.393226798647518
 20
52.08648175972603
 30
0.0
 10
-8.73873203050647
 20
52.17868447950865
 30
0.0
  0
CIRCLE
  5
79
330
1F
100
AcDbEntity
  8
0
  6
Continuous
 62
     7
370
    15
100
AcDbCircle
 10
-31.7529593092
 20
65.0656373485
 30
0.0
 40
1.500000000000004
  0
SPLINE
  5
7D
330
1F
100
AcDbEntity
  8
0
  6
Continuous
 62
     7
370
    15
100
AcDbSpline
210
0.0
220
0.0
230
1.0
 70
     8
 71
     3
 72
     8
 73
     4
 74
     0
 42
0.000000001
 43
0.00000001
 40
0.00000104408109
 40
0.00000104408109
 40
0.00000104408109
 40
0.00000104408109
 40
1.0
 40
1.0
 40
1.0
 40
1.0
 10
-50.85545976820662
 20
47.39049706207192
 30
0.0
 10
-53.88912813545789
 20
41.14984785463808
 30
0.0
 10
-59.02716051264156
 20
30.21916609236462
 30
0.0
 10
-67.54292688280306
 20
18.92366125900469
 30
0.0
  0
SPLINE
  5
80
330
1F
100
AcDbEntity
  8
0
  6
Continuous
 62
     7
370
    15
100
AcDbSpline
210
0.0
220
0.0
230
1.0
 70
     8
 71
     3
 72
    28
 73
    24
 74
     0
 42
0.000000001
 43
0.00000001
 40
0.0
 40
0.0
 40
0.0
 40
0.0
 40
0.0624474273882935
 40
0.1249184745045172
 40
0.1874119870270783
 40
0.2499212772908697
 40
0.3124472635073386
 40
0.374975249553327
 40
0.4403016445511193
 40
0.5000485296117327
 40
0.5646582561701997
 40
0.6250926771950355
 40
0.6888021640971425
 40
0.750097042206323
 40
0.7812161283788546
 40
0.8125973642811924
 40
0.8437608555166366
 40
0.8750953198270839
 40
0.8989144912114421
 40
0.9232752336369228
 40
0.9482182395893101
 40
0.9737814210951022
 40
1.0
 40
1.0
 40
1.0
 40
1.0
 10
-50.85545026601626
 20
47.39051660930848
 30
0.0
 10
-50.44986143764225
 20
48.22793174550709
 30
0.0
 10
-49.63853037348935
 20
49.90307875661573
 30
0.0
 10
-48.48402422237091
 20
52.44586661766604
 30
0.0
 10
-47.3665555308956
 20
55.00586073972583
 30
0.0
 10
-46.24682793310004
 20
57.56577143582555
 30
0.0
 10
-45.0967738639029
 20
60.11293231977486
 30
0.0
 10
-43.86224515761138
 20
62.66729818915698
 30
0.0
 10
-42.5462458159183
 20
65.13448421555526
 30
0.0
 10
-41.08836262188104
 20
67.55729029055395
 30
0.0
 10
-39.5128673669972
 20
69.8186511531711
 30
0.0
 10
-37.71874290580064
 20
71.98899052191709
 30
0.0
 10
-35.75406569442514
 20
73.93910598626289
 30
0.0
 10
-33.92618921093742
 20
75.38705985441676
 30
0.0
 10
-32.38071697914472
 20
76.39573289809661
 30
0.0
 10
-31.16699776606806
 20
77.08629675663819
 30
0.0
 10
-29.9117344971986
 20
77.70517147785414
 30
0.0
 10
-28.72623729004852
 20
78.2057526055943
 30
0.0
 10
-27.61249573024492
 20
78.61064615580962
 30
0.0
 10
-26.57361847050094
 20
78.93996120772712
 30
0.0
 10
-25.49727637255374
 20
79.2337191147669
 30
0.0
 10
-24.38405346452056
 20
79.4952997662888
 30
0.0
 10
-23.62569060143754
 20
79.63762868055761
 30
0.0
 10
-23.24170990231512
 20
79.70969386025814
 30
0.0
  0
SPLINE
  5
83
330
1F
100
AcDbEntity
  8
0
  6
Continuous
 62
     7
370
    15
100
AcDbSpline
210
0.0
220
0.0
230
1.0
 70
     8
 71
     3
 72
    45
 73
    41
 74
     0
 42
0.000000001
 43
0.00000001
 40
0.0
 40
0.0
 40
0.0
 40
0.0
 40
0.0066641402097965
 40
0.0134561609252079
 40
0.0203777530900339
 40
0.0274305144519853
 40
0.041300489125667
 40
0.0557760952539406
 40
0.0700777779875845
 40
0.0850880876139357
 40
0.1153798833923964
 40
0.146637388574184
 40
0.1788241319741357
 40
0.2118856345635865
 40
0.2457570313697594
 40
0.2803670706796219
 40
0.3156312913987996
 40
0.3877547627175821
 40
0.4613033576025323
 40
0.5352683148064153
 40
0.5720518850268858
 40
0.6084853814737677
 40
0.6443952170248378
 40
0.6796076406487925
 40
0.7139504106923534
 40
0.7472565246916656
 40
0.7805055160685327
 40
0.8101168416810981
 40
0.8399561921650927
 40
0.8670737189004937
 40
0.8931363910196716
 40
0.9056101162200634
 40
0.9175401863476496
 40
0.9404694125961653
 40
0.9615240988528814
 40
0.9696540867732713
 40
0.9775518875021175
 40
0.9852316604990909
 40
0.9927088039632169
 40
1.0
 40
1.0
 40
1.0
 40
1.0
 10
-22.73417303901543
 20
79.79600695451357
 30
0.0
 10
-22.5347654696757
 20
79.82744634050634
 30
0.0
 10
-22.13212382975409
 20
79.89092841381061
 30
0.0
 10
-21.52049494262908
 20
79.97449458311208
 30
0.0
 10
-20.89607332843359
 20
80.05075727422823
 30
0.0
 10
-20.05736108439797
 20
80.1402577742884
 30
0.0
 10
-18.98885838366485
 20
80.23160730793512
 30
0.0
 10
-17.69922490174534
 20
80.30924988609877
 30
0.0
 10
-16.37367884481038
 20
80.35916489675091
 30
0.0
 10
-14.56837994219425
 20
80.3913121673657
 30
0.0
 10
-12.24896262157407
 20
80.37132366984096
 30
0.0
 10
-9.411038054896922
 20
80.27407815437104
 30
0.0
 10
-6.491562153880871
 20
80.12285079505799
 30
0.0
 10
-3.494860277830639
 20
79.93634488649207
 30
0.0
 10
-0.4259586595465082
 20
79.72922756693502
 30
0.0
 10
2.709449257556968
 20
79.51665737475398
 30
0.0
 10
7.001711318689509
 20
79.2377243561694
 30
0.0
 10
12.47410679077881
 20
78.93011331865688
 30
0.0
 10
19.12248048985399
 20
78.67036006028087
 30
0.0
 10
24.70376655903362
 20
78.53987357994198
 30
0.0
 10
29.16166462613003
 20
78.47556357173278
 30
0.0
 10
32.46707226609333
 20
78.4387877056347
 30
0.0
 10
35.72490790828917
 20
78.40444444012368
 30
0.0
 10
38.91933957252531
 20
78.36364258019688
 30
0.0
 10
42.03467377147651
 20
78.30743642331207
 30
0.0
 10
45.08992803439472
 20
78.22340655775585
 30
0.0
 10
48.00049143102314
 20
78.10015592302362
 30
0.0
 10
50.80329982221336
 20
77.92576574810772
 30
0.0
 10
53.41564391880762
 20
77.69284347630233
 30
0.0
 10
55.91205994713995
 20
77.3851940430077
 30
0.0
 10
57.87472665323656
 20
77.05880241554863
 30
0.0
 10
59.37136967097481
 20
76.74634549774245
 30
0.0
 10
60.76567235809936
 20
76.41145455677662
 30
0.0
 10
62.39261991322289
 20
75.93524457099912
 30
0.0
 10
63.86949693602242
 20
75.37123264797724
 30
0.0
 10
64.8891220632195
 20
74.89932645854861
 30
0.0
 10
65.52819946048362
 20
74.57122484918943
 30
0.0
 10
66.13478956234313
 20
74.22483357801987
 30
0.0
 10
66.71084249277833
 20
73.86276972841505
 30
0.0
 10
67.0741274225763
 20
73.6015595530462
 30
0.0
 10
67.25348283624369
 20
73.47259890751802
 30
0.0
  0
CIRCLE
  5
84
330
1F
100
AcDbEntity
  8
0
  6
Continuous
 62
     7
370
    15
100
AcDbCircle
 10
57.1611699222
 20
61.960687537
 30
0.0
 40
1.499999999999986
  0
SPLINE
  5
85
330
1F
100
AcDbEntity
  8
0
  6
Continuous
 62
     7
370
    15
100
AcDbSpline
210
0.0
220
0.0
230
1.0
 70
     8
 71
     3
 72
    34
 73
    30
 74
     0
 42
0.000000001
 43
0.00000001
 40
0.0
 40
0.0
 40
0.0
 40
0.0
 40
0.0151724644711006
 40
0.0313110268382702
 40
0.06260022302128
 40
0.093867490212898
 40
0.1251134911980397
 40
0.1563392872609621
 40
0.1875478140140843
 40
0.2187434448519126
 40
0.2499258155366768
 40
0.2810988265113937
 40
0.3122600357670844
 40
0.3434184321680946
 40
0.3745664717043029
 40
0.4368106471418115
 40
0.4679612089535642
 40
0.4991135155914045
 40
0.5302709819691718
 40
0.5614438490416893
 40
0.6237793359096429
 40
0.686195478350489
 40
0.7487178102205794
 40
0.8113302307807395
 40
0.8740829481244785
 40
0.9050330817802892
 40
0.9369646262976853
 40
0.9678897713385035
 40
1.0
 40
1.0
 40
1.0
 40
1.0
 10
-8.73873203050647
 20
52.17868447950865
 30
0.0
 10
-8.915611045484248
 20
52.2268975877048
 30
0.0
 10
-9.28063174437234
 20
52.3263937458643
 30
0.0
 10
-10.00897776895438
 20
52.53054230245962
 30
0.0
 10
-10.92292668394735
 20
52.7930233052522
 30
0.0
 10
-12.01071932505241
 20
53.11142454687887
 30
0.0
 10
-13.09752231489765
 20
53.43047117710049
 30
0.0
 10
-14.18468446747945
 20
53.74577850075786
 30
0.0
 10
-15.27410122527525
 20
54.05102497939163
 30
0.0
 10
-16.36748079254558
 20
54.33986261641367
 30
0.0
 10
-17.46665997698119
 20
54.60418856210341
 30
0.0
 10
-18.57288557447238
 20
54.83576308932166
 30
0.0
 10
-19.6871446737852
 20
55.02382360583936
 30
0.0
 10
-20.80926760043204
 20
55.15738059656957
 30
0.0
 10
-22.31213450647895
 20
55.24597379289868
 30
0.0
 10
-23.82319610560704
 20
55.17461990959405
 30
0.0
 10
-25.30500220143527
 20
54.90137278930776
 30
0.0
 10
-26.39359942668066
 20
54.59446926324325
 30
0.0
 10
-27.44804670558806
 20
54.18475949811122
 30
0.0
 10
-28.7988004905478
 20
53.51395012939633
 30
0.0
 10
-30.37180564592255
 20
52.46176788467569
 30
0.0
 10
-32.06843754229114
 20
50.95680306333173
 30
0.0
 10
-33.59750932710789
 20
49.27985221957471
 30
0.0
 10
-34.99122687361881
 20
47.48545986219704
 30
0.0
 10
-36.05355975502862
 20
45.92249998880831
 30
0.0
 10
-36.86148467897423
 20
44.6371894165237
 30
0.0
 10
-37.44317151213932
 20
43.66424437320835
 30
0.0
 10
-38.01331873558711
 20
42.66830044194127
 30
0.0
 10
-38.37685607365356
 20
41.9989655200333
 30
0.0
 10
-38.56204204728533
 20
41.6580062120884
 30
0.0
  0
CIRCLE
  5
87
330
1F
100
AcDbEntity
  8
0
  6
Continuous
 62
     7
370
    15
100
AcDbCircle
 10
12.7041053065
 20
63.5131624427
 30
0.0
 40
1.500000000000002
  0
SPLINE
  5
88
330
1F
100
AcDbEntity
  8
0
  6
Continuous
 62
     7
370
    15
100
AcDbSpline
210
0.0
220
0.0
230
1.0
 70
     8
 71
     3
 72
   116
 73
   112
 74
     0
 42
0.000000001
 43
0.00000001
 40
0.0
 40
0.0
 40
0.0
 40
0.0
 40
0.050154591911785
 40
0.050154591911785
 40
0.051131154411785
 40
0.051131154411785
 40
0.052107716911785
 40
0.052107716911785
 40
0.054060841911785
 40
0.054060841911785
 40
0.057967091911785
 40
0.057967091911785
 40
0.065779591911785
 40
0.065779591911785
 40
0.081404591911785
 40
0.081404591911785
 40
0.112654591911785
 40
0.112654591911785
 40
0.113631154411785
 40
0.113631154411785
 40
0.114607716911785
 40
0.114607716911785
 40
0.116560841911785
 40
0.116560841911785
 40
0.120467091911785
 40
0.120467091911785
 40
0.128279591911785
 40
0.128279591911785
 40
0.143904591911785
 40
0.143904591911785
 40
0.175154591911785
 40
0.175154591911785
 40
0.237654591911785
 40
0.237654591911785
 40
0.238631154411785
 40
0.238631154411785
 40
0.239607716911785
 40
0.239607716911785
 40
0.241560841911785
 40
0.241560841911785
 40
0.245467091911785
 40
0.245467091911785
 40
0.253279591911785
 40
0.253279591911785
 40
0.268904591911785
 40
0.268904591911785
 40
0.300154591911785
 40
0.300154591911785
 40
0.362654591911785
 40
0.362654591911785
 40
0.363631154411785
 40
0.363631154411785
 40
0.364607716911785
 40
0.364607716911785
 40
0.366560841911785
 40
0.366560841911785
 40
0.370467091911785
 40
0.370467091911785
 40
0.378279591911785
 40
0.378279591911785
 40
0.393904591911785
 40
0.393904591911785
 40
0.425154591911785
 40
0.425154591911785
 40
0.427107716911785
 40
0.427107716911785
 40
0.429060841911785
 40
0.429060841911785
 40
0.432967091911785
 40
0.432967091911785
 40
0.440779591911785
 40
0.440779591911785
 40
0.456404591911785
 40
0.456404591911785
 40
0.487654591911785
 40
0.487654591911785
 40
0.491560841911785
 40
0.491560841911785
 40
0.495467091911785
 40
0.495467091911785
 40
0.503279591911785
 40
0.503279591911785
 40
0.518904591911785
 40
0.518904591911785
 40
0.550154591911785
 40
0.550154591911785
 40
0.557967091911785
 40
0.557967091911785
 40
0.565779591911785
 40
0.565779591911785
 40
0.581404591911785
 40
0.581404591911785
 40
0.612654591911785
 40
0.612654591911785
 40
0.628279591911785
 40
0.628279591911785
 40
0.643904591911785
 40
0.643904591911785
 40
0.675154591911785
 40
0.675154591911785
 40
0.737654591911785
 40
0.737654591911785
 40
0.753279591911785
 40
0.753279591911785
 40
0.768904591911785
 40
0.768904591911785
 40
0.800154591911785
 40
0.800154591911785
 40
0.862654591911785
 40
0.862654591911785
 40
0.987654591911785
 40
0.987654591911785
 40
0.987654591911785
 40
0.987654591911785
 10
55.16953533494845
 20
46.37740339506682
 30
0.0
 10
56.24120088654215
 20
46.50921309345738
 30
0.0
 10
57.27403836365962
 20
46.70434307258207
 30
0.0
 10
58.28740217175541
 20
46.96782563002867
 30
0.0
 10
58.30416719073531
 20
46.97220887460789
 30
0.0
 10
58.34024432311137
 20
46.98168604400716
 30
0.0
 10
58.35826879194661
 20
46.98644517111754
 30
0.0
 10
58.41229990639398
 20
47.00078417968097
 30
0.0
 10
58.44826425994773
 20
47.01042568836627
 30
0.0
 10
58.55598815237556
 20
47.03959672335123
 30
0.0
 10
58.62757852301617
 20
47.05937275857995
 30
0.0
 10
58.84167296200421
 20
47.11968689998231
 30
0.0
 10
58.98350035741783
 20
47.16121104187219
 30
0.0
 10
59.40627585192347
 20
47.28972761040676
 30
0.0
 10
59.68451725928027
 20
47.38066417991634
 30
0.0
 10
60.50841471440979
 20
47.6692504599047
 30
0.0
 10
61.04324399524164
 20
47.88267674184311
 30
0.0
 10
61.57989988655576
 20
48.12446538084908
 30
0.0
 10
61.59295745850442
 20
48.13037027514503
 30
0.0
 10
61.62223627293598
 20
48.14364913754776
 30
0.0
 10
61.63686199440048
 20
48.15030424863314
 30
0.0
 10
61.68069810154002
 20
48.17031662154137
 30
0.0
 10
61.70986742996118
 20
48.18372092301628
 30
0.0
 10
61.79721118620912
 20
48.22412198604926
 30
0.0
 10
61.8552213850203
 20
48.25130690621559
 30
0.0
 10
62.02859506539154
 20
48.33361430114763
 30
0.0
 10
62.14330163088928
 20
48.38948941034637
 30
0.0
 10
62.48479366313322
 20
48.56012527567473
 30
0.0
 10
62.70895146563014
 20
48.6778965695365
 30
0.0
 10
63.37091421612389
 20
49.04325260205041
 30
0.0
 10
63.79820850712362
 20
49.30287949163115
 30
0.0
 10
65.03804875213454
 20
50.12992876408774
 30
0.0
 10
65.80855207815745
 20
50.74551975067796
 30
0.0
 10
66.53416179324867
 20
51.43595766396356
 30
0.0
 10
66.5424746768456
 20
51.44388939210115
 30
0.0
 10
66.56191413960843
 20
51.4624737326704
 30
0.0
 10
66.57162165524981
 20
51.47177606651798
 30
0.0
 10
66.60070755495391
 20
51.49971355874948
 30
0.0
 10
66.62004929179653
 20
51.51837920782224
 30
0.0
 10
66.67792791344405
 20
51.57449811779575
 30
0.0
 10
66.71631820936864
 20
51.61207334145175
 30
0.0
 10
66.83090274162099
 20
51.72528686344072
 30
0.0
 10
66.9065106224274
 20
51.80141301279468
 30
0.0
 10
67.13098884276128
 20
52.03174286494045
 30
0.0
 10
67.27751376020335
 20
52.18789797181619
 30
0.0
 10
67.70770682418784
 20
52.66416890877907
 30
0.0
 10
67.98199328238867
 20
52.99209035520187
 30
0.0
 10
68.76732590362468
 20
54.00707715981289
 30
0.0
 10
69.24084531329335
 20
54.72536498334375
 30
0.0
 10
69.67094598522094
 20
55.49715647593543
 30
0.0
 10
69.6763507678589
 20
55.50688160937202
 30
0.0
 10
69.68833726532107
 20
55.52849692420315
 30
0.0
 10
69.69431877452216
 20
55.53931007032666
 30
0.0
 10
69.71222808353534
 20
55.5717659748211
 30
0.0
 10
69.72412066475738
 20
55.59342519931592
 30
0.0
 10
69.75965753406331
 20
55.65846873729591
 30
0.0
 10
69.783160947787
 20
55.70191891527662
 30
0.0
 10
69.85310769151722
 20
55.83253290720094
 30
0.0
 10
69.89898752408297
 20
55.91996017912672
 30
0.0
 10
70.0343730320169
 20
56.18329582683274
 30
0.0
 10
70.12162471762183
 20
56.36025803454169
 30
0.0
 10
70.37436381538356
 20
56.89535998538329
 30
0.0
 10
70.53083526848731
 20
57.25771505623074
 30
0.0
 10
70.6843135787515
 20
57.64868903326877
 30
0.0
 10
70.69240650121046
 20
57.66943263901606
 30
0.0
 10
70.70939507992762
 20
57.71321979102911
 30
0.0
 10
70.7178452094063
 20
57.73512839271174
 30
0.0
 10
70.74306311820266
 20
57.80089927478782
 30
0.0
 10
70.75969841788063
 20
57.84480663220952
 30
0.0
 10
70.80907439835582
 20
57.9767090125876
 30
0.0
 10
70.84128516059425
 20
58.06488434365693
 30
0.0
 10
70.93579777307451
 20
58.33013156931678
 30
0.0
 10
70.99597994908129
 20
58.50792469635914
 30
0.0
 10
71.16804778016142
 20
59.0441890072936
 30
0.0
 10
71.27145473829458
 20
59.40554512099308
 30
0.0
 10
71.37506952078408
 20
59.81639814361608
 30
0.0
 10
71.38553192218485
 20
59.85858533390381
 30
0.0
 10
71.40697508935179
 20
59.94641854699273
 30
0.0
 10
71.41751934365398
 20
59.99033371585524
 30
0.0
 10
71.44862011871678
 20
60.12207490939695
 30
0.0
 10
71.46864465163358
 20
60.20989662103032
 30
0.0
 10
71.52659029900883
 20
60.47334450374709
 30
0.0
 10
71.5623834620921
 20
60.6489534226472
 30
0.0
 10
71.66125114584119
 20
61.1757111706142
 30
0.0
 10
71.71581386100632
 20
61.52679099094783
 30
0.0
 10
71.76983091246159
 20
61.96552575180942
 30
0.0
 10
71.77944895110475
 20
62.04911930418182
 30
0.0
 10
71.79780748395984
 20
62.22012759908319
 30
0.0
 10
71.80629911169433
 20
62.30552100998609
 30
0.0
 10
71.82971107881865
 20
62.56136903305144
 30
0.0
 10
71.84256850212932
 20
62.73149143557053
 30
0.0
 10
71.87288910774477
 20
63.24052980455434
 30
0.0
 10
71.88210062573293
 20
63.57811693244567
 30
0.0
 10
71.87941457408195
 20
64.08183994713579
 30
0.0
 10
71.87587599575963
 20
64.2450683830435
 30
0.0
 10
71.86345706653212
 20
64.5725405474184
 30
0.0
 10
71.85458593513343
 20
64.73505531524044
 30
0.0
 10
71.81998754058247
 20
65.21893567561041
 30
0.0
 10
71.78627527707538
 20
65.53663732506213
 30
0.0
 10
71.65319848513464
 20
66.47508650103254
 30
0.0
 10
71.52189395528161
 20
67.08117825516648
 30
0.0
 10
71.30452995726633
 20
67.81436666052596
 30
0.0
 10
71.25776715090927
 20
67.9616769413801
 30
0.0
 10
71.15975386197502
 20
68.25058505992645
 30
0.0
 10
71.10815465651653
 20
68.3933591714064
 30
0.0
 10
70.94557935716692
 20
68.81664166246658
 30
0.0
 10
70.82682558030167
 20
69.09211019866711
 30
0.0
 10
70.43945351780945
 20
69.89835643375
 30
0.0
 10
70.139724500286
 20
70.4089747591136
 30
0.0
 10
69.11609452012956
 20
71.8601922411296
 30
0.0
 10
68.26775062991061
 20
72.72015390370707
 30
0.0
 10
67.25348283624368
 20
73.47259890751802
 30
0.0
  0
SPLINE
  5
89
330
1F
100
AcDbEntity
  8
0
  6
Continuous
 62
     7
370
    15
100
AcDbSpline
210
0.0
220
0.0
230
1.0
 70
     8
 71
     3
 72
    45
 73
    41
 74
     0
 42
0.000000001
 43
0.00000001
 40
0.0
 40
0.0
 40
0.0
 40
0.0
 40
0.0095422116908134
 40
0.0189919294051584
 40
0.0283569779070567
 40
0.0376453959445162
 40
0.0468654227052091
 40
0.0560254819261294
 40
0.0651341637202889
 40
0.0742002042428825
 40
0.0832324633800514
 40
0.0922399007025212
 40
0.1012315499811055
 40
0.1102164926082734
 40
0.1192038303070322
 40
0.1282026575330183
 40
0.1372220339864302
 40
0.1462709576465773
 40
0.1553583387236291
 40
0.1644929748907438
 40
0.1736835281170268
 40
0.1829385033702791
 40
0.1922662294010479
 40
0.2417197576878896
 40
0.2933000073591565
 40
0.3202306587857924
 40
0.347547526389626
 40
0.4045333748581673
 40
0.4644152814178684
 40
0.5273373635171004
 40
0.5959432833607065
 40
0.6641825008240649
 40
0.7428277816426344
 40
0.8232200886207796
 40
0.8691401152590998
 40
0.9161230217987161
 40
0.9367094670028739
 40
0.9575357356403693
 40
0.9786251068090083
 40
1.0
 40
1.0
 40
1.0
 40
1.0
 10
67.25348283624369
 20
73.47259890751803
 30
0.0
 10
67.34901683624484
 20
73.4005313816805
 30
0.0
 10
67.53915881198422
 20
73.2570948904917
 30
0.0
 10
67.81521740259761
 20
73.03283057892735
 30
0.0
 10
68.08266501991345
 20
72.80327174013412
 30
0.0
 10
68.34097001076445
 20
72.56770237122576
 30
0.0
 10
68.5902718322243
 20
72.32631176171732
 30
0.0
 10
68.83053238361012
 20
72.07904987001533
 30
0.0
 10
69.06176057576849
 20
71.825930187338
 30
0.0
 10
69.2839528625448
 20
71.56694951000308
 30
0.0
 10
69.49710903928661
 20
71.30210922090983
 30
0.0
 10
69.70122807132053
 20
71.0314096331226
 30
0.0
 10
69.89630922757446
 20
70.75485148590943
 30
0.0
 10
70.08235180116033
 20
70.47243553260904
 30
0.0
 10
70.2593552034794
 20
70.18416263496022
 30
0.0
 10
70.42731895623766
 20
69.89003371032123
 30
0.0
 10
70.58624270222793
 20
69.59004974697473
 30
0.0
 10
70.73612622225589
 20
69.28421168168096
 30
0.0
 10
70.8769693858289
 20
68.97252075555072
 30
0.0
 10
71.00877233881215
 20
68.65497708186548
 30
0.0
 10
71.13153478012225
 20
68.33158494047429
 30
0.0
 10
71.2452586538514
 20
68.00233274403814
 30
0.0
 10
71.49969417078962
 20
67.18791919334359
 30
0.0
 10
71.79068009539851
 20
65.82899876865825
 30
0.0
 10
71.89993681792508
 20
64.22302485714094
 30
0.0
 10
71.86327452671837
 20
62.89569335500249
 30
0.0
 10
71.73544180206464
 20
61.50583324535815
 30
0.0
 10
71.39852866536908
 20
59.72431335151813
 30
0.0
 10
70.70835251045054
 20
57.57177881255833
 30
0.0
 10
69.68030508573204
 20
55.39492562063959
 30
0.0
 10
68.29875289885298
 20
53.29369269250885
 30
0.0
 10
66.47987777024447
 20
51.28134143629383
 30
0.0
 10
64.24096772370177
 20
49.49456050363471
 30
0.0
 10
61.97586841503499
 20
48.25356265049619
 30
0.0
 10
59.95481706965469
 20
47.44915757160638
 30
0.0
 10
58.59093343174385
 20
47.03620487372627
 30
0.0
 10
57.51330356161535
 20
46.77581251176802
 30
0.0
 10
56.74543671625171
 20
46.61801497122987
 30
0.0
 10
55.96325674503331
 20
46.48225756270609
 30
0.0
 10
55.43529245040816
 20
46.41251110512943
 30
0.0
 10
55.16953533494996
 20
46.37740339506701
 30
0.0
  0
CIRCLE
  5
8B
330
1F
100
AcDbEntity
  8
0
  6
Continuous
 62
     7
370
    15
100
AcDbCircle
 10
-31.7529593092
 20
65.0656373485
 30
0.0
 40
1.500000000000004
  0
SPLINE
  5
90
330
1F
100
AcDbEntity
  8
0
  6
Continuous
 62
     7
370
    15
100
AcDbSpline
210
0.0
220
0.0
230
1.0
 70
     8
 71
     3
 72
    68
 73
    64
 74
     0
 42
0.000000001
 43
0.00000001
 40
0.0
 40
0.0
 40
0.0
 40
0.0
 40
0.0625
 40
0.0625
 40
0.125
 40
0.125
 40
0.1875
 40
0.1875
 40
0.25
 40
0.25
 40
0.3125
 40
0.3125
 40
0.375
 40
0.375
 40
0.4375
 40
0.4375
 40
0.5
 40
0.5
 40
0.5625
 40
0.5625
 40
0.625
 40
0.625
 40
0.6875
 40
0.6875
 40
0.75
 40
0.75
 40
0.8125
 40
0.8125
 40
0.875
 40
0.875
 40
0.90625
 40
0.90625
 40
0.921875
 40
0.921875
 40
0.9375
 40
0.9375
 40
0.953125
 40
0.953125
 40
0.96875
 40
0.96875
 40
0.970703125
 40
0.970703125
 40
0.9716796875
 40
0.9716796875
 40
0.97265625
 40
0.97265625
 40
0.9765625
 40
0.9765625
 40
0.9775390625
 40
0.9775390625
 40
0.978515625
 40
0.978515625
 40
0.98046875
 40
0.98046875
 40
0.982421875
 40
0.982421875
 40
0.984375
 40
0.984375
 40
0.98828125
 40
0.98828125
 40
0.9921875
 40
0.9921875
 40
1.0
 40
1.0
 40
1.0
 40
1.0
 10
-38.56204204728533
 20
41.6580062120884
 30
0.0
 10
-38.11021638724421
 20
42.49933775002919
 30
0.0
 10
-37.66429717293233
 20
43.28919066317488
 30
0.0
 10
-36.77037338545516
 20
44.79072495392968
 30
0.0
 10
-36.31935952225682
 20
45.50726356052965
 30
0.0
 10
-35.42183113553904
 20
46.85205678990013
 30
0.0
 10
-34.97798367573008
 20
47.47646390469298
 30
0.0
 10
-34.08322269382127
 20
48.6531178022304
 30
0.0
 10
-33.63113237475637
 20
49.20679634202911
 30
0.0
 10
-32.72597852680357
 20
50.23466484260927
 30
0.0
 10
-32.27415127099009
 20
50.70750433719155
 30
0.0
 10
-31.36582104588136
 20
51.57750722239261
 30
0.0
 10
-30.90766801813601
 20
51.97641108528935
 30
0.0
 10
-29.98338613226333
 20
52.70202365167529
 30
0.0
 10
-29.51731015323105
 20
53.02888763378817
 30
0.0
 10
-28.57735146635799
 20
53.61091700269364
 30
0.0
 10
-28.10411760567868
 20
53.86565348493964
 30
0.0
 10
-27.13834166541541
 20
54.31032363825782
 30
0.0
 10
-26.65076907635418
 20
54.4980897550252
 30
0.0
 10
-25.65850581052979
 20
54.80722813000563
 30
0.0
 10
-25.14854929347422
 20
54.9303039594246
 30
0.0
 10
-24.11313194963612
 20
55.11122088485143
 30
0.0
 10
-23.58593722263518
 20
55.16934098549132
 30
0.0
 10
-22.48997559728941
 20
55.22416422102682
 30
0.0
 10
-21.92614180841109
 20
55.22046675580995
 30
0.0
 10
-20.75124995268552
 20
55.15056102795722
 30
0.0
 10
-20.14092012666888
 20
55.08446142216386
 30
0.0
 10
-18.84991983579647
 20
54.88784444862122
 30
0.0
 10
-18.17191313081802
 20
54.75782132536846
 30
0.0
 10
-17.05968602830503
 20
54.50653743055933
 30
0.0
 10
-16.67338999475914
 20
54.41350993216867
 30
0.0
 10
-16.0607111176159
 20
54.25756303664095
 30
0.0
 10
-15.84854275294757
 20
54.20223838692432
 30
0.0
 10
-15.40832187903644
 20
54.08490438507626
 30
0.0
 10
-15.18172401819956
 20
54.02329075913963
 30
0.0
 10
-14.69963055056223
 20
53.88983855214342
 30
0.0
 10
-14.44587520773577
 20
53.81848176366285
 30
0.0
 10
-13.90960306936641
 20
53.6655466003471
 30
0.0
 10
-13.59854469979191
 20
53.57577320045465
 30
0.0
 10
-13.20031644608205
 20
53.4598090800617
 30
0.0
 10
-13.15539820139292
 20
53.4467162743859
 30
0.0
 10
-13.08701484294384
 20
53.42676521075733
 30
0.0
 10
-13.06245679593868
 20
53.41959534186473
 30
0.0
 10
-13.00288450734785
 20
53.40218667477468
 30
0.0
 10
-12.96890389355316
 20
53.39225068503449
 30
0.0
 10
-12.7780284770833
 20
53.33641245535768
 30
0.0
 10
-12.55821663191896
 20
53.27203537249354
 30
0.0
 10
-12.19956243547797
 20
53.16693089500997
 30
0.0
 10
-12.1236371266905
 20
53.14467834331809
 30
0.0
 10
-11.96339757011698
 20
53.09770992754399
 30
0.0
 10
-11.88270165099427
 20
53.07406310608459
 30
0.0
 10
-11.65359956697391
 20
53.00698211078053
 30
0.0
 10
-11.51214828754438
 20
52.96562559736506
 30
0.0
 10
-11.2518126151867
 20
52.88964087077535
 30
0.0
 10
-11.13292822225857
 20
52.85501265760108
 30
0.0
 10
-10.91772632290369
 20
52.79248453149373
 30
0.0
 10
-10.82132232905653
 20
52.76455940417403
 30
0.0
 10
-10.52975840626913
 20
52.68032212775381
 30
0.0
 10
-10.34431212645719
 20
52.6270656646586
 30
0.0
 10
-9.991278904259307
 20
52.52635618083809
 30
0.0
 10
-9.825336463173366
 20
52.47937080303477
 30
0.0
 10
-9.33912993542905
 20
52.34280648521301
 30
0.0
 10
-9.030951405400568
 20
52.25775152379561
 30
0.0
 10
-8.73873203050647
 20
52.17868447950865
 30
0.0
  0
SPLINE
  5
91
330
1F
100
AcDbEntity
  8
0
  6
Continuous
 62
     7
370
    15
100
AcDbSpline
210
0.0
220
0.0
230
1.0
 70
     8
 71
     3
 72
     8
 73
     4
 74
     0
 42
0.000000001
 43
0.00000001
 40
0.0000020881605646
 40
0.0000020881605646
 40
0.0000020881605646
 40
0.0000020881605646
 40
1.0
 40
1.0
 40
1.0
 40
1.0
 10
-50.85546927039605
 20
47.39047751483495
 30
0.0
 10
-53.88913886450106
 20
41.14982502961292
 30
0.0
 10
-59.02716940378772
 20
30.21915429894756
 30
0.0
 10
-67.54292688280306
 20
18.92366125900469
 30
0.0
  0
SPLINE
  5
93
330
1F
100
AcDbEntity
  8
0
  6
Continuous
 62
     7
370
    15
100
AcDbSpline
210
0.0
220
0.0
230
1.0
 70
     8
 71
     3
 72
   110
 73
   106
 74
     0
 42
0.000000001
 43
0.00000001
 40
0.0252127671969095
 40
0.0252127671969095
 40
0.0252127671969095
 40
0.0252127671969095
 40
0.0408377671969095
 40
0.0408377671969095
 40
0.0564627671969095
 40
0.0564627671969095
 40
0.0877127671969095
 40
0.0877127671969095
 40
0.1033377671969095
 40
0.1033377671969095
 40
0.1189627671969095
 40
0.1189627671969095
 40
0.1345877671969095
 40
0.1345877671969095
 40
0.1502127671969095
 40
0.1502127671969095
 40
0.1814627671969095
 40
0.1814627671969095
 40
0.2127127671969095
 40
0.2127127671969095
 40
0.2283377671969095
 40
0.2283377671969095
 40
0.2439627671969095
 40
0.2439627671969095
 40
0.2595877671969095
 40
0.2595877671969095
 40
0.2752127671969095
 40
0.2752127671969095
 40
0.2830252671969095
 40
0.2830252671969095
 40
0.2908377671969095
 40
0.2908377671969095
 40
0.2986502671969095
 40
0.2986502671969095
 40
0.3006033921969095
 40
0.3006033921969095
 40
0.3025565171969095
 40
0.3025565171969095
 40
0.3064627671969095
 40
0.3064627671969095
 40
0.3084158921969095
 40
0.3084158921969095
 40
0.3093924546969095
 40
0.3093924546969095
 40
0.3103690171969095
 40
0.3103690171969095
 40
0.3142752671969095
 40
0.3142752671969095
 40
0.3181815171969095
 40
0.3181815171969095
 40
0.3201346421969095
 40
0.3201346421969095
 40
0.3220877671969095
 40
0.3220877671969095
 40
0.3377127671969095
 40
0.3377127671969095
 40
0.3455252671969095
 40
0.3455252671969095
 40
0.3533377671969095
 40
0.3533377671969095
 40
0.3689627671969095
 40
0.3689627671969095
 40
0.4002127671969095
 40
0.4002127671969095
 40
0.4158377671969095
 40
0.4158377671969095
 40
0.4314627671969095
 40
0.4314627671969095
 40
0.4627127671969095
 40
0.4627127671969095
 40
0.5252127671969096
 40
0.5252127671969096
 40
0.5877127671969096
 40
0.5877127671969096
 40
0.6502127671969096
 40
0.6502127671969096
 40
0.7752127671969096
 40
0.7752127671969096
 40
0.8377127671969096
 40
0.8377127671969096
 40
0.8689627671969096
 40
0.8689627671969096
 40
0.9002127671969096
 40
0.9002127671969096
 40
0.9158377671969096
 40
0.9158377671969096
 40
0.9314627671969096
 40
0.9314627671969096
 40
0.9392752671969096
 40
0.9392752671969096
 40
0.9470877671969096
 40
0.9470877671969096
 40
0.9549002671969096
 40
0.9549002671969096
 40
0.9627127671969096
 40
0.9627127671969096
 40
0.9666190171969096
 40
0.9666190171969096
 40
0.9705252671969096
 40
0.9705252671969096
 40
0.9783377671969096
 40
0.9783377671969096
 40
0.9939627671969096
 40
0.9939627671969096
 40
1.0
 40
1.0
 40
1.0
 40
1.0
 10
-8.73873203050647
 20
52.17868447950865
 30
0.0
 10
-8.227998318167407
 20
52.04049307769967
 30
0.0
 10
-7.736597542120398
 20
51.91243600052061
 30
0.0
 10
-6.792461862610403
 20
51.6765904954223
 30
0.0
 10
-6.34081230864891
 20
51.56906670816373
 30
0.0
 10
-5.002708506321388
 20
51.26686375692043
 30
0.0
 10
-4.148748528786465
 20
51.09632080986631
 30
0.0
 10
-2.898524747895402
 20
50.88101342622553
 30
0.0
 10
-2.488949379446191
 20
50.81637062521239
 30
0.0
 10
-1.669404998418038
 20
50.69906903625843
 30
0.0
 10
-1.260717365122273
 20
50.64660766119957
 30
0.0
 10
-0.4455112129673564
 20
50.55406374991809
 30
0.0
 10
-0.0390636378817255
 20
50.51397527983335
 30
0.0
 10
0.7713135202053606
 20
50.4461479977595
 30
0.0
 10
1.174040994372091
 20
50.41848044366213
 30
0.0
 10
2.387340536974879
 20
50.35352091732207
 30
0.0
 10
3.209739373819054
 20
50.33391659706051
 30
0.0
 10
4.882825776718316
 20
50.34191597374858
 30
0.0
 10
5.727740707573661
 20
50.36930721640834
 30
0.0
 10
7.051893430026971
 20
50.4469758408075
 30
0.0
 10
7.500654471347309
 20
50.47884665095557
 30
0.0
 10
8.42228416859268
 20
50.55523373624023
 30
0.0
 10
8.895086952657634
 20
50.59974520213506
 30
0.0
 10
9.86466839167208
 20
50.70140398042973
 30
0.0
 10
10.36609239436748
 20
50.75905237700437
 30
0.0
 10
11.41049363470843
 20
50.88888105102457
 30
0.0
 10
11.94953020263554
 20
50.96056928793095
 30
0.0
 10
12.82057801155246
 20
51.08322449968153
 30
0.0
 10
13.12003326855612
 20
51.12645555806377
 30
0.0
 10
13.73715575729278
 20
51.21760965042566
 30
0.0
 10
14.05889531784316
 20
51.26614930363686
 30
0.0
 10
14.74612479926572
 20
51.3717875277443
 30
0.0
 10
15.10901714248248
 20
51.42849278159531
 30
0.0
 10
15.58672957463527
 20
51.50423202615566
 30
0.0
 10
15.6824522374601
 20
51.5194577979812
 30
0.0
 10
15.89458989412268
 20
51.55333840723254
 30
0.0
 10
16.00883059561646
 20
51.57164320805023
 30
0.0
 10
16.37606831958526
 20
51.63065109907944
 30
0.0
 10
16.65358096154776
 20
51.67544767786708
 30
0.0
 10
17.11888116346645
 20
51.75082952320073
 30
0.0
 10
17.28215310393517
 20
51.77732130117064
 30
0.0
 10
17.53931882438198
 20
51.81910571241359
 30
0.0
 10
17.6285738265394
 20
51.83362141575588
 30
0.0
 10
17.80250000793138
 20
51.86190123660985
 30
0.0
 10
17.88702552024576
 20
51.87564126323736
 30
0.0
 10
18.29746518990955
 20
51.94234197737742
 30
0.0
 10
18.5868156715347
 20
51.98930440789766
 30
0.0
 10
19.08751412657327
 20
52.07043298735447
 30
0.0
 10
19.29886209998668
 20
52.10459913629105
 30
0.0
 10
19.55738217894798
 20
52.14625114850819
 30
0.0
 10
19.63105681816809
 20
52.15809005689179
 30
0.0
 10
19.77287342530124
 20
52.18083323114006
 30
0.0
 10
19.84307886775724
 20
52.19207201906104
 30
0.0
 10
20.4686020998661
 20
52.29202591752148
 30
0.0
 10
20.97963963955278
 20
52.37237467826215
 30
0.0
 10
21.6787212824677
 20
52.48014909587027
 30
0.0
 10
21.90053589447266
 20
52.51395428345765
 30
0.0
 10
22.340463689211
 20
52.58024271629835
 30
0.0
 10
22.55622819340579
 20
52.61236002112417
 30
0.0
 10
23.190923526467
 20
52.70563120081793
 30
0.0
 10
23.59443057946245
 20
52.76331686097499
 30
0.0
 10
24.77644003829469
 20
52.9270514919907
 30
0.0
 10
25.53371988809864
 20
53.02477768894749
 30
0.0
 10
26.62354997867828
 20
53.15422164880215
 30
0.0
 10
26.97914506151711
 20
53.19451207949029
 30
0.0
 10
27.67497199915266
 20
53.26937782900639
 30
0.0
 10
28.01470600514928
 20
53.30389676396862
 30
0.0
 10
29.02444841064709
 20
53.40041949623693
 30
0.0
 10
29.680679266386
 20
53.45490019361967
 30
0.0
 10
31.59857958982389
 20
53.58873891337946
 30
0.0
 10
32.80736520836336
 20
53.63834506008976
 30
0.0
 10
35.13368343102282
 20
53.66175271307144
 30
0.0
 10
36.24477954317528
 20
53.63506906717983
 30
0.0
 10
38.37333924685301
 20
53.50594162390272
 30
0.0
 10
39.39013565015741
 20
53.40334555634365
 30
0.0
 10
42.29893503827337
 20
52.98239560489954
 30
0.0
 10
44.04735661507609
 20
52.55190674204682
 30
0.0
 10
46.4013559901987
 20
51.68125821532384
 30
0.0
 10
47.144708703836
 20
51.3523661082529
 30
0.0
 10
48.21508792706325
 20
50.79270870588243
 30
0.0
 10
48.56859225431958
 20
50.59271051237936
 30
0.0
 10
49.26902341452675
 20
50.16582267328075
 30
0.0
 10
49.61133347524424
 20
49.94212985317625
 30
0.0
 10
50.14547581686909
 20
49.56868845655061
 30
0.0
 10
50.32504295425426
 20
49.4392685378696
 30
0.0
 10
50.69733608657397
 20
49.16322058249338
 30
0.0
 10
50.8906159636778
 20
49.01619138676423
 30
0.0
 10
51.19123574574954
 20
48.78213976610893
 30
0.0
 10
51.2940192030269
 20
48.70124706754107
 30
0.0
 10
51.51679990757442
 20
48.52422436064154
 30
0.0
 10
51.63514741500589
 20
48.42939202131473
 30
0.0
 10
51.88575674018423
 20
48.22708537090694
 30
0.0
 10
52.01993309692795
 20
48.11786347595604
 30
0.0
 10
52.28526480720902
 20
47.90223620367643
 30
0.0
 10
52.42275037765643
 20
47.7904620365457
 30
0.0
 10
52.59594427814962
 20
47.65018284726812
 30
0.0
 10
52.64919857513895
 20
47.60713540082527
 30
0.0
 10
52.74675316276747
 20
47.52846507457222
 30
0.0
 10
52.79060043346968
 20
47.49320722134869
 30
0.0
 10
52.92362574629643
 20
47.3865529549537
 30
0.0
 10
53.00946722754401
 20
47.31815966110766
 30
0.0
 10
53.25846548937611
 20
47.12110843082142
 30
0.0
 10
53.41297470570392
 20
47.00067352093603
 30
0.0
 10
53.61176154218474
 20
46.84846722613633
 30
0.0
 10
53.66659638649317
 20
46.80678669537447
 30
0.0
 10
53.72086447265596
 20
46.76584530702823
 30
0.0
  0
SPLINE
  5
95
330
1F
100
AcDbEntity
  8
0
  6
Continuous
 62
     7
370
    15
100
AcDbSpline
210
0.0
220
0.0
230
1.0
 70
     8
 71
     3
 72
   168
 73
   164
 74
     0
 42
0.000000001
 43
0.00000001
 40
0.0
 40
0.0
 40
0.0
 40
0.0
 40
0.125
 40
0.125
 40
0.126953125
 40
0.126953125
 40
0.12890625
 40
0.12890625
 40
0.1328125
 40
0.1328125
 40
0.140625
 40
0.140625
 40
0.15625
 40
0.15625
 40
0.1875
 40
0.1875
 40
0.1953125
 40
0.1953125
 40
0.203125
 40
0.203125
 40
0.21875
 40
0.21875
 40
0.25
 40
0.25
 40
0.25390625
 40
0.25390625
 40
0.2578125
 40
0.2578125
 40
0.265625
 40
0.265625
 40
0.28125
 40
0.28125
 40
0.3125
 40
0.3125
 40
0.375
 40
0.375
 40
0.3759765625
 40
0.3759765625
 40
0.376953125
 40
0.376953125
 40
0.37890625
 40
0.37890625
 40
0.3828125
 40
0.3828125
 40
0.390625
 40
0.390625
 40
0.40625
 40
0.40625
 40
0.4375
 40
0.4375
 40
0.5
 40
0.5
 40
0.50048828125
 40
0.50048828125
 40
0.5009765625
 40
0.5009765625
 40
0.501953125
 40
0.501953125
 40
0.50390625
 40
0.50390625
 40
0.5078125
 40
0.5078125
 40
0.515625
 40
0.515625
 40
0.53125
 40
0.53125
 40
0.5625
 40
0.5625
 40
0.625
 40
0.625
 40
0.6259765625
 40
0.6259765625
 40
0.626953125
 40
0.626953125
 40
0.62890625
 40
0.62890625
 40
0.6328125
 40
0.6328125
 40
0.640625
 40
0.640625
 40
0.65625
 40
0.65625
 40
0.6875
 40
0.6875
 40
0.68798828125
 40
0.68798828125
 40
0.6884765625
 40
0.6884765625
 40
0.689453125
 40
0.689453125
 40
0.69140625
 40
0.69140625
 40
0.6953125
 40
0.6953125
 40
0.703125
 40
0.703125
 40
0.71875
 40
0.71875
 40
0.75
 40
0.75
 40
0.750244140625
 40
0.750244140625
 40
0.75048828125
 40
0.75048828125
 40
0.7509765625
 40
0.7509765625
 40
0.751953125
 40
0.751953125
 40
0.75390625
 40
0.75390625
 40
0.7578125
 40
0.7578125
 40
0.765625
 40
0.765625
 40
0.78125
 40
0.78125
 40
0.8125
 40
0.8125
 40
0.8134765625
 40
0.8134765625
 40
0.814453125
 40
0.814453125
 40
0.81640625
 40
0.81640625
 40
0.8203125
 40
0.8203125
 40
0.828125
 40
0.828125
 40
0.84375
 40
0.84375
 40
0.875
 40
0.875
 40
0.875244140625
 40
0.875244140625
 40
0.87548828125
 40
0.87548828125
 40
0.8759765625
 40
0.8759765625
 40
0.876953125
 40
0.876953125
 40
0.87890625
 40
0.87890625
 40
0.8828125
 40
0.8828125
 40
0.890625
 40
0.890625
 40
0.90625
 40
0.90625
 40
0.9375
 40
0.9375
 40
0.9384765625
 40
0.9384765625
 40
0.939453125
 40
0.939453125
 40
0.94140625
 40
0.94140625
 40
0.9453125
 40
0.9453125
 40
0.953125
 40
0.953125
 40
0.96875
 40
0.96875
 40
1.0
 40
1.0
 40
1.0
 40
1.0
 10
-23.24170990231513
 20
79.70969386025814
 30
0.0
 10
-25.18978803181952
 20
79.36375917186787
 30
0.0
 10
-26.98194075428156
 20
78.87277648432176
 30
0.0
 10
-28.64373412150467
 20
78.22680781814003
 30
0.0
 10
-28.6727524562859
 20
78.21547124024171
 30
0.0
 10
-28.72725694004012
 20
78.1940578388204
 30
0.0
 10
-28.75448254764043
 20
78.18330485676198
 30
0.0
 10
-28.83607946761096
 20
78.15090706654344
 30
0.0
 10
-28.89037087715076
 20
78.12912341434004
 30
0.0
 10
-29.05292549444848
 20
78.06321708155674
 30
0.0
 10
-29.16086909088472
 20
78.0185390248037
 30
0.0
 10
-29.48342143490682
 20
77.88228334985213
 30
0.0
 10
-29.69675173720601
 20
77.7884842269611
 30
0.0
 10
-30.33162886295692
 20
77.49820083951812
 30
0.0
 10
-30.74806190526198
 20
77.29283055619626
 30
0.0
 10
-31.26008023956557
 20
77.02130767076075
 30
0.0
 10
-31.36479500347766
 20
76.96478567916361
 30
0.0
 10
-31.57021743195284
 20
76.8518829738976
 30
0.0
 10
-31.67236331209122
 20
76.79473957573735
 30
0.0
 10
-31.97710495020874
 20
76.6212332446748
 30
0.0
 10
-32.17800470589025
 20
76.50279417519072
 30
0.0
 10
-32.77391996374428
 20
76.13917242041144
 30
0.0
 10
-33.1621514567263
 20
75.88568518878914
 30
0.0
 10
-33.58873587254531
 20
75.58805523372345
 30
0.0
 10
-33.63349609532878
 20
75.55657036777504
 30
0.0
 10
-33.72540941833839
 20
75.49142021841519
 30
0.0
 10
-33.77128435711048
 20
75.45864671426723
 30
0.0
 10
-33.90866400522854
 20
75.35973091341926
 30
0.0
 10
-33.99992354637633
 20
75.29299332831512
 30
0.0
 10
-34.27272149702694
 20
75.09039941938626
 30
0.0
 10
-34.45327923373704
 20
74.95216194194512
 30
0.0
 10
-34.9910297526963
 20
74.52792489515586
 30
0.0
 10
-35.34429984377449
 20
74.23240071134198
 30
0.0
 10
-36.38841935232512
 20
73.30772970203722
 30
0.0
 10
-37.06357800511363
 20
72.6404844186832
 30
0.0
 10
-37.72803810134243
 20
71.91122176608715
 30
0.0
 10
-37.73616298174786
 20
71.90228966572201
 30
0.0
 10
-37.75450181548768
 20
71.8821029963624
 30
0.0
 10
-37.76366839579609
 20
71.8719979471593
 30
0.0
 10
-37.79115962703681
 20
71.84164765598005
 30
0.0
 10
-37.80947576828459
 20
71.821367270434
 30
0.0
 10
-37.86439015328992
 20
71.76038553951615
 30
0.0
 10
-37.90095435830941
 20
71.7195436198647
 30
0.0
 10
-38.01051081841569
 20
71.5964555637916
 30
0.0
 10
-38.08336691855028
 20
71.51364713025127
 30
0.0
 10
-38.30139059914532
 20
71.26297264115544
 30
0.0
 10
-38.44601355979702
 20
71.09285739712513
 30
0.0
 10
-38.87770396251707
 20
70.57351491113492
 30
0.0
 10
-39.16259292535042
 20
70.21529091527576
 30
0.0
 10
-40.00854589691036
 20
69.10463191210111
 30
0.0
 10
-40.56089598869687
 20
68.31620988918854
 30
0.0
 10
-41.10585198968724
 20
67.47327076701336
 30
0.0
 10
-41.10883527680016
 20
67.46865323621078
 30
0.0
 10
-41.11604294907169
 20
67.45749248978672
 30
0.0
 10
-41.11964675855232
 20
67.45190918196745
 30
0.0
 10
-41.13045810702889
 20
67.43515045468796
 30
0.0
 10
-41.13766556605947
 20
67.42396623140601
 30
0.0
 10
-41.15928762328983
 20
67.39037834627342
 30
0.0
 10
-41.17370190162819
 20
67.36793946913599
 30
0.0
 10
-41.21694345719768
 20
67.30048197657653
 30
0.0
 10
-41.2457694549832
 20
67.2553225000074
 30
0.0
 10
-41.33224233055735
 20
67.11928062571133
 30
0.0
 10
-41.38988409056355
 20
67.02783478339583
 30
0.0
 10
-41.56278889945249
 20
66.75124347809499
 30
0.0
 10
-41.67803147720554
 20
66.56384423675532
 30
0.0
 10
-42.02367732594598
 20
65.99263139931892
 30
0.0
 10
-42.25399871241464
 20
65.5998026898048
 30
0.0
 10
-42.94463533374576
 20
64.385256107593
 30
0.0
 10
-43.40462303053333
 20
63.52747778122579
 30
0.0
 10
-43.87135449394015
 20
62.60746480416497
 30
0.0
 10
-43.87653841398771
 20
62.59723773572035
 30
0.0
 10
-43.88891133042329
 20
62.5728139970152
 30
0.0
 10
-43.89510062608628
 20
62.56058791950944
 30
0.0
 10
-43.91367702541087
 20
62.52386706253259
 30
0.0
 10
-43.92607264140809
 20
62.4993296586019
 30
0.0
 10
-43.96329353874216
 20
62.42554694897157
 30
0.0
 10
-43.98815286942146
 20
62.37613114543363
 30
0.0
 10
-44.06286705882912
 20
62.22720174346654
 30
0.0
 10
-44.11285811492724
 20
62.12700615368419
 30
0.0
 10
-44.26337607270068
 20
61.82369141892429
 30
0.0
 10
-44.36444776385504
 20
61.61784430853388
 30
0.0
 10
-44.66984199523435
 20
60.98939111571121
 30
0.0
 10
-44.87634369337552
 20
60.55587317162751
 30
0.0
 10
-45.08902292356168
 20
60.10080503034786
 30
0.0
 10
-45.09113058606196
 20
60.09629384360601
 30
0.0
 10
-45.09651778973822
 20
60.08476113573578
 30
0.0
 10
-45.09921390924945
 20
60.07898795753366
 30
0.0
 10
-45.10730982080243
 20
60.06164795012631
 30
0.0
 10
-45.11271716586346
 20
60.05006064812006
 30
0.0
 10
-45.12896941312369
 20
60.0152168508973
 30
0.0
 10
-45.13984452740005
 20
59.99187846447675
 30
0.0
 10
-45.17259071853766
 20
59.92153574039902
 30
0.0
 10
-45.19458264370746
 20
59.87420383792573
 30
0.0
 10
-45.2610418124512
 20
59.73089787124147
 30
0.0
 10
-45.30599244925939
 20
59.6336135477661
 30
0.0
 10
-45.44277793262097
 20
59.33651954028241
 30
0.0
 10
-45.53654635211143
 20
59.13146881921651
 30
0.0
 10
-45.82558590233106
 20
58.49535250778843
 30
0.0
 10
-46.02859132480847
 20
58.0433227691959
 30
0.0
 10
-46.24357568168566
 20
57.5595909740861
 30
0.0
 10
-46.24401651709496
 20
57.5585989181557
 30
0.0
 10
-46.24612871665072
 20
57.5538457365441
 30
0.0
 10
-46.24718642267671
 20
57.55146539013683
 30
0.0
 10
-46.25036435949894
 20
57.54431308411068
 30
0.0
 10
-46.25248940903946
 20
57.53952985768741
 30
0.0
 10
-46.25888383263826
 20
57.52513511120007
 30
0.0
 10
-46.26317248167372
 20
57.5154785239185
 30
0.0
 10
-46.27611552868875
 20
57.48632849320374
 30
0.0
 10
-46.28484702657705
 20
57.46665478090051
 30
0.0
 10
-46.31134991987681
 20
57.40691256851061
 30
0.0
 10
-46.32942971492309
 20
57.36612299294378
 30
0.0
 10
-46.38490269860137
 20
57.24086996432252
 30
0.0
 10
-46.42352948577275
 20
57.15352220934736
 30
0.0
 10
-46.54434424144438
 20
56.87994173673893
 30
0.0
 10
-46.63146660410219
 20
56.68217181142269
 30
0.0
 10
-46.91257126870579
 20
56.04271320474219
 30
0.0
 10
-47.12629114728173
 20
55.55487569264609
 30
0.0
 10
-47.37382893992966
 20
54.98833861604074
 30
0.0
 10
-47.3823033828204
 20
54.96894450522521
 30
0.0
 10
-47.39817818640682
 20
54.93261703441264
 30
0.0
 10
-47.40608199335469
 20
54.91453144240739
 30
0.0
 10
-47.42969262966222
 20
54.86050909659476
 30
0.0
 10
-47.44529867448584
 20
54.82480677299049
 30
0.0
 10
-47.49171367081245
 20
54.71863752299016
 30
0.0
 10
-47.52211948417123
 20
54.64910831740655
 30
0.0
 10
-47.61172437167067
 20
54.4442715839056
 30
0.0
 10
-47.66931089323445
 20
54.31271493923808
 30
0.0
 10
-47.83562024761818
 20
53.93304853823496
 30
0.0
 10
-47.93789287013057
 20
53.69994231489875
 30
0.0
 10
-48.21890989643742
 20
53.06063777688773
 30
0.0
 10
-48.37185345900157
 20
52.71445359421054
 30
0.0
 10
-48.49132201274504
 20
52.44620883747797
 30
0.0
 10
-48.49357367622534
 20
52.44115345045422
 30
0.0
 10
-48.49675051178562
 20
52.43402169175582
 30
0.0
 10
-48.49833861598584
 20
52.43045682742136
 30
0.0
 10
-48.50310198784678
 20
52.4197652794622
 30
0.0
 10
-48.50627631476775
 20
52.41264164088172
 30
0.0
 10
-48.51579553257172
 20
52.39128290531714
 30
0.0
 10
-48.52213666049576
 20
52.3770599885099
 30
0.0
 10
-48.54114499243207
 20
52.33443995879565
 30
0.0
 10
-48.55379714460852
 20
52.3060915665961
 30
0.0
 10
-48.59169339379459
 20
52.2212412728273
 30
0.0
 10
-48.61687728346092
 20
52.16493425408788
 30
0.0
 10
-48.69218812308687
 20
51.99679272918903
 30
0.0
 10
-48.74207424367337
 20
51.88573775434897
 30
0.0
 10
-48.89076928794054
 20
51.55569095510633
 30
0.0
 10
-48.98861489412883
 20
51.33981725598126
 30
0.0
 10
-49.27829844272426
 20
50.70466865971616
 30
0.0
 10
-49.46628311516194
 20
50.29786626368623
 30
0.0
 10
-49.65484406240531
 20
49.89550098180674
 30
0.0
 10
-49.6588224030562
 20
49.88701633981098
 30
0.0
 10
-49.66858259038111
 20
49.86620787189187
 30
0.0
 10
-49.67348531023551
 20
49.85575999173444
 30
0.0
 10
-49.68826134837437
 20
49.82428541266849
 30
0.0
 10
-49.69820254523458
 20
49.80312777516635
 30
0.0
 10
-49.72829765011816
 20
49.73913110828528
 30
0.0
 10
-49.74872307244445
 20
49.69576832453176
 30
0.0
 10
-49.81108539663515
 20
49.56358495577289
 30
0.0
 10
-49.85410835571131
 20
49.47266935326917
 30
0.0
 10
-49.98752146178678
 20
49.19154247576451
 30
0.0
 10
-50.08225583763316
 20
48.99295113077012
 30
0.0
 10
-50.38383588056047
 20
48.36365681581314
 30
0.0
 10
-50.60805846302958
 20
47.89943356587671
 30
0.0
 10
-50.85545026601626
 20
47.39051660930848
 30
0.0
  0
SPLINE
  5
96
330
1F
100
AcDbEntity
  8
0
  6
Continuous
 62
     7
370
    15
100
AcDbSpline
210
0.0
220
0.0
230
1.0
 70
     8
 71
     3
 72
   130
 73
   126
 74
     0
 42
0.000000001
 43
0.00000001
 40
0.0
 40
0.0
 40
0.0
 40
0.0
 40
0.125
 40
0.125
 40
0.25
 40
0.25
 40
0.3125
 40
0.3125
 40
0.375
 40
0.375
 40
0.4375
 40
0.4375
 40
0.5
 40
0.5
 40
0.53125
 40
0.53125
 40
0.5625
 40
0.5625
 40
0.59375
 40
0.59375
 40
0.609375
 40
0.609375
 40
0.625
 40
0.625
 40
0.65625
 40
0.65625
 40
0.671875
 40
0.671875
 40
0.6875
 40
0.6875
 40
0.703125
 40
0.703125
 40
0.7109375
 40
0.7109375
 40
0.71875
 40
0.71875
 40
0.734375
 40
0.734375
 40
0.736328125
 40
0.736328125
 40
0.7373046875
 40
0.7373046875
 40
0.73828125
 40
0.73828125
 40
0.7421875
 40
0.7421875
 40
0.74609375
 40
0.74609375
 40
0.748046875
 40
0.748046875
 40
0.7490234375
 40
0.7490234375
 40
0.75
 40
0.75
 40
0.7578125
 40
0.7578125
 40
0.759765625
 40
0.759765625
 40
0.76171875
 40
0.76171875
 40
0.765625
 40
0.765625
 40
0.7734375
 40
0.7734375
 40
0.78125
 40
0.78125
 40
0.796875
 40
0.796875
 40
0.8046875
 40
0.8046875
 40
0.8125
 40
0.8125
 40
0.828125
 40
0.828125
 40
0.8359375
 40
0.8359375
 40
0.84375
 40
0.84375
 40
0.875
 40
0.875
 40
0.87890625
 40
0.87890625
 40
0.8828125
 40
0.8828125
 40
0.88671875
 40
0.88671875
 40
0.888671875
 40
0.888671875
 40
0.8896484375
 40
0.8896484375
 40
0.890625
 40
0.890625
 40
0.89453125
 40
0.89453125
 40
0.8955078125
 40
0.8955078125
 40
0.89599609375
 40
0.89599609375
 40
0.896484375
 40
0.896484375
 40
0.8984375
 40
0.8984375
 40
0.90234375
 40
0.90234375
 40
0.90625
 40
0.90625
 40
0.91015625
 40
0.91015625
 40
0.9140625
 40
0.9140625
 40
0.921875
 40
0.921875
 40
0.92578125
 40
0.92578125
 40
0.9296875
 40
0.9296875
 40
0.9375
 40
0.9375
 40
0.9453125
 40
0.9453125
 40
0.953125
 40
0.953125
 40
0.96875
 40
0.96875
 40
1.0
 40
1.0
 40
1.0
 40
1.0
 10
67.25348283624369
 20
73.47259890751802
 30
0.0
 10
66.44347138877617
 20
74.0735141747632
 30
0.0
 10
65.51918412518847
 20
74.6116008001361
 30
0.0
 10
63.44205796577285
 20
75.5621167671372
 30
0.0
 10
62.2805330143637
 20
75.977820175738
 30
0.0
 10
60.34530698908949
 20
76.51524577598413
 30
0.0
 10
59.66818125548396
 20
76.67998089116072
 30
0.0
 10
58.24251567342086
 20
76.983142713354
 30
0.0
 10
57.49469477436006
 20
77.12128647939234
 30
0.0
 10
55.91328308502246
 20
77.37390249386935
 30
0.0
 10
55.08149269980088
 20
77.48799162049471
 30
0.0
 10
53.31836554992162
 20
77.69391468752018
 30
0.0
 10
52.3892549592594
 20
77.78546902221761
 30
0.0
 10
50.92426854968218
 20
77.90568972604082
 30
0.0
 10
50.42517430776191
 20
77.94283567779436
 30
0.0
 10
49.38309393228387
 20
78.01278426409819
 30
0.0
 10
48.84250195402934
 20
78.04542502049318
 30
0.0
 10
47.72221441648928
 20
78.10603945976928
 30
0.0
 10
47.14251885720374
 20
78.1340131426504
 30
0.0
 10
46.24364783250216
 20
78.1724733618367
 30
0.0
 10
45.93913620997275
 20
78.18471005070957
 30
0.0
 10
45.32033706965618
 20
78.20801666007682
 30
0.0
 10
45.00711957087953
 20
78.21904420404404
 30
0.0
 10
44.04072862462226
 20
78.25085488040868
 30
0.0
 10
43.36301924607453
 20
78.27027882975315
 30
0.0
 10
42.29628205668862
 20
78.2967400014219
 30
0.0
 10
41.93452230625413
 20
78.30506744556608
 30
0.0
 10
41.17599780737436
 20
78.32122589581863
 30
0.0
 10
40.78077102124309
 20
78.32902365799755
 30
0.0
 10
39.95838837559776
 20
78.34405625646072
 30
0.0
 10
39.53123251608372
 20
78.35129109274496
 30
0.0
 10
38.86655192177555
 20
78.36172115275029
 30
0.0
 10
38.63967685017526
 20
78.36514710586256
 30
0.0
 10
38.16586013492534
 20
78.37203750112096
 30
0.0
 10
37.92027778985634
 20
78.37548178371239
 30
0.0
 10
37.15750879231714
 20
78.38581188637332
 30
0.0
 10
36.61430017751479
 20
78.39269496132951
 30
0.0
 10
35.96415754236389
 20
78.40043430298523
 30
0.0
 10
35.89137734757632
 20
78.40129417264602
 30
0.0
 10
35.78139386907208
 20
78.40258389135239
 30
0.0
 10
35.74580812592378
 20
78.40300057334343
 30
0.0
 10
35.66689898280568
 20
78.4039153600963
 30
0.0
 10
35.62367026672671
 20
78.40441243197336
 30
0.0
 10
35.38865596373227
 20
78.40709618386157
 30
0.0
 10
35.14025820901801
 20
78.40987804138177
 30
0.0
 10
34.52269007495207
 20
78.41671146844148
 30
0.0
 10
34.15351969560039
 20
78.42076303798098
 30
0.0
 10
33.50918465809482
 20
78.42779267630466
 30
0.0
 10
33.27930973417995
 20
78.43029460308163
 30
0.0
 10
32.91185248118813
 20
78.43428556425071
 30
0.0
 10
32.78559258567095
 20
78.43565556314098
 30
0.0
 10
32.52552450559673
 20
78.43847491792279
 30
0.0
 10
32.39062382925357
 20
78.4399345195903
 30
0.0
 10
31.21563680039586
 20
78.45274261127031
 30
0.0
 10
30.32910425432418
 20
78.4629208628113
 30
0.0
 10
29.41831403232023
 20
78.47413527868605
 30
0.0
 10
29.24809976919694
 20
78.47627820020895
 30
0.0
 10
28.91757334474244
 20
78.48052953005201
 30
0.0
 10
28.75428425636702
 20
78.48267314735185
 30
0.0
 10
28.2703393627962
 20
78.4891578563863
 30
0.0
 10
27.95560592915628
 20
78.49355280525586
 30
0.0
 10
27.03509511445839
 20
78.50695308040433
 30
0.0
 10
26.45300721962228
 20
78.516173835223
 30
0.0
 10
25.35200339320837
 20
78.53518982096638
 30
0.0
 10
24.81157885178837
 20
78.54533511643147
 30
0.0
 10
23.20089854900993
 20
78.57800254285655
 30
0.0
 10
22.149763475533
 20
78.60261742623432
 30
0.0
 10
20.60703855788063
 20
78.64379464994256
 30
0.0
 10
20.09845986742368
 20
78.65822954095225
 30
0.0
 10
19.0926283840308
 20
78.6885176225188
 30
0.0
 10
18.59529204945771
 20
78.70437322928963
 30
0.0
 10
17.10477277739622
 20
78.75451576852994
 30
0.0
 10
16.11824201739336
 20
78.79122911026548
 30
0.0
 10
14.64916900944628
 20
78.85122659623181
 30
0.0
 10
14.16126519547346
 20
78.8720470037811
 30
0.0
 10
13.18903194488021
 20
78.91533031000066
 30
0.0
 10
12.706774907403
 20
78.93769002491132
 30
0.0
 10
10.28082647219189
 20
79.05476981968152
 30
0.0
 10
8.222399505599476
 20
79.16885596091569
 30
0.0
 10
5.77429242245653
 20
79.32017796339936
 30
0.0
 10
5.497692750896281
 20
79.33748378446988
 30
0.0
 10
4.919996091343602
 20
79.374045042668
 30
0.0
 10
4.621145300948418
 20
79.39315899660073
 30
0.0
 10
4.003438798920353
 20
79.43305355413364
 30
0.0
 10
3.684583087287465
 20
79.45383415773374
 30
0.0
 10
3.191295828909871
 20
79.4862550503845
 30
0.0
 10
3.024366127629299
 20
79.49727034580984
 30
0.0
 10
2.770220652976366
 20
79.51410578576048
 30
0.0
 10
2.687619976496793
 20
79.51958516226128
 30
0.0
 10
2.504035269430919
 20
79.53180202385441
 30
0.0
 10
2.403369499968425
 20
79.53851807346001
 30
0.0
 10
1.855673573008146
 20
79.5751364155331
 30
0.0
 10
1.275542176566967
 20
79.61415299013586
 30
0.0
 10
0.3729096124243086
 20
79.67507608456974
 30
0.0
 10
0.1835096836662145
 20
79.68786832226554
 30
0.0
 10
-0.1139003333652617
 20
79.70796810702275
 30
0.0
 10
-0.2152553596914738
 20
79.71481993997742
 30
0.0
 10
-0.4224021203086837
 20
79.72882741529125
 30
0.0
 10
-0.5287744036915711
 20
79.73602347295461
 30
0.0
 10
-1.04453577260931
 20
79.77087030862018
 30
0.0
 10
-1.426432600085933
 20
79.79656928323736
 30
0.0
 10
-2.479986279543095
 20
79.86713072534313
 30
0.0
 10
-3.059506328550925
 20
79.90545771108592
 30
0.0
 10
-3.972848285306038
 20
79.96468373124937
 30
0.0
 10
-4.409051014279204
 20
79.99238393047384
 30
0.0
 10
-5.243539023805043
 20
80.04415926292758
 30
0.0
 10
-5.641321744512942
 20
80.0682010110727
 30
0.0
 10
-6.397964617818719
 20
80.11259267119952
 30
0.0
 10
-6.75504458308037
 20
80.13283686202102
 30
0.0
 10
-7.803815090721143
 20
80.1901645562174
 30
0.0
 10
-8.4621950711511
 20
80.22319934938066
 30
0.0
 10
-9.388564504800192
 20
80.264976034674
 30
0.0
 10
-9.686658975983978
 20
80.27758329595466
 30
0.0
 10
-10.27441815126725
 20
80.30074699196048
 30
0.0
 10
-10.5626233838448
 20
80.31123746520021
 30
0.0
 10
-11.41021601638519
 20
80.33943476062991
 30
0.0
 10
-11.95102247571323
 20
80.353828896219
 30
0.0
 10
-12.99418118447267
 20
80.37405797170388
 30
0.0
 10
-13.50079956788896
 20
80.37999851181809
 30
0.0
 10
-14.48411439279462
 20
80.38353159678998
 30
0.0
 10
-14.9595471622073
 20
80.38112868277625
 30
0.0
 10
-16.35128951119369
 20
80.36136083693759
 30
0.0
 10
-17.23260522433076
 20
80.33152386959958
 30
0.0
 10
-19.75903872622712
 20
80.19111476858923
 30
0.0
 10
-21.29814573439315
 20
80.02959476910483
 30
0.0
 10
-22.73417303901542
 20
79.79600695451356
 30
0.0
  0
LWPOLYLINE
  5
97
330
1F
100
AcDbEntity
  8
0
  6
Continuous
 62
     7
370
    15
100
AcDbPolyline
 90
        2
 70
   128
 43
0.0
 10
67.2534828362
 20
73.4725989075
 10
67.2534828362
 20
73.4725989075
  0
LWPOLYLINE
  5
98
330
1F
100
AcDbEntity
  8
0
  6
Continuous
 62
     7
370
    15
100
AcDbPolyline
 90
        2
 70
   128
 43
0.0
 10
-8.7387320305
 20
52.1786844795
 10
-8.7387320305
 20
52.1786844795
  0
LINE
  5
99
330
1F
100
AcDbEntity
  8
0
  6
Continuous
 62
     7
370
    15
100
AcDbLine
 10
-43.7971912624
 20
30.4311924903
 30
0.0
 11
-38.5620420473
 21
41.6580062121
 31
0.0
  0
LINE
  5
9A
330
1F
100
AcDbEntity
  8
0
  6
Continuous
 62
     7
370
    15
100
AcDbLine
 10
-22.734173039
 20
79.7960069545
 30
0.0
 11
-23.2417099023
 21
79.7096938603
 31
0.0
  0
LINE
  5
9B
330
1F
100
AcDbEntity
  8
0
  6
Continuous
 62
     7
370
    15
100
AcDbLine
 10
16.0796147246
 20
14.0814645478
 30
0.0
 11
22.3075236317
 21
3.2944098959
 31
0.0
  0
ARC
  5
9C
330
1F
100
AcDbEntity
  8
0
  6
Continuous
 62
     7
370
    15
100
AcDbCircle
 10
54.9253847734
 20
48.3624450831
 30
0.0
 40
1.999999999999954
100
AcDbArc
 50
232.9680589321
 51
277.0118881041
  0
ARC
  5
9D
330
1F
100
AcDbEntity
  8
0
  6
Continuous
 62
     7
370
    15
100
AcDbCircle
 10
21.4414982279
 20
2.7944098959
 30
0.0
 40
1.000000000000027
100
AcDbArc
 50
279.567716911
 51
30.0
  0
ARC
  5
9E
330
1F
100
AcDbEntity
  8
0
  6
Continuous
 62
     7
370
    15
100
AcDbCircle
 10
0.0
 20
130.0
 30
0.0
 40
130.0000000000011
100
AcDbArc
 50
238.6971927561
 51
279.567716911
  0
ARC
  5
9F
330
1F
100
AcDbEntity
  8
0
  6
Continuous
 62
     7
370
    15
100
AcDbCircle
 10
11.7494877057
 20
11.5814645478
 30
0.0
 40
5.000000000000007
100
AcDbArc
 50
30.0
 51
95.6663417992
  0
ARC
  5
A0
330
1F
100
AcDbEntity
  8
0
  6
Continuous
 62
     7
370
    15
100
AcDbCircle
 10
0.0
 20
130.0
 30
0.0
 40
114.0000000000004
100
AcDbArc
 50
248.8853500905
 51
275.6663417992
  0
ARC
  5
A1
330
1F
100
AcDbEntity
  8
0
  6
Continuous
 62
     7
370
    15
100
AcDbCircle
 10
-39.2656523273
 20
28.3181011816
 30
0.0
 40
4.99999999999997
100
AcDbArc
 50
155.0
 51
248.8853500905
  0
ENDSEC
  0
SECTION
  2
OBJECTS
  0
DICTIONARY
  5
C
330
0
100
AcDbDictionary
281
     1
  3
ACAD_GROUP
350
D
  3
ACAD_LAYOUT
350
1A
  3
ACAD_MLINESTYLE
350
17
  3
ACAD_PLOTSETTINGS
350
19
  3
ACAD_PLOTSTYLENAME
350
E
  3
ACAD_SCALELIST
350
47
  0
DICTIONARY
  5
D
102
{ACAD_REACTORS
330
C
102
}
330
C
100
AcDbDictionary
281
     1
  0
DICTIONARY
  5
1A
102
{ACAD_REACTORS
330
C
102
}
330
C
100
AcDbDictionary
281
     1
  3
Layout1
350
1E
  3
Layout2
350
26
  3
Model
350
22
  0
DICTIONARY
  5
17
102
{ACAD_REACTORS
330
C
102
}
330
C
100
AcDbDictionary
281
     1
  3
Standard
350
18
  0
DICTIONARY
  5
19
102
{ACAD_REACTORS
330
C
102
}
330
C
100
AcDbDictionary
281
     1
  0
ACDBDICTIONARYWDFLT
  5
E
102
{ACAD_REACTORS
330
C
102
}
330
C
100
AcDbDictionary
281
     1
  3
Normal
350
F
100
AcDbDictionaryWithDefault
340
F
  0
DICTIONARY
  5
47
102
{ACAD_REACTORS
330
C
102
}
330
C
100
AcDbDictionary
281
     1
  3
A0
350
48
  3
A1
350
49
  3
A2
350
4A
  3
A3
350
4B
  3
A4
350
4C
  3
A5
350
4D
  3
A6
350
4E
  3
A7
350
4F
  3
A8
350
50
  3
A9
350
51
  3
B0
350
52
  3
B1
350
53
  3
B2
350
54
  3
B3
350
55
  3
B4
350
56
  3
B5
350
57
  3
B6
350
58
  3
B7
350
59
  3
B8
350
5A
  3
B9
350
5B
  3
C0
350
5C
  3
C1
350
5D
  3
C2
350
5E
  3
C3
350
5F
  3
C4
350
60
  3
C5
350
61
  3
C6
350
62
  3
C7
350
63
  3
C8
350
64
  3
C9
350
65
  3
D0
350
66
  3
D1
350
67
  3
D2
350
68
  0
LAYOUT
  5
1E
102
{ACAD_REACTORS
330
1A
102
}
330
1A
100
AcDbPlotSettings
  1

  2
none_device
  4

  6

 40
0.0
 41
0.0
 42
0.0
 43
0.0
 44
0.0
 45
0.0
 46
0.0
 47
0.0
 48
0.0
 49
0.0
140
0.0
141
0.0
142
1.0
143
1.0
 70
   688
 72
     1
 73
     0
 74
     5
  7

 75
    16
147
1.0
148
0.0
149
0.0
100
AcDbLayout
  1
Layout1
 70
     1
 71
     1
 10
0.0
 20
0.0
 11
420.0
 21
297.0
 12
0.0
 22
0.0
 32
0.0
 14
1.0000000000E+20
 24
1.0000000000E+20
 34
1.0000000000E+20
 15
-1.0000000000E+20
 25
-1.0000000000E+20
 35
-1.0000000000E+20
146
0.0
 13
0.0
 23
0.0
 33
0.0
 16
1.0
 26
0.0
 36
0.0
 17
0.0
 27
1.0
 37
0.0
 76
     0
330
1B
  0
LAYOUT
  5
26
102
{ACAD_REACTORS
330
1A
102
}
330
1A
100
AcDbPlotSettings
  1

  2
none_device
  4

  6

 40
0.0
 41
0.0
 42
0.0
 43
0.0
 44
0.0
 45
0.0
 46
0.0
 47
0.0
 48
0.0
 49
0.0
140
0.0
141
0.0
142
1.0
143
1.0
 70
   688
 72
     1
 73
     0
 74
     5
  7

 75
    16
147
1.0
148
0.0
149
0.0
100
AcDbLayout
  1
Layout2
 70
     1
 71
     2
 10
0.0
 20
0.0
 11
0.0
 21
0.0
 12
0.0
 22
0.0
 32
0.0
 14
0.0
 24
0.0
 34
0.0
 15
0.0
 25
0.0
 35
0.0
146
0.0
 13
0.0
 23
0.0
 33
0.0
 16
1.0
 26
0.0
 36
0.0
 17
0.0
 27
1.0
 37
0.0
 76
     0
330
23
  0
LAYOUT
  5
22
102
{ACAD_REACTORS
330
1A
102
}
330
1A
100
AcDbPlotSettings
  1

  2
none_device
  4
ANSI_A_(11.00_x_8.50_Inches)
  6

 40
6.35
 41
19.05
 42
6.35000508
 43
19.05000254
 44
279.4
 45
215.9
 46
129.0488990471
 47
9.1703984894
 48
0.0
 49
0.0
140
0.0
141
0.0
142
0.0781083329
143
1.0
 70
  1696
 72
     0
 73
     0
 74
     0
  7

 75
     0
147
0.0179189148
148
-1300.4909072572
149
0.0
100
AcDbLayout
  1
Model
 70
     1
 71
     0
 10
0.0
 20
0.0
 11
420.0
 21
297.0
 12
0.0
 22
0.0
 32
0.0
 14
-67.5429268828
 24
0.0
 34
0.0
 15
71.8788172273
 25
80.3745394008
 35
0.0
146
0.0
 13
0.0
 23
0.0
 33
0.0
 16
1.0
 26
0.0
 36
0.0
 17
0.0
 27
1.0
 37
0.0
 76
     0
330
1F
331
29
  0
MLINESTYLE
  5
18
102
{ACAD_REACTORS
330
17
102
}
330
17
100
AcDbMlineStyle
  2
Standard
 70
     0
  3

 62
   256
 51
90.0
 52
90.0
 71
     2
 49
0.5
 62
   256
  6
BYLAYER
 49
-0.5
 62
   256
  6
BYLAYER
  0
ACDBPLACEHOLDER
  5
F
102
{ACAD_REACTORS
330
E
102
}
330
E
  0
SCALE
  5
48
102
{ACAD_REACTORS
330
47
102
}
330
47
100
AcDbScale
 70
     0
300
1:1
140
1.0
141
1.0
290
     1
  0
SCALE
  5
49
102
{ACAD_REACTORS
330
47
102
}
330
47
100
AcDbScale
 70
     0
300
1:2
140
1.0
141
2.0
290
     0
  0
SCALE
  5
4A
102
{ACAD_REACTORS
330
47
102
}
330
47
100
AcDbScale
 70
     0
300
1:4
140
1.0
141
4.0
290
     0
  0
SCALE
  5
4B
102
{ACAD_REACTORS
330
47
102
}
330
47
100
AcDbScale
 70
     0
300
1:5
140
1.0
141
5.0
290
     0
  0
SCALE
  5
4C
102
{ACAD_REACTORS
330
47
102
}
330
47
100
AcDbScale
 70
     0
300
1:8
140
1.0
141
8.0
290
     0
  0
SCALE
  5
4D
102
{ACAD_REACTORS
330
47
102
}
330
47
100
AcDbScale
 70
     0
300
1:10
140
1.0
141
10.0
290
     0
  0
SCALE
  5
4E
102
{ACAD_REACTORS
330
47
102
}
330
47
100
AcDbScale
 70
     0
300
1:16
140
1.0
141
16.0
290
     0
  0
SCALE
  5
4F
102
{ACAD_REACTORS
330
47
102
}
330
47
100
AcDbScale
 70
     0
300
1:20
140
1.0
141
20.0
290
     0
  0
SCALE
  5
50
102
{ACAD_REACTORS
330
47
102
}
330
47
100
AcDbScale
 70
     0
300
1:30
140
1.0
141
30.0
290
     0
  0
SCALE
  5
51
102
{ACAD_REACTORS
330
47
102
}
330
47
100
AcDbScale
 70
     0
300
1:40
140
1.0
141
40.0
290
     0
  0
SCALE
  5
52
102
{ACAD_REACTORS
330
47
102
}
330
47
100
AcDbScale
 70
     0
300
1:50
140
1.0
141
50.0
290
     0
  0
SCALE
  5
53
102
{ACAD_REACTORS
330
47
102
}
330
47
100
AcDbScale
 70
     0
300
1:100
140
1.0
141
100.0
290
     0
  0
SCALE
  5
54
102
{ACAD_REACTORS
330
47
102
}
330
47
100
AcDbScale
 70
     0
300
2:1
140
2.0
141
1.0
290
     0
  0
SCALE
  5
55
102
{ACAD_REACTORS
330
47
102
}
330
47
100
AcDbScale
 70
     0
300
4:1
140
4.0
141
1.0
290
     0
  0
SCALE
  5
56
102
{ACAD_REACTORS
330
47
102
}
330
47
100
AcDbScale
 70
     0
300
8:1
140
8.0
141
1.0
290
     0
  0
SCALE
  5
57
102
{ACAD_REACTORS
330
47
102
}
330
47
100
AcDbScale
 70
     0
300
10:1
140
10.0
141
1.0
290
     0
  0
SCALE
  5
58
102
{ACAD_REACTORS
330
47
102
}
330
47
100
AcDbScale
 70
     0
300
100:1
140
100.0
141
1.0
290
     0
  0
SCALE
  5
59
102
{ACAD_REACTORS
330
47
102
}
330
47
100
AcDbScale
 70
     0
300
1/128" = 1'-0"
140
0.0078125
141
12.0
290
     0
  0
SCALE
  5
5A
102
{ACAD_REACTORS
330
47
102
}
330
47
100
AcDbScale
 70
     0
300
1/64" = 1'-0"
140
0.015625
141
12.0
290
     0
  0
SCALE
  5
5B
102
{ACAD_REACTORS
330
47
102
}
330
47
100
AcDbScale
 70
     0
300
1/32" = 1'-0"
140
0.03125
141
12.0
290
     0
  0
SCALE
  5
5C
102
{ACAD_REACTORS
330
47
102
}
330
47
100
AcDbScale
 70
     0
300
1/16" = 1'-0"
140
0.0625
141
12.0
290
     0
  0
SCALE
  5
5D
102
{ACAD_REACTORS
330
47
102
}
330
47
100
AcDbScale
 70
     0
300
3/32" = 1'-0"
140
0.09375
141
12.0
290
     0
  0
SCALE
  5
5E
102
{ACAD_REACTORS
330
47
102
}
330
47
100
AcDbScale
 70
     0
300
1/8" = 1'-0"
140
0.125
141
12.0
290
     0
  0
SCALE
  5
5F
102
{ACAD_REACTORS
330
47
102
}
330
47
100
AcDbScale
 70
     0
300
3/16" = 1'-0"
140
0.1875
141
12.0
290
     0
  0
SCALE
  5
60
102
{ACAD_REACTORS
330
47
102
}
330
47
100
AcDbScale
 70
     0
300
1/4" = 1'-0"
140
0.25
141
12.0
290
     0
  0
SCALE
  5
61
102
{ACAD_REACTORS
330
47
102
}
330
47
100
AcDbScale
 70
     0
300
3/8" = 1'-0"
140
0.375
141
12.0
290
     0
  0
SCALE
  5
62
102
{ACAD_REACTORS
330
47
102
}
330
47
100
AcDbScale
 70
     0
300
1/2" = 1'-0"
140
0.5
141
12.0
290
     0
  0
SCALE
  5
63
102
{ACAD_REACTORS
330
47
102
}
330
47
100
AcDbScale
 70
     0
300
3/4" = 1'-0"
140
0.75
141
12.0
290
     0
  0
SCALE
  5
64
102
{ACAD_REACTORS
330
47
102
}
330
47
100
AcDbScale
 70
     0
300
1" = 1'-0"
140
1.0
141
12.0
290
     0
  0
SCALE
  5
65
102
{ACAD_REACTORS
330
47
102
}
330
47
100
AcDbScale
 70
     0
300
1-1/2" = 1'-0"
140
1.5
141
12.0
290
     0
  0
SCALE
  5
66
102
{ACAD_REACTORS
330
47
102
}
330
47
100
AcDbScale
 70
     0
300
3" = 1'-0"
140
3.0
141
12.0
290
     0
  0
SCALE
  5
67
102
{ACAD_REACTORS
330
47
102
}
330
47
100
AcDbScale
 70
     0
300
6" = 1'-0"
140
6.0
141
12.0
290
     0
  0
SCALE
  5
68
102
{ACAD_REACTORS
330
47
102
}
330
47
100
AcDbScale
 70
     0
300
1'-0" = 1'-0"
140
12.0
141
12.0
290
     0
  0
ENDSEC
  0
EOF
