  0
SECTION
  2
HEADER
  9
$ACADVER
  1
AC1018
  9
$ACADMAINTVER
 70
     0
  9
$DWGCODEPAGE
  3
ANSI_1252
  9
$INSBASE
 10
0.0
 20
0.0
 30
0.0
  9
$EXTMIN
 10
1.000000000000000E+20
 20
1.000000000000000E+20
 30
1.000000000000000E+20
  9
$EXTMAX
 10
-1.000000000000000E+20
 20
-1.000000000000000E+20
 30
-1.000000000000000E+20
  9
$LIMMIN
 10
0.0
 20
0.0
  9
$LIMMAX
 10
12.0
 20
9.0
  9
$ORTHOMODE
 70
     0
  9
$REGENMODE
 70
     1
  9
$FILLMODE
 70
     1
  9
$QTEXTMODE
 70
     0
  9
$MIRRTEXT
 70
     1
  9
$LTSCALE
 40
1.0
  9
$ATTMODE
 70
     1
  9
$TEXTSIZE
 40
0.2
  9
$TRACEWID
 40
0.05
  9
$TEXTSTYLE
  7
Standard
  9
$CLAYER
  8
0
  9
$CELTYPE
  6
ByLayer
  9
$CECOLOR
 62
   256
  9
$CELTSCALE
 40
1.0
  9
$DISPSILH
 70
     0
  9
$DIMSCALE
 40
1.0
  9
$DIMASZ
 40
0.18
  9
$DIMEXO
 40
0.0625
  9
$DIMDLI
 40
0.38
  9
$DIMRND
 40
0.0
  9
$DIMDLE
 40
0.0
  9
$DIMEXE
 40
0.18
  9
$DIMTP
 40
0.0
  9
$DIMTM
 40
0.0
  9
$DIMTXT
 40
0.18
  9
$DIMCEN
 40
0.09
  9
$DIMTSZ
 40
0.0
  9
$DIMTOL
 70
     0
  9
$DIMLIM
 70
     0
  9
$DIMTIH
 70
     1
  9
$DIMTOH
 70
     1
  9
$DIMSE1
 70
     0
  9
$DIMSE2
 70
     0
  9
$DIMTAD
 70
     0
  9
$DIMZIN
 70
     0
  9
$DIMBLK
  1

  9
$DIMASO
 70
     1
  9
$DIMSHO
 70
     1
  9
$DIMPOST
  1

  9
$DIMAPOST
  1

  9
$DIMALT
 70
     0
  9
$DIMALTD
 70
     2
  9
$DIMALTF
 40
25.4
  9
$DIMLFAC
 40
1.0
  9
$DIMTOFL
 70
     0
  9
$DIMTVP
 40
0.0
  9
$DIMTIX
 70
     0
  9
$DIMSOXD
 70
     0
  9
$DIMSAH
 70
     0
  9
$DIMBLK1
  1

  9
$DIMBLK2
  1

  9
$DIMSTYLE
  2
Standard
  9
$DIMCLRD
 70
     0
  9
$DIMCLRE
 70
     0
  9
$DIMCLRT
 70
     0
  9
$DIMTFAC
 40
1.0
  9
$DIMGAP
 40
0.09
  9
$DIMJUST
 70
     0
  9
$DIMSD1
 70
     0
  9
$DIMSD2
 70
     0
  9
$DIMTOLJ
 70
     1
  9
$DIMTZIN
 70
     0
  9
$DIMALTZ
 70
     0
  9
$DIMALTTZ
 70
     0
  9
$DIMUPT
 70
     0
  9
$DIMDEC
 70
     4
  9
$DIMTDEC
 70
     4
  9
$DIMALTU
 70
     2
  9
$DIMALTTD
 70
     2
  9
$DIMTXSTY
  7
Standard
  9
$DIMAUNIT
 70
     0
  9
$DIMADEC
 70
     0
  9
$DIMALTRND
 40
0.0
  9
$DIMAZIN
 70
     0
  9
$DIMDSEP
 70
    46
  9
$DIMATFIT
 70
     3
  9
$DIMFRAC
 70
     0
  9
$DIMLDRBLK
  1

  9
$DIMLUNIT
 70
     2
  9
$DIMLWD
 70
    -2
  9
$DIMLWE
 70
    -2
  9
$DIMTMOVE
 70
     0
  9
$LUNITS
 70
     2
  9
$LUPREC
 70
     4
  9
$SKETCHINC
 40
0.1
  9
$FILLETRAD
 40
0.5
  9
$AUNITS
 70
     0
  9
$AUPREC
 70
     0
  9
$MENU
  1
.
  9
$ELEVATION
 40
0.0
  9
$PELEVATION
 40
0.0
  9
$THICKNESS
 40
0.0
  9
$LIMCHECK
 70
     0
  9
$CHAMFERA
 40
0.5
  9
$CHAMFERB
 40
0.5
  9
$CHAMFERC
 40
1.0
  9
$CHAMFERD
 40
0.0
  9
$SKPOLY
 70
     0
  9
$TDCREATE
 40
2456572.910510984
  9
$TDUCREATE
 40
2456573.07717765
  9
$TDUPDATE
 40
2456572.910510995
  9
$TDUUPDATE
 40
2456573.077177662
  9
$TDINDWG
 40
0.0000000116
  9
$TDUSRTIMER
 40
0.0000000116
  9
$USRTIMER
 70
     1
  9
$ANGBASE
 50
0.0
  9
$ANGDIR
 70
     0
  9
$PDMODE
 70
     0
  9
$PDSIZE
 40
0.0
  9
$PLINEWID
 40
0.0
  9
$SPLFRAME
 70
     0
  9
$SPLINETYPE
 70
     6
  9
$SPLINESEGS
 70
     8
  9
$HANDSEED
  5
F0
  9
$SURFTAB1
 70
     6
  9
$SURFTAB2
 70
     6
  9
$SURFTYPE
 70
     6
  9
$SURFU
 70
     6
  9
$SURFV
 70
     6
  9
$UCSBASE
  2

  9
$UCSNAME
  2

  9
$UCSORG
 10
0.0
 20
0.0
 30
0.0
  9
$UCSXDIR
 10
1.0
 20
0.0
 30
0.0
  9
$UCSYDIR
 10
0.0
 20
1.0
 30
0.0
  9
$UCSORTHOREF
  2

  9
$UCSORTHOVIEW
 70
     0
  9
$UCSORGTOP
 10
0.0
 20
0.0
 30
0.0
  9
$UCSORGBOTTOM
 10
0.0
 20
0.0
 30
0.0
  9
$UCSORGLEFT
 10
0.0
 20
0.0
 30
0.0
  9
$UCSORGRIGHT
 10
0.0
 20
0.0
 30
0.0
  9
$UCSORGFRONT
 10
0.0
 20
0.0
 30
0.0
  9
$UCSORGBACK
 10
0.0
 20
0.0
 30
0.0
  9
$PUCSBASE
  2

  9
$PUCSNAME
  2

  9
$PUCSORG
 10
0.0
 20
0.0
 30
0.0
  9
$PUCSXDIR
 10
1.0
 20
0.0
 30
0.0
  9
$PUCSYDIR
 10
0.0
 20
1.0
 30
0.0
  9
$PUCSORTHOREF
  2

  9
$PUCSORTHOVIEW
 70
     0
  9
$PUCSORGTOP
 10
0.0
 20
0.0
 30
0.0
  9
$PUCSORGBOTTOM
 10
0.0
 20
0.0
 30
0.0
  9
$PUCSORGLEFT
 10
0.0
 20
0.0
 30
0.0
  9
$PUCSORGRIGHT
 10
0.0
 20
0.0
 30
0.0
  9
$PUCSORGFRONT
 10
0.0
 20
0.0
 30
0.0
  9
$PUCSORGBACK
 10
0.0
 20
0.0
 30
0.0
  9
$USERI1
 70
     0
  9
$USERI2
 70
     0
  9
$USERI3
 70
     0
  9
$USERI4
 70
     0
  9
$USERI5
 70
     0
  9
$USERR1
 40
0.0
  9
$USERR2
 40
0.0
  9
$USERR3
 40
0.0
  9
$USERR4
 40
0.0
  9
$USERR5
 40
0.0
  9
$WORLDVIEW
 70
     1
  9
$SHADEDGE
 70
     3
  9
$SHADEDIF
 70
    70
  9
$TILEMODE
 70
     1
  9
$MAXACTVP
 70
    64
  9
$PINSBASE
 10
0.0
 20
0.0
 30
0.0
  9
$PLIMCHECK
 70
     0
  9
$PEXTMIN
 10
1.000000000000000E+20
 20
1.000000000000000E+20
 30
1.000000000000000E+20
  9
$PEXTMAX
 10
-1.000000000000000E+20
 20
-1.000000000000000E+20
 30
-1.000000000000000E+20
  9
$PLIMMIN
 10
0.0
 20
0.0
  9
$PLIMMAX
 10
12.0
 20
9.0
  9
$UNITMODE
 70
     0
  9
$VISRETAIN
 70
     1
  9
$PLINEGEN
 70
     0
  9
$PSLTSCALE
 70
     1
  9
$TREEDEPTH
 70
  3020
  9
$CMLSTYLE
  2
Standard
  9
$CMLJUST
 70
     0
  9
$CMLSCALE
 40
1.0
  9
$PROXYGRAPHICS
 70
     1
  9
$MEASUREMENT
 70
     0
  9
$CELWEIGHT
370
    -1
  9
$ENDCAPS
280
     0
  9
$JOINSTYLE
280
     0
  9
$LWDISPLAY
290
     1
  9
$INSUNITS
 70
     1
  9
$HYPERLINKBASE
  1

  9
$STYLESHEET
  1

  9
$XEDIT
290
     1
  9
$CEPSNTYPE
380
     0
  9
$PSTYLEMODE
290
     1
  9
$FINGERPRINTGUID
  2
{A429C28C-39AF-44FC-9261-68BD5DA7526F}
  9
$VERSIONGUID
  2
{FAEB1C32-E019-11D5-929B-00C0DF256EC4}
  9
$EXTNAMES
290
     1
  9
$PSVPSCALE
 40
0.0
  9
$OLESTARTUP
290
     0
  9
$SORTENTS
280
   127
  9
$INDEXCTL
280
     0
  9
$HIDETEXT
280
     1
  9
$XCLIPFRAME
290
     0
  9
$HALOGAP
280
     0
  9
$OBSCOLOR
 70
   257
  9
$OBSLTYPE
280
     0
  9
$INTERSECTIONDISPLAY
280
     0
  9
$INTERSECTIONCOLOR
 70
   257
  9
$DIMASSOC
280
     2
  9
$PROJECTNAME
  1

  0
ENDSEC
  0
SECTION
  2
CLASSES
  0
CLASS
  1
ACDBDICTIONARYWDFLT
  2
AcDbDictionaryWithDefault
  3
ObjectDBX Classes
 90
        0
 91
        3
280
     0
281
     0
  0
CLASS
  1
VISUALSTYLE
  2
AcDbVisualStyle
  3
ObjectDBX Classes
 90
     4095
 91
        3
280
     0
281
     0
  0
ENDSEC
  0
SECTION
  2
TABLES
  0
TABLE
  2
VPORT
  5
8
330
0
100
AcDbSymbolTable
 70
     1
  0
VPORT
  5
29
330
8
100
AcDbSymbolTableRecord
100
AcDbViewportTableRecord
  2
*Active
 70
     0
 10
0.0
 20
0.0
 11
1.0
 21
1.0
 12
0.0
 22
0.0
 13
0.0
 23
0.0
 14
0.5
 24
0.5
 15
0.5
 25
0.5
 16
0.0
 26
0.0
 36
1.0
 17
4.999918754175368
 27
4.999918754175368
 37
0.0
 40
9.999837508350735
 41
1.0
 42
50.0
 43
0.0
 44
0.0
 50
0.0
 51
0.0
 71
     0
 72
   100
 73
     1
 74
     3
 75
     0
 76
     0
 77
     0
 78
     0
281
     0
 65
     1
110
0.0
120
0.0
130
0.0
111
1.0
121
0.0
131
0.0
112
0.0
122
1.0
132
0.0
 79
     0
146
0.0
  0
ENDTAB
  0
TABLE
  2
LTYPE
  5
5
330
0
100
AcDbSymbolTable
 70
     1
  0
LTYPE
  5
14
330
5
100
AcDbSymbolTableRecord
100
AcDbLinetypeTableRecord
  2
ByBlock
 70
     0
  3

 72
    65
 73
     0
 40
0.0
  0
LTYPE
  5
15
330
5
100
AcDbSymbolTableRecord
100
AcDbLinetypeTableRecord
  2
ByLayer
 70
     0
  3

 72
    65
 73
     0
 40
0.0
  0
LTYPE
  5
16
330
5
100
AcDbSymbolTableRecord
100
AcDbLinetypeTableRecord
  2
Continuous
 70
     0
  3
Solid line
 72
    65
 73
     0
 40
0.0
  0
ENDTAB
  0
TABLE
  2
LAYER
  5
2
330
0
100
AcDbSymbolTable
 70
     2
  0
LAYER
  5
10
330
2
100
AcDbSymbolTableRecord
100
AcDbLayerTableRecord
  2
0
 70
     0
 62
     7
  6
Continuous
370
    -3
390
F
  0
LAYER
  5
3B
330
2
100
AcDbSymbolTableRecord
100
AcDbLayerTableRecord
  2
Layer 1
 70
     0
 62
     7
  6
Continuous
370
    -3
390
F
  0
ENDTAB
  0
TABLE
  2
STYLE
  5
3
330
0
100
AcDbSymbolTable
 70
     1
  0
STYLE
  5
11
330
3
100
AcDbSymbolTableRecord
100
AcDbTextStyleTableRecord
  2
Standard
 70
     0
 40
0.0
 41
1.0
 50
0.0
 71
     0
 42
0.2
  3
txt
  4

  0
ENDTAB
  0
TABLE
  2
VIEW
  5
6
330
0
100
AcDbSymbolTable
 70
     0
  0
ENDTAB
  0
TABLE
  2
UCS
  5
7
330
0
100
AcDbSymbolTable
 70
     0
  0
ENDTAB
  0
TABLE
  2
APPID
  5
9
330
0
100
AcDbSymbolTable
 70
     1
  0
APPID
  5
12
330
9
100
AcDbSymbolTableRecord
100
AcDbRegAppTableRecord
  2
ACAD
 70
     0
  0
ENDTAB
  0
TABLE
  2
DIMSTYLE
  5
A
330
0
100
AcDbSymbolTable
 70
     1
100
AcDbDimStyleTable
  0
DIMSTYLE
105
27
330
A
100
AcDbSymbolTableRecord
100
AcDbDimStyleTableRecord
  2
Standard
 70
     0
340
11
  0
ENDTAB
  0
TABLE
  2
BLOCK_RECORD
  5
1
330
0
100
AcDbSymbolTable
 70
    15
  0
BLOCK_RECORD
  5
1F
330
1
100
AcDbSymbolTableRecord
100
AcDbBlockTableRecord
  2
*Model_Space
340
22
  0
BLOCK_RECORD
  5
1B
330
1
100
AcDbSymbolTableRecord
100
AcDbBlockTableRecord
  2
*Paper_Space
340
1E
  0
BLOCK_RECORD
  5
23
330
1
100
AcDbSymbolTableRecord
100
AcDbBlockTableRecord
  2
*Paper_Space0
340
26
  0
BLOCK_RECORD
  5
3C
330
1
100
AcDbSymbolTableRecord
100
AcDbBlockTableRecord
  2
block 2
340
0
102
{BLKREFS
331
3D
102
}
  0
BLOCK_RECORD
  5
41
330
1
100
AcDbSymbolTableRecord
100
AcDbBlockTableRecord
  2
block 3
340
0
102
{BLKREFS
331
42
102
}
  0
BLOCK_RECORD
  5
45
330
1
100
AcDbSymbolTableRecord
100
AcDbBlockTableRecord
  2
block 4
340
0
102
{BLKREFS
331
46
102
}
  0
BLOCK_RECORD
  5
4A
330
1
100
AcDbSymbolTableRecord
100
AcDbBlockTableRecord
  2
block 5
340
0
102
{BLKREFS
331
4B
102
}
  0
BLOCK_RECORD
  5
4F
330
1
100
AcDbSymbolTableRecord
100
AcDbBlockTableRecord
  2
block 6
340
0
102
{BLKREFS
331
50
102
}
  0
BLOCK_RECORD
  5
54
330
1
100
AcDbSymbolTableRecord
100
AcDbBlockTableRecord
  2
block 7
340
0
102
{BLKREFS
331
55
102
}
  0
BLOCK_RECORD
  5
59
330
1
100
AcDbSymbolTableRecord
100
AcDbBlockTableRecord
  2
block 8
340
0
102
{BLKREFS
331
5A
102
}
  0
BLOCK_RECORD
  5
5D
330
1
100
AcDbSymbolTableRecord
100
AcDbBlockTableRecord
  2
block 9
340
0
102
{BLKREFS
331
5E
102
}
  0
BLOCK_RECORD
  5
62
330
1
100
AcDbSymbolTableRecord
100
AcDbBlockTableRecord
  2
block 10
340
0
102
{BLKREFS
331
63
102
}
  0
BLOCK_RECORD
  5
67
330
1
100
AcDbSymbolTableRecord
100
AcDbBlockTableRecord
  2
block 11
340
0
102
{BLKREFS
331
68
102
}
  0
BLOCK_RECORD
  5
6C
330
1
100
AcDbSymbolTableRecord
100
AcDbBlockTableRecord
  2
block 12
340
0
102
{BLKREFS
331
6D
102
}
  0
BLOCK_RECORD
  5
70
330
1
100
AcDbSymbolTableRecord
100
AcDbBlockTableRecord
  2
block 13
340
0
102
{BLKREFS
331
71
102
}
  0
BLOCK_RECORD
  5
9B
330
1
100
AcDbSymbolTableRecord
100
AcDbBlockTableRecord
  2
block 14
340
0
102
{BLKREFS
331
9C
102
}
  0
BLOCK_RECORD
  5
EA
330
1
100
AcDbSymbolTableRecord
100
AcDbBlockTableRecord
  2
block 15
340
0
102
{BLKREFS
331
EB
102
}
  0
ENDTAB
  0
ENDSEC
  0
SECTION
  2
BLOCKS
  0
BLOCK
  5
20
330
1F
100
AcDbEntity
  8
0
100
AcDbBlockBegin
  2
*Model_Space
 70
     0
 71
     0
 10
0.0
 20
0.0
 30
0.0
  3
*Model_Space
  1

  0
ENDBLK
  5
21
330
1F
100
AcDbEntity
  8
0
100
AcDbBlockEnd
  0
BLOCK
  5
1C
330
1B
100
AcDbEntity
 67
     1
  8
0
100
AcDbBlockBegin
  2
*Paper_Space
 70
     0
 71
     0
 10
0.0
 20
0.0
 30
0.0
  3
*Paper_Space
  1

  0
ENDBLK
  5
1D
330
1B
100
AcDbEntity
 67
     1
  8
0
100
AcDbBlockEnd
  0
BLOCK
  5
24
330
23
100
AcDbEntity
  8
0
100
AcDbBlockBegin
  2
*Paper_Space0
 70
     0
 71
     0
 10
0.0
 20
0.0
 30
0.0
  3
*Paper_Space0
  1

  0
ENDBLK
  5
25
330
23
100
AcDbEntity
  8
0
100
AcDbBlockEnd
  0
BLOCK
  5
3E
330
3C
100
AcDbEntity
  8
0
100
AcDbBlockBegin
  2
block 2
 70
     0
 71
     0
 10
0.0
 20
0.0
 30
0.0
  3
block 2
  1

  0
MTEXT
  5
40
330
3C
100
AcDbEntity
  8
Layer 1
 62
     7
420
 16777215
100
AcDbMText
 10
1.414642333630714
 20
3.427077635861981
 30
0.0
 40
0.503766666540725
 41
0.0
 71
     7
 72
     1
  1
\fMyriad Pro|b0|i0|c0|p34;\W1;plywood
 11
-4.371139000186241E-8
 21
0.999999999999999
 31
0.0
 73
     1
 44
1.0
  0
ENDBLK
  5
3F
330
3C
100
AcDbEntity
  8
0
100
AcDbBlockEnd
  0
BLOCK
  5
43
330
41
100
AcDbEntity
  8
0
100
AcDbBlockBegin
  2
block 3
 70
     0
 71
     0
 10
0.0
 20
0.0
 30
0.0
  3
block 3
  1

  0
INSERT
  5
46
330
41
100
AcDbEntity
  8
Layer 1
100
AcDbBlockReference
  2
block 4
 10
0.0
 20
0.0
 30
0.0
  0
INSERT
  5
4B
330
41
100
AcDbEntity
  8
Layer 1
100
AcDbBlockReference
  2
block 5
 10
0.0
 20
0.0
 30
0.0
  0
INSERT
  5
50
330
41
100
AcDbEntity
  8
Layer 1
100
AcDbBlockReference
  2
block 6
 10
0.0
 20
0.0
 30
0.0
  0
INSERT
  5
55
330
41
100
AcDbEntity
  8
Layer 1
100
AcDbBlockReference
  2
block 7
 10
0.0
 20
0.0
 30
0.0
  0
ENDBLK
  5
44
330
41
100
AcDbEntity
  8
0
100
AcDbBlockEnd
  0
BLOCK
  5
47
330
45
100
AcDbEntity
  8
0
100
AcDbBlockBegin
  2
block 4
 70
     0
 71
     0
 10
0.0
 20
0.0
 30
0.0
  3
block 4
  1

  0
SPLINE
  5
49
330
45
100
AcDbEntity
  8
Layer 1
 62
     7
420
 16777215
370
    25
100
AcDbSpline
210
0.0
220
0.0
230
1.0
 70
    11
 71
     3
 72
    29
 73
    25
 74
     0
 42
0.0000000001
 43
0.0000000001
 40
0.0
 40
0.0
 40
0.0
 40
0.0
 40
1.0
 40
1.0
 40
1.0
 40
2.0
 40
2.0
 40
2.0
 40
3.0
 40
3.0
 40
3.0
 40
4.0
 40
4.0
 40
4.0
 40
5.0
 40
5.0
 40
5.0
 40
6.0
 40
6.0
 40
6.0
 40
7.0
 40
7.0
 40
7.0
 40
8.0
 40
8.0
 40
8.0
 40
8.0
 10
6.051413572705896
 20
4.175386826213098
 30
0.0
 10
5.993880478102223
 20
4.050536565827644
 30
0.0
 10
6.027676864812525
 20
3.870151366219962
 30
0.0
 10
6.126516654284343
 20
3.774515515549426
 30
0.0
 10
6.126516654284343
 20
3.774515515549426
 30
0.0
 10
7.45687472686842
 20
2.487634547989202
 30
0.0
 10
7.45687472686842
 20
2.487634547989202
 30
0.0
 10
7.555714516340237
 20
2.391998697318667
 30
0.0
 10
7.711226126544415
 20
2.397993163463001
 30
0.0
 10
7.802452254993831
 20
2.500863714652562
 30
0.0
 10
7.802452254993831
 20
2.500863714652562
 30
0.0
 10
9.08526800988146
 20
3.947045897450738
 30
0.0
 10
9.08526800988146
 20
3.947045897450738
 30
0.0
 10
9.176494138330876
 20
4.049847546730593
 30
0.0
 10
9.20384819648376
 20
4.2360894086632
 30
0.0
 10
9.146005043286415
 20
4.360870767138949
 30
0.0
 10
9.146005043286415
 20
4.360870767138949
 30
0.0
 10
7.741715221588876
 20
7.390401609480524
 30
0.0
 10
7.741715221588876
 20
7.390401609480524
 30
0.0
 10
7.683872068391532
 20
7.515182967956273
 30
0.0
 10
7.589510903050538
 20
7.515045164136863
 30
0.0
 10
7.531977808446866
 20
7.390194903751409
 30
0.0
 10
7.531977808446866
 20
7.390194903751409
 30
0.0
 10
6.051413572705896
 20
4.175386826213098
 30
0.0
 10
6.051413572705896
 20
4.175386826213098
 30
0.0
  0
ENDBLK
  5
48
330
45
100
AcDbEntity
  8
0
100
AcDbBlockEnd
  0
BLOCK
  5
4C
330
4A
100
AcDbEntity
  8
0
100
AcDbBlockBegin
  2
block 5
 70
     0
 71
     0
 10
0.0
 20
0.0
 30
0.0
  3
block 5
  1

  0
SPLINE
  5
4E
330
4A
100
AcDbEntity
  8
Layer 1
 62
     7
420
 16777215
370
    25
100
AcDbSpline
210
0.0
220
0.0
230
1.0
 70
    11
 71
     3
 72
    17
 73
    13
 74
     0
 42
0.0000000001
 43
0.0000000001
 40
0.0
 40
0.0
 40
0.0
 40
0.0
 40
1.0
 40
1.0
 40
1.0
 40
2.0
 40
2.0
 40
2.0
 40
3.0
 40
3.0
 40
3.0
 40
4.0
 40
4.0
 40
4.0
 40
4.0
 10
7.56429280409851
 20
6.864817842250809
 30
0.0
 10
7.56429280409851
 20
6.826163870906305
 30
0.0
 10
7.595539820149726
 20
6.794813501990532
 30
0.0
 10
7.634228242449081
 20
6.794813501990532
 30
0.0
 10
7.672882213793584
 20
6.794813501990532
 30
0.0
 10
7.704267033664211
 20
6.826163870906305
 30
0.0
 10
7.704267033664211
 20
6.864817842250809
 30
0.0
 10
7.704267033664211
 20
6.903471813595312
 30
0.0
 10
7.672882213793584
 20
6.934822182511086
 30
0.0
 10
7.634228242449081
 20
6.934822182511086
 30
0.0
 10
7.595539820149726
 20
6.934822182511086
 30
0.0
 10
7.56429280409851
 20
6.903471813595312
 30
0.0
 10
7.56429280409851
 20
6.864817842250809
 30
0.0
  0
ENDBLK
  5
4D
330
4A
100
AcDbEntity
  8
0
100
AcDbBlockEnd
  0
BLOCK
  5
51
330
4F
100
AcDbEntity
  8
0
100
AcDbBlockBegin
  2
block 6
 70
     0
 71
     0
 10
0.0
 20
0.0
 30
0.0
  3
block 6
  1

  0
SPLINE
  5
53
330
4F
100
AcDbEntity
  8
Layer 1
 62
     7
420
 16777215
370
    25
100
AcDbSpline
210
0.0
220
0.0
230
1.0
 70
    11
 71
     3
 72
    17
 73
    13
 74
     0
 42
0.0000000001
 43
0.0000000001
 40
0.0
 40
0.0
 40
0.0
 40
0.0
 40
1.0
 40
1.0
 40
1.0
 40
2.0
 40
2.0
 40
2.0
 40
3.0
 40
3.0
 40
3.0
 40
4.0
 40
4.0
 40
4.0
 40
4.0
 10
7.564258353143657
 20
2.793076713711453
 30
0.0
 10
7.564258353143657
 20
2.75442274236695
 30
0.0
 10
7.595643173014283
 20
2.723072373451176
 30
0.0
 10
7.634228242449081
 20
2.723072373451176
 30
0.0
 10
7.672951115703289
 20
2.723072373451176
 30
0.0
 10
7.704267033664211
 20
2.75442274236695
 30
0.0
 10
7.704267033664211
 20
2.793076713711453
 30
0.0
 10
7.704267033664211
 20
2.831730685055956
 30
0.0
 10
7.672951115703289
 20
2.86308105397173
 30
0.0
 10
7.634228242449081
 20
2.86308105397173
 30
0.0
 10
7.595643173014283
 20
2.86308105397173
 30
0.0
 10
7.564258353143657
 20
2.831730685055956
 30
0.0
 10
7.564258353143657
 20
2.793076713711453
 30
0.0
  0
ENDBLK
  5
52
330
4F
100
AcDbEntity
  8
0
100
AcDbBlockEnd
  0
BLOCK
  5
56
330
54
100
AcDbEntity
  8
0
100
AcDbBlockBegin
  2
block 7
 70
     0
 71
     0
 10
0.0
 20
0.0
 30
0.0
  3
block 7
  1

  0
SPLINE
  5
58
330
54
100
AcDbEntity
  8
Layer 1
 62
     7
420
 16777215
370
    25
100
AcDbSpline
210
0.0
220
0.0
230
1.0
 70
    11
 71
     3
 72
    32
 73
    28
 74
     0
 42
0.0000000001
 43
0.0000000001
 40
0.0
 40
0.0
 40
0.0
 40
0.0
 40
1.0
 40
1.0
 40
1.0
 40
2.0
 40
2.0
 40
2.0
 40
3.0
 40
3.0
 40
3.0
 40
4.0
 40
4.0
 40
4.0
 40
5.0
 40
5.0
 40
5.0
 40
6.0
 40
6.0
 40
6.0
 40
7.0
 40
7.0
 40
7.0
 40
8.0
 40
8.0
 40
8.0
 40
9.0
 40
9.0
 40
9.0
 40
9.0
 10
8.634201657997698
 20
4.189718423431737
 30
0.0
 10
8.634201657997698
 20
3.637400715236483
 30
0.0
 10
8.18647704873463
 20
3.189676105973414
 30
0.0
 10
7.634228242449081
 20
3.189676105973414
 30
0.0
 10
7.081910534253828
 20
3.189676105973414
 30
0.0
 10
6.634254826900464
 20
3.637400715236483
 30
0.0
 10
6.634254826900464
 20
4.189718423431737
 30
0.0
 10
6.634254826900464
 20
4.189718423431737
 30
0.0
 10
6.634254826900464
 20
4.589762911178948
 30
0.0
 10
6.634254826900464
 20
4.589762911178948
 30
0.0
 10
6.634254826900464
 20
5.094038762832393
 30
0.0
 10
7.007565373682136
 20
5.510929767502476
 30
0.0
 10
7.492979327553838
 20
5.579590520523505
 30
0.0
 10
7.492979327553838
 20
5.579590520523505
 30
0.0
 10
7.492979327553838
 20
5.928406438405051
 30
0.0
 10
7.492979327553838
 20
5.928406438405051
 30
0.0
 10
7.492979327553838
 20
5.928406438405051
 30
0.0
 10
7.775477157344325
 20
5.928406438405051
 30
0.0
 10
7.775477157344325
 20
5.928406438405051
 30
0.0
 10
7.775477157344325
 20
5.928406438405051
 30
0.0
 10
7.775477157344325
 20
5.579590520523505
 30
0.0
 10
7.775477157344325
 20
5.579590520523505
 30
0.0
 10
8.26082220930632
 20
5.510929767502476
 30
0.0
 10
8.634201657997698
 20
5.094004311877541
 30
0.0
 10
8.634201657997698
 20
4.589762911178948
 30
0.0
 10
8.634270559907405
 20
4.589762911178948
 30
0.0
 10
8.634270559907405
 20
4.189718423431737
 30
0.0
 10
8.634201657997698
 20
4.189718423431737
 30
0.0
  0
ENDBLK
  5
57
330
54
100
AcDbEntity
  8
0
100
AcDbBlockEnd
  0
BLOCK
  5
5B
330
59
100
AcDbEntity
  8
0
100
AcDbBlockBegin
  2
block 8
 70
     0
 71
     0
 10
0.0
 20
0.0
 30
0.0
  3
block 8
  1

  0
INSERT
  5
5E
330
59
100
AcDbEntity
  8
Layer 1
100
AcDbBlockReference
  2
block 9
 10
0.0
 20
0.0
 30
0.0
  0
INSERT
  5
63
330
59
100
AcDbEntity
  8
Layer 1
100
AcDbBlockReference
  2
block 10
 10
0.0
 20
0.0
 30
0.0
  0
INSERT
  5
68
330
59
100
AcDbEntity
  8
Layer 1
100
AcDbBlockReference
  2
block 11
 10
0.0
 20
0.0
 30
0.0
  0
INSERT
  5
6D
330
59
100
AcDbEntity
  8
Layer 1
100
AcDbBlockReference
  2
block 12
 10
0.0
 20
0.0
 30
0.0
  0
ENDBLK
  5
5C
330
59
100
AcDbEntity
  8
0
100
AcDbBlockEnd
  0
BLOCK
  5
5F
330
5D
100
AcDbEntity
  8
0
100
AcDbBlockBegin
  2
block 9
 70
     0
 71
     0
 10
0.0
 20
0.0
 30
0.0
  3
block 9
  1

  0
SPLINE
  5
61
330
5D
100
AcDbEntity
  8
Layer 1
 62
     7
420
 16777215
370
    25
100
AcDbSpline
210
0.0
220
0.0
230
1.0
 70
    11
 71
     3
 72
    29
 73
    25
 74
     0
 42
0.0000000001
 43
0.0000000001
 40
0.0
 40
0.0
 40
0.0
 40
0.0
 40
1.0
 40
1.0
 40
1.0
 40
2.0
 40
2.0
 40
2.0
 40
3.0
 40
3.0
 40
3.0
 40
4.0
 40
4.0
 40
4.0
 40
5.0
 40
5.0
 40
5.0
 40
6.0
 40
6.0
 40
6.0
 40
7.0
 40
7.0
 40
7.0
 40
8.0
 40
8.0
 40
8.0
 40
8.0
 10
5.75692681062674
 20
4.23925889650963
 30
0.0
 10
5.814459905230413
 20
4.114408636124176
 30
0.0
 10
5.780663518520112
 20
3.933954534606789
 30
0.0
 10
5.681823729048293
 20
3.838387585845958
 30
0.0
 10
5.681823729048293
 20
3.838387585845958
 30
0.0
 10
4.351465656464216
 20
2.551506618285734
 30
0.0
 10
4.351465656464216
 20
2.551506618285734
 30
0.0
 10
4.252625866992399
 20
2.455870767615199
 30
0.0
 10
4.097114256788221
 20
2.461865233759533
 30
0.0
 10
4.005888128338805
 20
2.564735784949093
 30
0.0
 10
4.005888128338805
 20
2.564735784949093
 30
0.0
 10
2.723141275360881
 20
4.010849065837565
 30
0.0
 10
2.723141275360881
 20
4.010849065837565
 30
0.0
 10
2.631915146911465
 20
4.113719617027125
 30
0.0
 10
2.604561088758582
 20
4.299961478959731
 30
0.0
 10
2.662404241955926
 20
4.42474283743548
 30
0.0
 10
2.662404241955926
 20
4.42474283743548
 30
0.0
 10
4.06662516174376
 20
7.454273679777056
 30
0.0
 10
4.06662516174376
 20
7.454273679777056
 30
0.0
 10
4.124468314941105
 20
7.5789861363431
 30
0.0
 10
4.218829480282098
 20
7.578917234433395
 30
0.0
 10
4.27636257488577
 20
7.453998072138236
 30
0.0
 10
4.27636257488577
 20
7.453998072138236
 30
0.0
 10
5.75692681062674
 20
4.23925889650963
 30
0.0
 10
5.75692681062674
 20
4.23925889650963
 30
0.0
  0
ENDBLK
  5
60
330
5D
100
AcDbEntity
  8
0
100
AcDbBlockEnd
  0
BLOCK
  5
64
330
62
100
AcDbEntity
  8
0
100
AcDbBlockBegin
  2
block 10
 70
     0
 71
     0
 10
0.0
 20
0.0
 30
0.0
  3
block 10
  1

  0
SPLINE
  5
66
330
62
100
AcDbEntity
  8
Layer 1
 62
     7
420
 16777215
370
    25
100
AcDbSpline
210
0.0
220
0.0
230
1.0
 70
    11
 71
     3
 72
    17
 73
    13
 74
     0
 42
0.0000000001
 43
0.0000000001
 40
0.0
 40
0.0
 40
0.0
 40
0.0
 40
1.0
 40
1.0
 40
1.0
 40
2.0
 40
2.0
 40
2.0
 40
3.0
 40
3.0
 40
3.0
 40
4.0
 40
4.0
 40
4.0
 40
4.0
 10
4.244116481143831
 20
6.928689912547341
 30
0.0
 10
4.244116481143831
 20
6.890035941202838
 30
0.0
 10
4.212800563182911
 20
6.858685572287064
 30
0.0
 10
4.174146591838407
 20
6.858685572287064
 30
0.0
 10
4.135492620493904
 20
6.858685572287064
 30
0.0
 10
4.104107800623279
 20
6.890035941202838
 30
0.0
 10
4.104107800623279
 20
6.928689912547341
 30
0.0
 10
4.104107800623279
 20
6.967343883891844
 30
0.0
 10
4.135492620493904
 20
6.998694252807618
 30
0.0
 10
4.174146591838407
 20
6.998694252807618
 30
0.0
 10
4.212800563182911
 20
6.998694252807618
 30
0.0
 10
4.244116481143831
 20
6.967343883891844
 30
0.0
 10
4.244116481143831
 20
6.928689912547341
 30
0.0
  0
ENDBLK
  5
65
330
62
100
AcDbEntity
  8
0
100
AcDbBlockEnd
  0
BLOCK
  5
69
330
67
100
AcDbEntity
  8
0
100
AcDbBlockBegin
  2
block 11
 70
     0
 71
     0
 10
0.0
 20
0.0
 30
0.0
  3
block 11
  1

  0
SPLINE
  5
6B
330
67
100
AcDbEntity
  8
Layer 1
 62
     7
420
 16777215
370
    25
100
AcDbSpline
210
0.0
220
0.0
230
1.0
 70
    11
 71
     3
 72
    17
 73
    13
 74
     0
 42
0.0000000001
 43
0.0000000001
 40
0.0
 40
0.0
 40
0.0
 40
0.0
 40
1.0
 40
1.0
 40
1.0
 40
2.0
 40
2.0
 40
2.0
 40
3.0
 40
3.0
 40
3.0
 40
4.0
 40
4.0
 40
4.0
 40
4.0
 10
4.244082030188979
 20
2.856948784007985
 30
0.0
 10
4.244082030188979
 20
2.818294812663482
 30
0.0
 10
4.212731661273206
 20
2.786944443747708
 30
0.0
 10
4.174112140883555
 20
2.786944443747708
 30
0.0
 10
4.135458169539052
 20
2.786944443747708
 30
0.0
 10
4.104107800623279
 20
2.818294812663482
 30
0.0
 10
4.104107800623279
 20
2.856948784007985
 30
0.0
 10
4.104107800623279
 20
2.895602755352488
 30
0.0
 10
4.135458169539052
 20
2.926953124268262
 30
0.0
 10
4.174112140883555
 20
2.926953124268262
 30
0.0
 10
4.212731661273206
 20
2.926953124268262
 30
0.0
 10
4.244082030188979
 20
2.895602755352488
 30
0.0
 10
4.244082030188979
 20
2.856948784007985
 30
0.0
  0
ENDBLK
  5
6A
330
67
100
AcDbEntity
  8
0
100
AcDbBlockEnd
  0
BLOCK
  5
6E
330
6C
100
AcDbEntity
  8
0
100
AcDbBlockBegin
  2
block 12
 70
     0
 71
     0
 10
0.0
 20
0.0
 30
0.0
  3
block 12
  1

  0
INSERT
  5
71
330
6C
100
AcDbEntity
  8
Layer 1
100
AcDbBlockReference
  2
block 13
 10
0.0
 20
0.0
 30
0.0
  0
INSERT
  5
9C
330
6C
100
AcDbEntity
  8
Layer 1
100
AcDbBlockReference
  2
block 14
 10
0.0
 20
0.0
 30
0.0
  0
INSERT
  5
EB
330
6C
100
AcDbEntity
  8
Layer 1
100
AcDbBlockReference
  2
block 15
 10
0.0
 20
0.0
 30
0.0
  0
ENDBLK
  5
6F
330
6C
100
AcDbEntity
  8
0
100
AcDbBlockEnd
  0
BLOCK
  5
72
330
70
100
AcDbEntity
  8
0
100
AcDbBlockBegin
  2
block 13
 70
     0
 71
     0
 10
0.0
 20
0.0
 30
0.0
  3
block 13
  1

  0
POLYLINE
  5
74
330
70
100
AcDbEntity
  8
Layer 1
 62
     7
420
 16777215
370
    25
100
AcDb2dPolyline
 66
     1
 10
0.0
 20
0.0
 30
0.0
  0
VERTEX
  5
75
330
74
100
AcDbEntity
  8
Layer 1
 62
     7
420
 16777215
370
    25
100
AcDbVertex
100
AcDb2dVertex
 10
4.360422904725866
 20
5.217924396481977
 30
0.0
  0
VERTEX
  5
76
330
74
100
AcDbEntity
  8
Layer 1
 62
     7
420
 16777215
370
    25
100
AcDbVertex
100
AcDb2dVertex
 10
4.406311576589394
 20
5.298264023198003
 30
0.0
  0
VERTEX
  5
77
330
74
100
AcDbEntity
  8
Layer 1
 62
     7
420
 16777215
370
    25
100
AcDbVertex
100
AcDb2dVertex
 10
4.452200248452922
 20
5.378534748004324
 30
0.0
  0
VERTEX
  5
78
330
74
100
AcDbEntity
  8
Layer 1
 62
     7
420
 16777215
370
    25
100
AcDbVertex
100
AcDb2dVertex
 10
4.460192869978702
 20
5.400376653380809
 30
0.0
  0
VERTEX
  5
79
330
74
100
AcDbEntity
  8
Layer 1
 62
     7
420
 16777215
370
    25
100
AcDbVertex
100
AcDb2dVertex
 10
4.460399575707816
 20
5.422976479764047
 30
0.0
  0
VERTEX
  5
7A
330
74
100
AcDbEntity
  8
Layer 1
 62
     7
420
 16777215
370
    25
100
AcDbVertex
100
AcDb2dVertex
 10
4.453233777098497
 20
5.444404973682301
 30
0.0
  0
VERTEX
  5
7B
330
74
100
AcDbEntity
  8
Layer 1
 62
     7
420
 16777215
370
    25
100
AcDbVertex
100
AcDb2dVertex
 10
4.439039983699267
 20
5.46273288166383
 30
0.0
  0
VERTEX
  5
7C
330
74
100
AcDbEntity
  8
Layer 1
 62
     7
420
 16777215
370
    25
100
AcDbVertex
100
AcDb2dVertex
 10
4.39315131183574
 20
5.504763046583879
 30
0.0
  0
VERTEX
  5
7D
330
74
100
AcDbEntity
  8
Layer 1
 62
     7
420
 16777215
370
    25
100
AcDbVertex
100
AcDb2dVertex
 10
4.347262639972212
 20
5.546793211503926
 30
0.0
  0
VERTEX
  5
7E
330
74
100
AcDbEntity
  8
Layer 1
 62
     7
420
 16777215
370
    25
100
AcDbVertex
100
AcDb2dVertex
 10
4.301373968108684
 20
5.588892278333679
 30
0.0
  0
VERTEX
  5
7F
330
74
100
AcDbEntity
  8
Layer 1
 62
     7
420
 16777215
370
    25
100
AcDbVertex
100
AcDb2dVertex
 10
4.255485296245156
 20
5.630991345163432
 30
0.0
  0
VERTEX
  5
80
330
74
100
AcDbEntity
  8
Layer 1
 62
     7
420
 16777215
370
    25
100
AcDbVertex
100
AcDb2dVertex
 10
4.233781194688082
 20
5.644427217555907
 30
0.0
  0
VERTEX
  5
81
330
74
100
AcDbEntity
  8
Layer 1
 62
     7
420
 16777215
370
    25
100
AcDbVertex
100
AcDb2dVertex
 10
4.209389918652513
 20
5.648905841686731
 30
0.0
  0
VERTEX
  5
82
330
74
100
AcDbEntity
  8
Layer 1
 62
     7
420
 16777215
370
    25
100
AcDbVertex
100
AcDb2dVertex
 10
4.184998642616945
 20
5.644427217555907
 30
0.0
  0
VERTEX
  5
83
330
74
100
AcDbEntity
  8
Layer 1
 62
     7
420
 16777215
370
    25
100
AcDbVertex
100
AcDb2dVertex
 10
4.163225639150165
 20
5.630991345163432
 30
0.0
  0
VERTEX
  5
84
330
74
100
AcDbEntity
  8
Layer 1
 62
     7
420
 16777215
370
    25
100
AcDbVertex
100
AcDb2dVertex
 10
4.117405869196343
 20
5.588892278333679
 30
0.0
  0
VERTEX
  5
85
330
74
100
AcDbEntity
  8
Layer 1
 62
     7
420
 16777215
370
    25
100
AcDbVertex
100
AcDb2dVertex
 10
4.071517197332815
 20
5.546793211503926
 30
0.0
  0
VERTEX
  5
86
330
74
100
AcDbEntity
  8
Layer 1
 62
     7
420
 16777215
370
    25
100
AcDbVertex
100
AcDb2dVertex
 10
4.025628525469287
 20
5.504763046583879
 30
0.0
  0
VERTEX
  5
87
330
74
100
AcDbEntity
  8
Layer 1
 62
     7
420
 16777215
370
    25
100
AcDbVertex
100
AcDb2dVertex
 10
3.979739853605759
 20
5.46273288166383
 30
0.0
  0
VERTEX
  5
88
330
74
100
AcDbEntity
  8
Layer 1
 62
     7
420
 16777215
370
    25
100
AcDbVertex
100
AcDb2dVertex
 10
3.96554606020653
 20
5.444404973682301
 30
0.0
  0
VERTEX
  5
89
330
74
100
AcDbEntity
  8
Layer 1
 62
     7
420
 16777215
370
    25
100
AcDbVertex
100
AcDb2dVertex
 10
3.95838026159721
 20
5.422907577854343
 30
0.0
  0
VERTEX
  5
8A
330
74
100
AcDbEntity
  8
Layer 1
 62
     7
420
 16777215
370
    25
100
AcDbVertex
100
AcDb2dVertex
 10
3.958586967326325
 20
5.400376653380809
 30
0.0
  0
VERTEX
  5
8B
330
74
100
AcDbEntity
  8
Layer 1
 62
     7
420
 16777215
370
    25
100
AcDbVertex
100
AcDb2dVertex
 10
3.966579588852105
 20
5.378534748004324
 30
0.0
  0
VERTEX
  5
8C
330
74
100
AcDbEntity
  8
Layer 1
 62
     7
420
 16777215
370
    25
100
AcDbVertex
100
AcDb2dVertex
 10
4.012468260715632
 20
5.298264023198003
 30
0.0
  0
VERTEX
  5
8D
330
74
100
AcDbEntity
  8
Layer 1
 62
     7
420
 16777215
370
    25
100
AcDbVertex
100
AcDb2dVertex
 10
4.05835693257916
 20
5.217924396481977
 30
0.0
  0
VERTEX
  5
8E
330
74
100
AcDbEntity
  8
Layer 1
 62
     7
420
 16777215
370
    25
100
AcDbVertex
100
AcDb2dVertex
 10
4.104245604442688
 20
5.137653671675656
 30
0.0
  0
VERTEX
  5
8F
330
74
100
AcDbEntity
  8
Layer 1
 62
     7
420
 16777215
370
    25
100
AcDbVertex
100
AcDb2dVertex
 10
4.150065374396511
 20
5.05731404495963
 30
0.0
  0
VERTEX
  5
90
330
74
100
AcDbEntity
  8
Layer 1
 62
     7
420
 16777215
370
    25
100
AcDbVertex
100
AcDb2dVertex
 10
4.161020778039606
 20
5.043051349650695
 30
0.0
  0
VERTEX
  5
91
330
74
100
AcDbEntity
  8
Layer 1
 62
     7
420
 16777215
370
    25
100
AcDbVertex
100
AcDb2dVertex
 10
4.17514566952913
 20
5.032233749827011
 30
0.0
  0
VERTEX
  5
92
330
74
100
AcDbEntity
  8
Layer 1
 62
     7
420
 16777215
370
    25
100
AcDbVertex
100
AcDb2dVertex
 10
4.191544324038919
 20
5.025412460766216
 30
0.0
  0
VERTEX
  5
93
330
74
100
AcDbEntity
  8
Layer 1
 62
     7
420
 16777215
370
    25
100
AcDbVertex
100
AcDb2dVertex
 10
4.209389918652513
 20
5.023000893926541
 30
0.0
  0
VERTEX
  5
94
330
74
100
AcDbEntity
  8
Layer 1
 62
     7
420
 16777215
370
    25
100
AcDbVertex
100
AcDb2dVertex
 10
4.227235513266107
 20
5.025412460766216
 30
0.0
  0
VERTEX
  5
95
330
74
100
AcDbEntity
  8
Layer 1
 62
     7
420
 16777215
370
    25
100
AcDbVertex
100
AcDb2dVertex
 10
4.243634167775896
 20
5.032233749827011
 30
0.0
  0
VERTEX
  5
96
330
74
100
AcDbEntity
  8
Layer 1
 62
     7
420
 16777215
370
    25
100
AcDbVertex
100
AcDb2dVertex
 10
4.257759059265421
 20
5.043051349650695
 30
0.0
  0
VERTEX
  5
97
330
74
100
AcDbEntity
  8
Layer 1
 62
     7
420
 16777215
370
    25
100
AcDbVertex
100
AcDb2dVertex
 10
4.26864556099881
 20
5.05731404495963
 30
0.0
  0
VERTEX
  5
98
330
74
100
AcDbEntity
  8
Layer 1
 62
     7
420
 16777215
370
    25
100
AcDbVertex
100
AcDb2dVertex
 10
4.314534232862338
 20
5.137653671675656
 30
0.0
  0
VERTEX
  5
99
330
74
100
AcDbEntity
  8
Layer 1
 62
     7
420
 16777215
370
    25
100
AcDbVertex
100
AcDb2dVertex
 10
4.360422904725866
 20
5.217924396481977
 30
0.0
  0
SEQEND
  5
9A
330
74
100
AcDbEntity
  8
Layer 1
370
    25
  0
ENDBLK
  5
73
330
70
100
AcDbEntity
  8
0
100
AcDbBlockEnd
  0
BLOCK
  5
9D
330
9B
100
AcDbEntity
  8
0
100
AcDbBlockBegin
  2
block 14
 70
     0
 71
     0
 10
0.0
 20
0.0
 30
0.0
  3
block 14
  1

  0
POLYLINE
  5
9F
330
9B
100
AcDbEntity
  8
Layer 1
 62
     7
420
 16777215
370
    25
100
AcDb2dPolyline
 66
     1
 10
0.0
 20
0.0
 30
0.0
  0
VERTEX
  5
A0
330
9F
100
AcDbEntity
  8
Layer 1
 62
     7
420
 16777215
370
    25
100
AcDbVertex
100
AcDb2dVertex
 10
4.147378199918016
 20
4.585422090867533
 30
0.0
  0
VERTEX
  5
A1
330
9F
100
AcDbEntity
  8
Layer 1
 62
     7
420
 16777215
370
    25
100
AcDbVertex
100
AcDb2dVertex
 10
4.146620278911262
 20
4.602303058745258
 30
0.0
  0
VERTEX
  5
A2
330
9F
100
AcDbEntity
  8
Layer 1
 62
     7
420
 16777215
370
    25
100
AcDbVertex
100
AcDb2dVertex
 10
4.145448946446276
 20
4.619115124713276
 30
0.0
  0
VERTEX
  5
A3
330
9F
100
AcDbEntity
  8
Layer 1
 62
     7
420
 16777215
370
    25
100
AcDbVertex
100
AcDb2dVertex
 10
4.112996146975223
 20
4.786202255747893
 30
0.0
  0
VERTEX
  5
A4
330
9F
100
AcDbEntity
  8
Layer 1
 62
     7
420
 16777215
370
    25
100
AcDbVertex
100
AcDb2dVertex
 10
4.051466741608661
 20
4.952738171504871
 30
0.0
  0
VERTEX
  5
A5
330
9F
100
AcDbEntity
  8
Layer 1
 62
     7
420
 16777215
370
    25
100
AcDbVertex
100
AcDb2dVertex
 10
3.971540526350865
 20
5.112917886091561
 30
0.0
  0
VERTEX
  5
A6
330
9F
100
AcDbEntity
  8
Layer 1
 62
     7
420
 16777215
370
    25
100
AcDbVertex
100
AcDb2dVertex
 10
3.883690591476994
 20
5.260712482408779
 30
0.0
  0
VERTEX
  5
A7
330
9F
100
AcDbEntity
  8
Layer 1
 62
     7
420
 16777215
370
    25
100
AcDbVertex
100
AcDb2dVertex
 10
3.797701008165158
 20
5.388801132550369
 30
0.0
  0
VERTEX
  5
A8
330
9F
100
AcDbEntity
  8
Layer 1
 62
     7
420
 16777215
370
    25
100
AcDbVertex
100
AcDb2dVertex
 10
3.723769259051696
 20
5.489949135997304
 30
0.0
  0
VERTEX
  5
A9
330
9F
100
AcDbEntity
  8
Layer 1
 62
     7
420
 16777215
370
    25
100
AcDbVertex
100
AcDb2dVertex
 10
3.671610513405014
 20
5.556577282682036
 30
0.0
  0
VERTEX
  5
AA
330
9F
100
AcDbEntity
  8
Layer 1
 62
     7
420
 16777215
370
    25
100
AcDbVertex
100
AcDb2dVertex
 10
3.65142225386145
 20
5.58117526444672
 30
0.0
  0
VERTEX
  5
AB
330
9F
100
AcDbEntity
  8
Layer 1
 62
     7
420
 16777215
370
    25
100
AcDbVertex
100
AcDb2dVertex
 10
3.630131563762606
 20
5.598056232324444
 30
0.0
  0
VERTEX
  5
AC
330
9F
100
AcDbEntity
  8
Layer 1
 62
     7
420
 16777215
370
    25
100
AcDbVertex
100
AcDb2dVertex
 10
3.604913464810577
 20
5.605153129024059
 30
0.0
  0
VERTEX
  5
AD
330
9F
100
AcDbEntity
  8
Layer 1
 62
     7
420
 16777215
370
    25
100
AcDbVertex
100
AcDb2dVertex
 10
3.578937444851793
 20
5.602259248816448
 30
0.0
  0
VERTEX
  5
AE
330
9F
100
AcDbEntity
  8
Layer 1
 62
     7
420
 16777215
370
    25
100
AcDbVertex
100
AcDb2dVertex
 10
3.555166286003569
 20
5.589236787882204
 30
0.0
  0
VERTEX
  5
AF
330
9F
100
AcDbEntity
  8
Layer 1
 62
     7
420
 16777215
370
    25
100
AcDbVertex
100
AcDb2dVertex
 10
3.538285318125845
 20
5.568014999693065
 30
0.0
  0
VERTEX
  5
B0
330
9F
100
AcDbEntity
  8
Layer 1
 62
     7
420
 16777215
370
    25
100
AcDbVertex
100
AcDb2dVertex
 10
3.531188421426231
 20
5.542796900741036
 30
0.0
  0
VERTEX
  5
B1
330
9F
100
AcDbEntity
  8
Layer 1
 62
     7
420
 16777215
370
    25
100
AcDbVertex
100
AcDb2dVertex
 10
3.534013399724135
 20
5.516751978872548
 30
0.0
  0
VERTEX
  5
B2
330
9F
100
AcDbEntity
  8
Layer 1
 62
     7
420
 16777215
370
    25
100
AcDbVertex
100
AcDb2dVertex
 10
3.54703586065838
 20
5.493049721934029
 30
0.0
  0
VERTEX
  5
B3
330
9F
100
AcDbEntity
  8
Layer 1
 62
     7
420
 16777215
370
    25
100
AcDbVertex
100
AcDb2dVertex
 10
3.548276095033069
 20
5.491602781830224
 30
0.0
  0
VERTEX
  5
B4
330
9F
100
AcDbEntity
  8
Layer 1
 62
     7
420
 16777215
370
    25
100
AcDbVertex
100
AcDb2dVertex
 10
3.551790092428024
 20
5.487468667247924
 30
0.0
  0
VERTEX
  5
B5
330
9F
100
AcDbEntity
  8
Layer 1
 62
     7
420
 16777215
370
    25
100
AcDbVertex
100
AcDb2dVertex
 10
3.557440049023834
 20
5.480509574367719
 30
0.0
  0
VERTEX
  5
B6
330
9F
100
AcDbEntity
  8
Layer 1
 62
     7
420
 16777215
370
    25
100
AcDbVertex
100
AcDb2dVertex
 10
3.565294866730204
 20
5.470794405099315
 30
0.0
  0
VERTEX
  5
B7
330
9F
100
AcDbEntity
  8
Layer 1
 62
     7
420
 16777215
370
    25
100
AcDbVertex
100
AcDb2dVertex
 10
3.607393933559957
 20
5.417188719348827
 30
0.0
  0
VERTEX
  5
B8
330
9F
100
AcDbEntity
  8
Layer 1
 62
     7
420
 16777215
370
    25
100
AcDbVertex
100
AcDb2dVertex
 10
3.666856281635369
 20
5.337055798361916
 30
0.0
  0
VERTEX
  5
B9
330
9F
100
AcDbEntity
  8
Layer 1
 62
     7
420
 16777215
370
    25
100
AcDbVertex
100
AcDb2dVertex
 10
3.736929523805351
 20
5.235838893005276
 30
0.0
  0
VERTEX
  5
BA
330
9F
100
AcDbEntity
  8
Layer 1
 62
     7
420
 16777215
370
    25
100
AcDbVertex
100
AcDb2dVertex
 10
3.810723469099402
 20
5.118912352235896
 30
0.0
  0
VERTEX
  5
BB
330
9F
100
AcDbEntity
  8
Layer 1
 62
     7
420
 16777215
370
    25
100
AcDbVertex
100
AcDb2dVertex
 10
3.881554632276139
 20
4.991650525010767
 30
0.0
  0
VERTEX
  5
BC
330
9F
100
AcDbEntity
  8
Layer 1
 62
     7
420
 16777215
370
    25
100
AcDbVertex
100
AcDb2dVertex
 10
3.942326116635946
 20
4.85978949531283
 30
0.0
  0
VERTEX
  5
BD
330
9F
100
AcDbEntity
  8
Layer 1
 62
     7
420
 16777215
370
    25
100
AcDbVertex
100
AcDb2dVertex
 10
3.987043456034489
 20
4.729633787880092
 30
0.0
  0
VERTEX
  5
BE
330
9F
100
AcDbEntity
  8
Layer 1
 62
     7
420
 16777215
370
    25
100
AcDbVertex
100
AcDb2dVertex
 10
4.009298772869203
 20
4.607884113431362
 30
0.0
  0
VERTEX
  5
BF
330
9F
100
AcDbEntity
  8
Layer 1
 62
     7
420
 16777215
370
    25
100
AcDbVertex
100
AcDb2dVertex
 10
4.010263399605073
 20
4.594172633400068
 30
0.0
  0
VERTEX
  5
C0
330
9F
100
AcDbEntity
  8
Layer 1
 62
     7
420
 16777215
370
    25
100
AcDbVertex
100
AcDb2dVertex
 10
4.010952418702122
 20
4.580116643820248
 30
0.0
  0
VERTEX
  5
C1
330
9F
100
AcDbEntity
  8
Layer 1
 62
     7
420
 16777215
370
    25
100
AcDbVertex
100
AcDb2dVertex
 10
4.011365830160353
 20
4.565785046601609
 30
0.0
  0
VERTEX
  5
C2
330
9F
100
AcDbEntity
  8
Layer 1
 62
     7
420
 16777215
370
    25
100
AcDbVertex
100
AcDb2dVertex
 10
4.011503633979762
 20
4.55117784174415
 30
0.0
  0
VERTEX
  5
C3
330
9F
100
AcDbEntity
  8
Layer 1
 62
     7
420
 16777215
370
    25
100
AcDbVertex
100
AcDb2dVertex
 10
4.000410426517258
 20
4.404003362614277
 30
0.0
  0
VERTEX
  5
C4
330
9F
100
AcDbEntity
  8
Layer 1
 62
     7
420
 16777215
370
    25
100
AcDbVertex
100
AcDb2dVertex
 10
3.97036919388588
 20
4.245322264563669
 30
0.0
  0
VERTEX
  5
C5
330
9F
100
AcDbEntity
  8
Layer 1
 62
     7
420
 16777215
370
    25
100
AcDbVertex
100
AcDb2dVertex
 10
3.927650009868782
 20
4.085332030228667
 30
0.0
  0
VERTEX
  5
C6
330
9F
100
AcDbEntity
  8
Layer 1
 62
     7
420
 16777215
370
    25
100
AcDbVertex
100
AcDb2dVertex
 10
3.878316242520004
 20
3.933954534606789
 30
0.0
  0
VERTEX
  5
C7
330
9F
100
AcDbEntity
  8
Layer 1
 62
     7
420
 16777215
370
    25
100
AcDbVertex
100
AcDb2dVertex
 10
3.85316704547768
 20
3.864363605804742
 30
0.0
  0
VERTEX
  5
C8
330
9F
100
AcDbEntity
  8
Layer 1
 62
     7
420
 16777215
370
    25
100
AcDbVertex
100
AcDb2dVertex
 10
3.828775769442111
 20
3.80049153550821
 30
0.0
  0
VERTEX
  5
C9
330
9F
100
AcDbEntity
  8
Layer 1
 62
     7
420
 16777215
370
    25
100
AcDbVertex
100
AcDb2dVertex
 10
3.806038139239462
 20
3.743302950453063
 30
0.0
  0
VERTEX
  5
CA
330
9F
100
AcDbEntity
  8
Layer 1
 62
     7
420
 16777215
370
    25
100
AcDbVertex
100
AcDb2dVertex
 10
3.785643173966784
 20
3.694106986923695
 30
0.0
  0
VERTEX
  5
CB
330
9F
100
AcDbEntity
  8
Layer 1
 62
     7
420
 16777215
370
    25
100
AcDbVertex
100
AcDb2dVertex
 10
3.776548121885724
 20
3.672816296824851
 30
0.0
  0
VERTEX
  5
CC
330
9F
100
AcDbEntity
  8
Layer 1
 62
     7
420
 16777215
370
    25
100
AcDbVertex
100
AcDb2dVertex
 10
3.768348794630829
 20
3.654006075475387
 30
0.0
  0
VERTEX
  5
CD
330
9F
100
AcDbEntity
  8
Layer 1
 62
     7
420
 16777215
370
    25
100
AcDbVertex
100
AcDb2dVertex
 10
3.76118299602151
 20
3.637676322875303
 30
0.0
  0
VERTEX
  5
CE
330
9F
100
AcDbEntity
  8
Layer 1
 62
     7
420
 16777215
370
    25
100
AcDbVertex
100
AcDb2dVertex
 10
3.755188529877175
 20
3.624033744753714
 30
0.0
  0
VERTEX
  5
CF
330
9F
100
AcDbEntity
  8
Layer 1
 62
     7
420
 16777215
370
    25
100
AcDbVertex
100
AcDb2dVertex
 10
3.750365396197825
 20
3.613353948749439
 30
0.0
  0
VERTEX
  5
D0
330
9F
100
AcDbEntity
  8
Layer 1
 62
     7
420
 16777215
370
    25
100
AcDbVertex
100
AcDb2dVertex
 10
3.746782496893165
 20
3.605636934862479
 30
0.0
  0
VERTEX
  5
D1
330
9F
100
AcDbEntity
  8
Layer 1
 62
     7
420
 16777215
370
    25
100
AcDbVertex
100
AcDb2dVertex
 10
3.74464653769231
 20
3.600951605002539
 30
0.0
  0
VERTEX
  5
D2
330
9F
100
AcDbEntity
  8
Layer 1
 62
     7
420
 16777215
370
    25
100
AcDbVertex
100
AcDb2dVertex
 10
3.743888616685555
 20
3.59943576298903
 30
0.0
  0
VERTEX
  5
D3
330
9F
100
AcDbEntity
  8
Layer 1
 62
     7
420
 16777215
370
    25
100
AcDbVertex
100
AcDb2dVertex
 10
3.737411837173286
 20
3.573046331572016
 30
0.0
  0
VERTEX
  5
D4
330
9F
100
AcDbEntity
  8
Layer 1
 62
     7
420
 16777215
370
    25
100
AcDbVertex
100
AcDb2dVertex
 10
3.741408147936176
 20
3.547139213522937
 30
0.0
  0
VERTEX
  5
D5
330
9F
100
AcDbEntity
  8
Layer 1
 62
     7
420
 16777215
370
    25
100
AcDbVertex
100
AcDb2dVertex
 10
3.75484402032865
 20
3.524608289049403
 30
0.0
  0
VERTEX
  5
D6
330
9F
100
AcDbEntity
  8
Layer 1
 62
     7
420
 16777215
370
    25
100
AcDbVertex
100
AcDb2dVertex
 10
3.776617023795429
 20
3.508485242178434
 30
0.0
  0
VERTEX
  5
D7
330
9F
100
AcDbEntity
  8
Layer 1
 62
     7
420
 16777215
370
    25
100
AcDbVertex
100
AcDb2dVertex
 10
3.783713920495043
 20
3.505591361970824
 30
0.0
  0
VERTEX
  5
D8
330
9F
100
AcDbEntity
  8
Layer 1
 62
     7
420
 16777215
370
    25
100
AcDbVertex
100
AcDb2dVertex
 10
3.790948621014068
 20
3.503524304679674
 30
0.0
  0
VERTEX
  5
D9
330
9F
100
AcDbEntity
  8
Layer 1
 62
     7
420
 16777215
370
    25
100
AcDbVertex
100
AcDb2dVertex
 10
3.798390027262208
 20
3.502352972214689
 30
0.0
  0
VERTEX
  5
DA
330
9F
100
AcDbEntity
  8
Layer 1
 62
     7
420
 16777215
370
    25
100
AcDbVertex
100
AcDb2dVertex
 10
3.805693629690937
 20
3.501939560756459
 30
0.0
  0
VERTEX
  5
DB
330
9F
100
AcDbEntity
  8
Layer 1
 62
     7
420
 16777215
370
    25
100
AcDbVertex
100
AcDb2dVertex
 10
3.824503851040402
 20
3.504626735234954
 30
0.0
  0
VERTEX
  5
DC
330
9F
100
AcDbEntity
  8
Layer 1
 62
     7
420
 16777215
370
    25
100
AcDbVertex
100
AcDb2dVertex
 10
3.841798230376356
 20
3.512274847212209
 30
0.0
  0
VERTEX
  5
DD
330
9F
100
AcDbEntity
  8
Layer 1
 62
     7
420
 16777215
370
    25
100
AcDbVertex
100
AcDb2dVertex
 10
3.85647433714352
 20
3.524608289049403
 30
0.0
  0
VERTEX
  5
DE
330
9F
100
AcDbEntity
  8
Layer 1
 62
     7
420
 16777215
370
    25
100
AcDbVertex
100
AcDb2dVertex
 10
3.86749864269632
 20
3.541213649288308
 30
0.0
  0
VERTEX
  5
DF
330
9F
100
AcDbEntity
  8
Layer 1
 62
     7
420
 16777215
370
    25
100
AcDbVertex
100
AcDb2dVertex
 10
3.879763182623809
 20
3.568154295982961
 30
0.0
  0
VERTEX
  5
E0
330
9F
100
AcDbEntity
  8
Layer 1
 62
     7
420
 16777215
370
    25
100
AcDbVertex
100
AcDb2dVertex
 10
3.911458061088108
 20
3.640983614541143
 30
0.0
  0
VERTEX
  5
E1
330
9F
100
AcDbEntity
  8
Layer 1
 62
     7
420
 16777215
370
    25
100
AcDbVertex
100
AcDb2dVertex
 10
3.95603759666724
 20
3.750813258610907
 30
0.0
  0
VERTEX
  5
E2
330
9F
100
AcDbEntity
  8
Layer 1
 62
     7
420
 16777215
370
    25
100
AcDbVertex
100
AcDb2dVertex
 10
4.007231715578053
 20
3.888754881840311
 30
0.0
  0
VERTEX
  5
E3
330
9F
100
AcDbEntity
  8
Layer 1
 62
     7
420
 16777215
370
    25
100
AcDbVertex
100
AcDb2dVertex
 10
4.058425834488865
 20
4.046195745516228
 30
0.0
  0
VERTEX
  5
E4
330
9F
100
AcDbEntity
  8
Layer 1
 62
     7
420
 16777215
370
    25
100
AcDbVertex
100
AcDb2dVertex
 10
4.103487683435933
 20
4.214316405196421
 30
0.0
  0
VERTEX
  5
E5
330
9F
100
AcDbEntity
  8
Layer 1
 62
     7
420
 16777215
370
    25
100
AcDbVertex
100
AcDb2dVertex
 10
4.135664875268167
 20
4.385330945084222
 30
0.0
  0
VERTEX
  5
E6
330
9F
100
AcDbEntity
  8
Layer 1
 62
     7
420
 16777215
370
    25
100
AcDbVertex
100
AcDb2dVertex
 10
4.148067219015066
 20
4.55117784174415
 30
0.0
  0
VERTEX
  5
E7
330
9F
100
AcDbEntity
  8
Layer 1
 62
     7
420
 16777215
370
    25
100
AcDbVertex
100
AcDb2dVertex
 10
4.147929415195656
 20
4.568403319170399
 30
0.0
  0
VERTEX
  5
E8
330
9F
100
AcDbEntity
  8
Layer 1
 62
     7
420
 16777215
370
    25
100
AcDbVertex
100
AcDb2dVertex
 10
4.147378199918016
 20
4.585422090867533
 30
0.0
  0
SEQEND
  5
E9
330
9F
100
AcDbEntity
  8
Layer 1
370
    25
  0
ENDBLK
  5
9E
330
9B
100
AcDbEntity
  8
0
100
AcDbBlockEnd
  0
BLOCK
  5
EC
330
EA
100
AcDbEntity
  8
0
100
AcDbBlockBegin
  2
block 15
 70
     0
 71
     0
 10
0.0
 20
0.0
 30
0.0
  3
block 15
  1

  0
SPLINE
  5
EE
330
EA
100
AcDbEntity
  8
Layer 1
 62
     7
420
 16777215
370
    25
100
AcDbSpline
210
0.0
220
0.0
230
1.0
 70
    11
 71
     3
 72
   221
 73
   217
 74
     0
 42
0.0000000001
 43
0.0000000001
 40
0.0
 40
0.0
 40
0.0
 40
0.0
 40
1.0
 40
1.0
 40
1.0
 40
2.0
 40
2.0
 40
2.0
 40
3.0
 40
3.0
 40
3.0
 40
4.0
 40
4.0
 40
4.0
 40
5.0
 40
5.0
 40
5.0
 40
6.0
 40
6.0
 40
6.0
 40
7.0
 40
7.0
 40
7.0
 40
8.0
 40
8.0
 40
8.0
 40
9.0
 40
9.0
 40
9.0
 40
10.0
 40
10.0
 40
10.0
 40
11.0
 40
11.0
 40
11.0
 40
12.0
 40
12.0
 40
12.0
 40
13.0
 40
13.0
 40
13.0
 40
14.0
 40
14.0
 40
14.0
 40
15.0
 40
15.0
 40
15.0
 40
16.0
 40
16.0
 40
16.0
 40
17.0
 40
17.0
 40
17.0
 40
18.0
 40
18.0
 40
18.0
 40
19.0
 40
19.0
 40
19.0
 40
20.0
 40
20.0
 40
20.0
 40
21.0
 40
21.0
 40
21.0
 40
22.0
 40
22.0
 40
22.0
 40
23.0
 40
23.0
 40
23.0
 40
24.0
 40
24.0
 40
24.0
 40
25.0
 40
25.0
 40
25.0
 40
26.0
 40
26.0
 40
26.0
 40
27.0
 40
27.0
 40
27.0
 40
28.0
 40
28.0
 40
28.0
 40
29.0
 40
29.0
 40
29.0
 40
30.0
 40
30.0
 40
30.0
 40
31.0
 40
31.0
 40
31.0
 40
32.0
 40
32.0
 40
32.0
 40
33.0
 40
33.0
 40
33.0
 40
34.0
 40
34.0
 40
34.0
 40
35.0
 40
35.0
 40
35.0
 40
36.0
 40
36.0
 40
36.0
 40
37.0
 40
37.0
 40
37.0
 40
38.0
 40
38.0
 40
38.0
 40
39.0
 40
39.0
 40
39.0
 40
40.0
 40
40.0
 40
40.0
 40
41.0
 40
41.0
 40
41.0
 40
42.0
 40
42.0
 40
42.0
 40
43.0
 40
43.0
 40
43.0
 40
44.0
 40
44.0
 40
44.0
 40
45.0
 40
45.0
 40
45.0
 40
46.0
 40
46.0
 40
46.0
 40
47.0
 40
47.0
 40
47.0
 40
48.0
 40
48.0
 40
48.0
 40
49.0
 40
49.0
 40
49.0
 40
50.0
 40
50.0
 40
50.0
 40
51.0
 40
51.0
 40
51.0
 40
52.0
 40
52.0
 40
52.0
 40
53.0
 40
53.0
 40
53.0
 40
54.0
 40
54.0
 40
54.0
 40
55.0
 40
55.0
 40
55.0
 40
56.0
 40
56.0
 40
56.0
 40
57.0
 40
57.0
 40
57.0
 40
58.0
 40
58.0
 40
58.0
 40
59.0
 40
59.0
 40
59.0
 40
60.0
 40
60.0
 40
60.0
 40
61.0
 40
61.0
 40
61.0
 40
62.0
 40
62.0
 40
62.0
 40
63.0
 40
63.0
 40
63.0
 40
64.0
 40
64.0
 40
64.0
 40
65.0
 40
65.0
 40
65.0
 40
66.0
 40
66.0
 40
66.0
 40
67.0
 40
67.0
 40
67.0
 40
68.0
 40
68.0
 40
68.0
 40
69.0
 40
69.0
 40
69.0
 40
70.0
 40
70.0
 40
70.0
 40
71.0
 40
71.0
 40
71.0
 40
72.0
 40
72.0
 40
72.0
 40
72.0
 10
4.880494519179182
 20
5.568014999693065
 30
0.0
 10
4.880494519179182
 20
5.568014999693065
 30
0.0
 10
4.863682453211163
 20
5.589236787882204
 30
0.0
 10
4.863682453211163
 20
5.589236787882204
 30
0.0
 10
4.863682453211163
 20
5.589236787882204
 30
0.0
 10
4.839911294362938
 20
5.602259248816448
 30
0.0
 10
4.839911294362938
 20
5.602259248816448
 30
0.0
 10
4.839911294362938
 20
5.602259248816448
 30
0.0
 10
4.813866372494449
 20
5.605153129024059
 30
0.0
 10
4.813866372494449
 20
5.605153129024059
 30
0.0
 10
4.813866372494449
 20
5.605153129024059
 30
0.0
 10
4.788648273542421
 20
5.597987330414739
 30
0.0
 10
4.788648273542421
 20
5.597987330414739
 30
0.0
 10
4.788648273542421
 20
5.597987330414739
 30
0.0
 10
4.767426485353282
 20
5.58117526444672
 30
0.0
 10
4.767357583443577
 20
5.581244166356425
 30
0.0
 10
4.767357583443577
 20
5.581244166356425
 30
0.0
 10
4.747169323900013
 20
5.556577282682036
 30
0.0
 10
4.747169323900013
 20
5.556577282682036
 30
0.0
 10
4.747169323900013
 20
5.556577282682036
 30
0.0
 10
4.695079480163035
 20
5.489949135997304
 30
0.0
 10
4.695079480163035
 20
5.489949135997304
 30
0.0
 10
4.695079480163035
 20
5.489949135997304
 30
0.0
 10
4.621078829139869
 20
5.388801132550369
 30
0.0
 10
4.621078829139869
 20
5.388801132550369
 30
0.0
 10
4.621078829139869
 20
5.388801132550369
 30
0.0
 10
4.535089245828033
 20
5.260712482408779
 30
0.0
 10
4.535089245828033
 20
5.260712482408779
 30
0.0
 10
4.535089245828033
 20
5.260712482408779
 30
0.0
 10
4.447308212863867
 20
5.112917886091561
 30
0.0
 10
4.447308212863867
 20
5.112917886091561
 30
0.0
 10
4.447308212863867
 20
5.112917886091561
 30
0.0
 10
4.367313095696366
 20
4.952738171504871
 30
0.0
 10
4.367313095696366
 20
4.952738171504871
 30
0.0
 10
4.367313095696366
 20
4.952738171504871
 30
0.0
 10
4.305783690329804
 20
4.786202255747893
 30
0.0
 10
4.305783690329804
 20
4.786202255747893
 30
0.0
 10
4.305783690329804
 20
4.786202255747893
 30
0.0
 10
4.27333089085875
 20
4.619115124713276
 30
0.0
 10
4.27333089085875
 20
4.619115124713276
 30
0.0
 10
4.27333089085875
 20
4.619115124713276
 30
0.0
 10
4.272159558393765
 20
4.602371960654962
 30
0.0
 10
4.272159558393765
 20
4.602371960654962
 30
0.0
 10
4.272159558393765
 20
4.602371960654962
 30
0.0
 10
4.271332735477305
 20
4.585422090867533
 30
0.0
 10
4.271332735477305
 20
4.585422090867533
 30
0.0
 10
4.271332735477305
 20
4.585422090867533
 30
0.0
 10
4.270781520199665
 20
4.568403319170399
 30
0.0
 10
4.270781520199665
 20
4.568403319170399
 30
0.0
 10
4.270781520199665
 20
4.568403319170399
 30
0.0
 10
4.270643716380255
 20
4.55117784174415
 30
0.0
 10
4.270643716380255
 20
4.55117784174415
 30
0.0
 10
4.270643716380255
 20
4.55117784174415
 30
0.0
 10
4.28311496203686
 20
4.385330945084222
 30
0.0
 10
4.28311496203686
 20
4.385330945084222
 30
0.0
 10
4.28311496203686
 20
4.385330945084222
 30
0.0
 10
4.315223251959388
 20
4.214316405196421
 30
0.0
 10
4.315223251959388
 20
4.214316405196421
 30
0.0
 10
4.315223251959388
 20
4.214316405196421
 30
0.0
 10
4.360285100906456
 20
4.046195745516228
 30
0.0
 10
4.360285100906456
 20
4.046195745516228
 30
0.0
 10
4.360285100906456
 20
4.046195745516228
 30
0.0
 10
4.411617023636679
 20
3.888754881840311
 30
0.0
 10
4.411617023636679
 20
3.888754881840311
 30
0.0
 10
4.411617023636679
 20
3.888754881840311
 30
0.0
 10
4.462742240637787
 20
3.750813258610907
 30
0.0
 10
4.462742240637787
 20
3.750813258610907
 30
0.0
 10
4.462742240637787
 20
3.750813258610907
 30
0.0
 10
4.507390678126624
 20
3.640983614541143
 30
0.0
 10
4.507390678126624
 20
3.640983614541143
 30
0.0
 10
4.507390678126624
 20
3.640983614541143
 30
0.0
 10
4.539016654681218
 20
3.568154295982961
 30
0.0
 10
4.539016654681218
 20
3.568154295982961
 30
0.0
 10
4.539016654681218
 20
3.568154295982961
 30
0.0
 10
4.551281194608707
 20
3.541213649288308
 30
0.0
 10
4.551281194608707
 20
3.541213649288308
 30
0.0
 10
4.551281194608707
 20
3.541213649288308
 30
0.0
 10
4.562236598251801
 20
3.524608289049403
 30
0.0
 10
4.562236598251801
 20
3.524608289049403
 30
0.0
 10
4.562236598251801
 20
3.524608289049403
 30
0.0
 10
4.576981606928671
 20
3.512274847212209
 30
0.0
 10
4.576981606928671
 20
3.512274847212209
 30
0.0
 10
4.576981606928671
 20
3.512274847212209
 30
0.0
 10
4.594275986264625
 20
3.504557833325249
 30
0.0
 10
4.594275986264625
 20
3.504557833325249
 30
0.0
 10
4.594275986264625
 20
3.504557833325249
 30
0.0
 10
4.613155109523794
 20
3.501939560756459
 30
0.0
 10
4.613155109523794
 20
3.501939560756459
 30
0.0
 10
4.613155109523794
 20
3.501939560756459
 30
0.0
 10
4.620458711952524
 20
3.502284070304984
 30
0.0
 10
4.620458711952524
 20
3.502284070304984
 30
0.0
 10
4.620458711952524
 20
3.502284070304984
 30
0.0
 10
4.627762314381253
 20
3.503524304679674
 30
0.0
 10
4.627762314381253
 20
3.503524304679674
 30
0.0
 10
4.627762314381253
 20
3.503524304679674
 30
0.0
 10
4.635065916809983
 20
3.505591361970824
 30
0.0
 10
4.635065916809983
 20
3.505591361970824
 30
0.0
 10
4.635065916809983
 20
3.505591361970824
 30
0.0
 10
4.642162813509598
 20
3.508416340268729
 30
0.0
 10
4.642162813509598
 20
3.508416340268729
 30
0.0
 10
4.642162813509598
 20
3.508416340268729
 30
0.0
 10
4.663935816976377
 20
3.524608289049403
 30
0.0
 10
4.663935816976377
 20
3.524608289049403
 30
0.0
 10
4.663935816976377
 20
3.524608289049403
 30
0.0
 10
4.677371689368851
 20
3.547139213522937
 30
0.0
 10
4.677371689368851
 20
3.547139213522937
 30
0.0
 10
4.677371689368851
 20
3.547139213522937
 30
0.0
 10
4.681368000131741
 20
3.573046331572016
 30
0.0
 10
4.681368000131741
 20
3.573046331572016
 30
0.0
 10
4.681368000131741
 20
3.573046331572016
 30
0.0
 10
4.674891220619472
 20
3.599366861079325
 30
0.0
 10
4.674891220619472
 20
3.599366861079325
 30
0.0
 10
4.674891220619472
 20
3.599366861079325
 30
0.0
 10
4.674133299612716
 20
3.600951605002539
 30
0.0
 10
4.674133299612716
 20
3.600951605002539
 30
0.0
 10
4.674133299612716
 20
3.600951605002539
 30
0.0
 10
4.671928438502157
 20
3.605636934862479
 30
0.0
 10
4.671928438502157
 20
3.605636934862479
 30
0.0
 10
4.671928438502157
 20
3.605636934862479
 30
0.0
 10
4.668414441107202
 20
3.613285046839734
 30
0.0
 10
4.668414441107202
 20
3.613285046839734
 30
0.0
 10
4.668414441107202
 20
3.613285046839734
 30
0.0
 10
4.663660209337557
 20
3.624102646663419
 30
0.0
 10
4.663660209337557
 20
3.624102646663419
 30
0.0
 10
4.663660209337557
 20
3.624102646663419
 30
0.0
 10
4.637753091288478
 20
3.683220485190306
 30
0.0
 10
4.637753091288478
 20
3.683220485190306
 30
0.0
 10
4.637753091288478
 20
3.683220485190306
 30
0.0
 10
4.601579588693355
 20
3.770932616244766
 30
0.0
 10
4.601579588693355
 20
3.770932616244766
 30
0.0
 10
4.601579588693355
 20
3.770932616244766
 30
0.0
 10
4.559342718044192
 20
3.881244573682467
 30
0.0
 10
4.559342718044192
 20
3.881244573682467
 30
0.0
 10
4.559342718044192
 20
3.881244573682467
 30
0.0
 10
4.515383299652404
 20
4.008024087539661
 30
0.0
 10
4.515383299652404
 20
4.008024087539661
 30
0.0
 10
4.515383299652404
 20
4.008024087539661
 30
0.0
 10
4.473973251919701
 20
4.144794378304079
 30
0.0
 10
4.473973251919701
 20
4.144794378304079
 30
0.0
 10
4.473973251919701
 20
4.144794378304079
 30
0.0
 10
4.439384493247792
 20
4.285492077921682
 30
0.0
 10
4.439384493247792
 20
4.285492077921682
 30
0.0
 10
4.439384493247792
 20
4.285492077921682
 30
0.0
 10
4.415820040128684
 20
4.423295897331676
 30
0.0
 10
4.415820040128684
 20
4.423295897331676
 30
0.0
 10
4.415820040128684
 20
4.423295897331676
 30
0.0
 10
4.407207301415559
 20
4.55117784174415
 30
0.0
 10
4.407207301415559
 20
4.55117784174415
 30
0.0
 10
4.407207301415559
 20
4.55117784174415
 30
0.0
 10
4.407414007144674
 20
4.565716144691904
 30
0.0
 10
4.407414007144674
 20
4.565716144691904
 30
0.0
 10
4.407414007144674
 20
4.565716144691904
 30
0.0
 10
4.407758516693199
 20
4.580047741910543
 30
0.0
 10
4.407758516693199
 20
4.580047741910543
 30
0.0
 10
4.407758516693199
 20
4.580047741910543
 30
0.0
 10
4.408516437699954
 20
4.594103731490363
 30
0.0
 10
4.408516437699954
 20
4.594103731490363
 30
0.0
 10
4.408516437699954
 20
4.594103731490363
 30
0.0
 10
4.409481064435824
 20
4.607884113431362
 30
0.0
 10
4.409481064435824
 20
4.607884113431362
 30
0.0
 10
4.409481064435824
 20
4.607884113431362
 30
0.0
 10
4.436835122588707
 20
4.74796169586162
 30
0.0
 10
4.436835122588707
 20
4.74796169586162
 30
0.0
 10
4.436835122588707
 20
4.74796169586162
 30
0.0
 10
4.49243896372064
 20
4.897478839921463
 30
0.0
 10
4.49243896372064
 20
4.897478839921463
 30
0.0
 10
4.49243896372064
 20
4.897478839921463
 30
0.0
 10
4.566784124292331
 20
5.04711656232329
 30
0.0
 10
4.566784124292331
 20
5.04711656232329
 30
0.0
 10
4.566784124292331
 20
5.04711656232329
 30
0.0
 10
4.650293238854787
 20
5.187400850482663
 30
0.0
 10
4.650293238854787
 20
5.187400850482663
 30
0.0
 10
4.650293238854787
 20
5.187400850482663
 30
0.0
 10
4.69225450186513
 20
5.25147962650831
 30
0.0
 10
4.69225450186513
 20
5.25147962650831
 30
0.0
 10
4.69225450186513
 20
5.25147962650831
 30
0.0
 10
4.732699922861964
 20
5.310115151667262
 30
0.0
 10
4.732699922861964
 20
5.310115151667262
 30
0.0
 10
4.732699922861964
 20
5.310115151667262
 30
0.0
 10
4.770251463651187
 20
5.36234279922365
 30
0.0
 10
4.770251463651187
 20
5.36234279922365
 30
0.0
 10
4.770251463651187
 20
5.36234279922365
 30
0.0
 10
4.803737791767815
 20
5.407197942441603
 30
0.0
 10
4.803737791767815
 20
5.407197942441603
 30
0.0
 10
4.803737791767815
 20
5.407197942441603
 30
0.0
 10
4.818620604264095
 20
5.426559379068707
 30
0.0
 10
4.818620604264095
 20
5.426559379068707
 30
0.0
 10
4.818620604264095
 20
5.426559379068707
 30
0.0
 10
4.831918672837159
 20
5.443647052675546
 30
0.0
 10
4.831918672837159
 20
5.443647052675546
 30
0.0
 10
4.831918672837159
 20
5.443647052675546
 30
0.0
 10
4.843631997487008
 20
5.45846096326212
 30
0.0
 10
4.843631997487008
 20
5.45846096326212
 30
0.0
 10
4.843631997487008
 20
5.45846096326212
 30
0.0
 10
4.853553872484528
 20
5.470794405099315
 30
0.0
 10
4.853553872484528
 20
5.470794405099315
 30
0.0
 10
4.853553872484528
 20
5.470794405099315
 30
0.0
 10
4.861339788281192
 20
5.480440672458014
 30
0.0
 10
4.861339788281192
 20
5.480440672458014
 30
0.0
 10
4.861339788281192
 20
5.480440672458014
 30
0.0
 10
4.867058646786707
 20
5.487468667247924
 30
0.0
 10
4.867058646786707
 20
5.487468667247924
 30
0.0
 10
4.867058646786707
 20
5.487468667247924
 30
0.0
 10
4.870572644181662
 20
5.491602781830224
 30
0.0
 10
4.870572644181662
 20
5.491602781830224
 30
0.0
 10
4.870572644181662
 20
5.491602781830224
 30
0.0
 10
4.871675074736942
 20
5.493049721934029
 30
0.0
 10
4.871675074736942
 20
5.493049721934029
 30
0.0
 10
4.871675074736942
 20
5.493049721934029
 30
0.0
 10
4.884766437580891
 20
5.516751978872548
 30
0.0
 10
4.884766437580891
 20
5.516751978872548
 30
0.0
 10
4.884766437580891
 20
5.516751978872548
 30
0.0
 10
4.887591415878796
 20
5.542796900741036
 30
0.0
 10
4.887591415878796
 20
5.542796900741036
 30
0.0
 10
4.887591415878796
 20
5.542796900741036
 30
0.0
 10
4.880494519179182
 20
5.568014999693065
 30
0.0
 10
4.880494519179182
 20
5.568014999693065
 30
0.0
  0
ENDBLK
  5
ED
330
EA
100
AcDbEntity
  8
0
100
AcDbBlockEnd
  0
ENDSEC
  0
SECTION
  2
ENTITIES
  0
INSERT
  5
3D
330
1F
100
AcDbEntity
  8
Layer 1
100
AcDbBlockReference
  2
block 2
 10
0.0
 20
0.0
 30
0.0
  0
INSERT
  5
42
330
1F
100
AcDbEntity
  8
Layer 1
100
AcDbBlockReference
  2
block 3
 10
0.0
 20
0.0
 30
0.0
  0
INSERT
  5
5A
330
1F
100
AcDbEntity
  8
Layer 1
100
AcDbBlockReference
  2
block 8
 10
0.0
 20
0.0
 30
0.0
  0
ENDSEC
  0
SECTION
  2
OBJECTS
  0
DICTIONARY
  5
C
330
0
100
AcDbDictionary
281
     1
  3
ACAD_GROUP
350
D
  3
ACAD_LAYOUT
350
1A
  3
ACAD_MLINESTYLE
350
17
  3
ACAD_PLOTSETTINGS
350
19
  3
ACAD_PLOTSTYLENAME
350
E
  3
ACAD_TABLESTYLE
350
EF
  3
ACAD_VISUALSTYLE
350
2A
  0
DICTIONARY
  5
D
102
{ACAD_REACTORS
330
C
102
}
330
C
100
AcDbDictionary
281
     1
  0
DICTIONARY
  5
1A
102
{ACAD_REACTORS
330
C
102
}
330
C
100
AcDbDictionary
281
     1
  3
Layout1
350
1E
  3
Layout2
350
26
  3
Model
350
22
  0
DICTIONARY
  5
17
102
{ACAD_REACTORS
330
C
102
}
330
C
100
AcDbDictionary
281
     1
  3
Standard
350
18
  0
DICTIONARY
  5
19
102
{ACAD_REACTORS
330
C
102
}
330
C
100
AcDbDictionary
281
     1
  0
ACDBDICTIONARYWDFLT
  5
E
102
{ACAD_REACTORS
330
C
102
}
330
C
100
AcDbDictionary
281
     1
  3
Normal
350
F
100
AcDbDictionaryWithDefault
340
F
  0
DICTIONARY
  5
EF
102
{ACAD_REACTORS
330
C
102
}
330
C
100
AcDbDictionary
281
     1
  0
DICTIONARY
  5
2A
102
{ACAD_REACTORS
330
C
102
}
330
C
100
AcDbDictionary
281
     1
  3
2dWireframe
350
2F
  3
3D Hidden
350
31
  3
3dWireframe
350
30
  3
Basic
350
32
  3
Brighten
350
36
  3
ColorChange
350
3A
  3
Conceptual
350
34
  3
Dim
350
35
  3
Facepattern
350
39
  3
Flat
350
2B
  3
FlatWithEdges
350
2C
  3
Gouraud
350
2D
  3
GouraudWithEdges
350
2E
  3
Linepattern
350
38
  3
Realistic
350
33
  3
Thicken
350
37
  0
LAYOUT
  5
1E
102
{ACAD_REACTORS
330
1A
102
}
330
1A
100
AcDbPlotSettings
  1

  2
none_device
  4

  6

 40
0.0
 41
0.0
 42
0.0
 43
0.0
 44
0.0
 45
0.0
 46
0.0
 47
0.0
 48
0.0
 49
0.0
140
0.0
141
0.0
142
1.0
143
1.0
 70
   688
 72
     0
 73
     0
 74
     5
  7

 75
    16
 76
     0
 77
     2
 78
   300
147
1.0
148
0.0
149
0.0
100
AcDbLayout
  1
Layout1
 70
     1
 71
     1
 10
0.0
 20
0.0
 11
12.0
 21
9.0
 12
0.0
 22
0.0
 32
0.0
 14
1.000000000000000E+20
 24
1.000000000000000E+20
 34
1.000000000000000E+20
 15
-1.000000000000000E+20
 25
-1.000000000000000E+20
 35
-1.000000000000000E+20
146
0.0
 13
0.0
 23
0.0
 33
0.0
 16
1.0
 26
0.0
 36
0.0
 17
0.0
 27
1.0
 37
0.0
 76
     0
330
1B
  0
LAYOUT
  5
26
102
{ACAD_REACTORS
330
1A
102
}
330
1A
100
AcDbPlotSettings
  1

  2
none_device
  4

  6

 40
0.0
 41
0.0
 42
0.0
 43
0.0
 44
0.0
 45
0.0
 46
0.0
 47
0.0
 48
0.0
 49
0.0
140
0.0
141
0.0
142
1.0
143
1.0
 70
   688
 72
     0
 73
     0
 74
     5
  7

 75
    16
 76
     0
 77
     2
 78
   300
147
1.0
148
0.0
149
0.0
100
AcDbLayout
  1
Layout2
 70
     1
 71
     2
 10
0.0
 20
0.0
 11
0.0
 21
0.0
 12
0.0
 22
0.0
 32
0.0
 14
0.0
 24
0.0
 34
0.0
 15
0.0
 25
0.0
 35
0.0
146
0.0
 13
0.0
 23
0.0
 33
0.0
 16
1.0
 26
0.0
 36
0.0
 17
0.0
 27
1.0
 37
0.0
 76
     0
330
23
  0
LAYOUT
  5
22
102
{ACAD_REACTORS
330
1A
102
}
330
1A
100
AcDbPlotSettings
  1

  2
none_device
  4

  6

 40
0.0
 41
0.0
 42
0.0
 43
0.0
 44
0.0
 45
0.0
 46
0.0
 47
0.0
 48
0.0
 49
0.0
140
0.0
141
0.0
142
1.0
143
1.0
 70
  1712
 72
     0
 73
     0
 74
     0
  7

 75
     0
 76
     0
 77
     2
 78
   300
147
1.0
148
0.0
149
0.0
100
AcDbLayout
  1
Model
 70
     1
 71
     0
 10
0.0
 20
0.0
 11
12.0
 21
9.0
 12
0.0
 22
0.0
 32
0.0
 14
1.000000000000000E+20
 24
1.000000000000000E+20
 34
1.000000000000000E+20
 15
-1.000000000000000E+20
 25
-1.000000000000000E+20
 35
-1.000000000000000E+20
146
0.0
 13
0.0
 23
0.0
 33
0.0
 16
1.0
 26
0.0
 36
0.0
 17
0.0
 27
1.0
 37
0.0
 76
     0
330
1F
331
29
  0
MLINESTYLE
  5
18
102
{ACAD_REACTORS
330
17
102
}
330
17
100
AcDbMlineStyle
  2
Standard
 70
     0
  3

 62
   256
 51
90.0
 52
90.0
 71
     2
 49
0.5
 62
   256
  6
BYLAYER
 49
-0.5
 62
   256
  6
BYLAYER
  0
ACDBPLACEHOLDER
  5
F
102
{ACAD_REACTORS
330
E
102
}
330
E
  0
VISUALSTYLE
  5
2F
102
{ACAD_REACTORS
330
2A
102
}
330
2A
100
AcDbVisualStyle
  2
2dWireframe
 70
     4
 71
     0
 72
     2
 73
     0
 90
        0
 40
-0.6
 41
-30.0
 62
     5
 63
     7
421
 16777215
 74
     1
 91
        4
 64
     7
 65
   257
 75
     1
175
     1
 42
1.0
 92
        0
 66
   257
 43
1.0
 76
     1
 77
     6
 78
     2
 67
     7
 79
     5
170
     0
171
     0
290
     0
174
     0
 93
        1
 44
0.0
173
     0
291
     0
 45
0.0
1001
ACAD
1000
AcDbSavedByObjectVersion
1070
     0
  0
VISUALSTYLE
  5
31
102
{ACAD_REACTORS
330
2A
102
}
330
2A
100
AcDbVisualStyle
  2
3D Hidden
 70
     6
 71
     1
 72
     2
 73
     2
 90
        0
 40
-0.6
 41
-30.0
 62
     5
 63
     7
421
 16777215
 74
     2
 91
        2
 64
     7
 65
   257
 75
     2
175
     1
 42
40.0
 92
        0
 66
   257
 43
1.0
 76
     1
 77
     6
 78
     2
 67
     7
 79
     3
170
     0
171
     0
290
     0
174
     0
 93
        1
 44
0.0
173
     0
291
     0
 45
0.0
1001
ACAD
1000
AcDbSavedByObjectVersion
1070
     0
  0
VISUALSTYLE
  5
30
102
{ACAD_REACTORS
330
2A
102
}
330
2A
100
AcDbVisualStyle
  2
3dWireframe
 70
     5
 71
     0
 72
     2
 73
     0
 90
        0
 40
-0.6
 41
-30.0
 62
     5
 63
     7
421
 16777215
 74
     1
 91
        4
 64
     7
 65
   257
 75
     1
175
     1
 42
1.0
 92
        0
 66
   257
 43
1.0
 76
     1
 77
     6
 78
     2
 67
     7
 79
     5
170
     0
171
     0
290
     0
174
     0
 93
        1
 44
0.0
173
     0
291
     0
 45
0.0
1001
ACAD
1000
AcDbSavedByObjectVersion
1070
     0
  0
VISUALSTYLE
  5
32
102
{ACAD_REACTORS
330
2A
102
}
330
2A
100
AcDbVisualStyle
  2
Basic
 70
     7
 71
     1
 72
     0
 73
     1
 90
        0
 40
-0.6
 41
-30.0
 62
     5
 63
     7
421
 16777215
 74
     0
 91
        4
 64
     7
 65
   257
 75
     1
175
     1
 42
1.0
 92
        8
 66
     7
 43
1.0
 76
     1
 77
     6
 78
     2
 67
     7
 79
     5
170
     0
171
     0
290
     0
174
     0
 93
        1
 44
0.0
173
     0
291
     1
 45
0.0
1001
ACAD
1000
AcDbSavedByObjectVersion
1070
     0
  0
VISUALSTYLE
  5
36
102
{ACAD_REACTORS
330
2A
102
}
330
2A
100
AcDbVisualStyle
  2
Brighten
 70
    12
 71
     2
 72
     2
 73
     0
 90
        0
 40
-0.6
 41
-30.0
 62
     5
 63
     7
421
 16777215
 74
     1
 91
        4
 64
     7
 65
   257
 75
     1
175
     1
 42
1.0
 92
        8
 66
     7
 43
1.0
 76
     1
 77
     6
 78
     2
 67
     7
 79
     5
170
     0
171
     0
290
     0
174
     0
 93
        1
 44
50.0
173
     0
291
     1
 45
0.0
1001
ACAD
1000
AcDbSavedByObjectVersion
1070
     0
  0
VISUALSTYLE
  5
3A
102
{ACAD_REACTORS
330
2A
102
}
330
2A
100
AcDbVisualStyle
  2
ColorChange
 70
    16
 71
     2
 72
     2
 73
     3
 90
        0
 40
-0.6
 41
-30.0
 62
     5
 63
     8
421
  8421504
 74
     1
 91
        4
 64
     7
 65
   257
 75
     1
175
     1
 42
1.0
 92
        8
 66
     8
424
  8421504
 43
1.0
 76
     1
 77
     6
 78
     2
 67
     7
 79
     5
170
     0
171
     0
290
     0
174
     0
 93
        1
 44
0.0
173
     0
291
     1
 45
0.0
1001
ACAD
1000
AcDbSavedByObjectVersion
1070
     0
  0
VISUALSTYLE
  5
34
102
{ACAD_REACTORS
330
2A
102
}
330
2A
100
AcDbVisualStyle
  2
Conceptual
 70
     9
 71
     3
 72
     2
 73
     0
 90
        0
 40
-0.6
 41
-30.0
 62
     5
 63
     7
421
 16777215
 74
     2
 91
        2
 64
     7
 65
   257
 75
     1
175
     1
 42
40.0
 92
        8
 66
     7
 43
1.0
 76
     1
 77
     6
 78
     2
 67
     7
 79
     3
170
     0
171
     0
290
     0
174
     0
 93
        1
 44
0.0
173
     0
291
     0
 45
0.0
1001
ACAD
1000
AcDbSavedByObjectVersion
1070
     0
  0
VISUALSTYLE
  5
35
102
{ACAD_REACTORS
330
2A
102
}
330
2A
100
AcDbVisualStyle
  2
Dim
 70
    11
 71
     2
 72
     2
 73
     0
 90
        0
 40
-0.6
 41
-30.0
 62
     5
 63
     7
421
 16777215
 74
     1
 91
        4
 64
     7
 65
   257
 75
     1
175
     1
 42
1.0
 92
        8
 66
     7
 43
1.0
 76
     1
 77
     6
 78
     2
 67
     7
 79
     5
170
     0
171
     0
290
     0
174
     0
 93
        1
 44
-50.0
173
     0
291
     1
 45
0.0
1001
ACAD
1000
AcDbSavedByObjectVersion
1070
     0
  0
VISUALSTYLE
  5
39
102
{ACAD_REACTORS
330
2A
102
}
330
2A
100
AcDbVisualStyle
  2
Facepattern
 70
    15
 71
     2
 72
     2
 73
     0
 90
        0
 40
-0.6
 41
-30.0
 62
     5
 63
     7
421
 16777215
 74
     1
 91
        4
 64
     7
 65
   257
 75
     1
175
     1
 42
1.0
 92
        8
 66
     7
 43
1.0
 76
     1
 77
     6
 78
     2
 67
     7
 79
     5
170
     0
171
     0
290
     0
174
     0
 93
        1
 44
0.0
173
     0
291
     1
 45
0.0
1001
ACAD
1000
AcDbSavedByObjectVersion
1070
     0
  0
VISUALSTYLE
  5
2B
102
{ACAD_REACTORS
330
2A
102
}
330
2A
100
AcDbVisualStyle
  2
Flat
 70
     0
 71
     2
 72
     1
 73
     1
 90
        2
 40
-0.6
 41
30.0
 62
     5
 63
     7
421
 16777215
 74
     0
 91
        4
 64
     7
 65
   257
 75
     1
175
     1
 42
1.0
 92
        8
 66
     7
 43
1.0
 76
     1
 77
     6
 78
     2
 67
     7
 79
     5
170
     0
171
     0
290
     0
174
     0
 93
       13
 44
0.0
173
     0
291
     1
 45
0.0
1001
ACAD
1000
AcDbSavedByObjectVersion
1070
     0
  0
VISUALSTYLE
  5
2C
102
{ACAD_REACTORS
330
2A
102
}
330
2A
100
AcDbVisualStyle
  2
FlatWithEdges
 70
     1
 71
     2
 72
     1
 73
     1
 90
        2
 40
-0.6
 41
30.0
 62
     5
 63
     7
421
 16777215
 74
     1
 91
        4
 64
     7
 65
   257
 75
     1
175
     1
 42
1.0
 92
        0
 66
   257
 43
1.0
 76
     1
 77
     6
 78
     2
 67
     7
 79
     5
170
     0
171
     0
290
     0
174
     0
 93
       13
 44
0.0
173
     0
291
     1
 45
0.0
1001
ACAD
1000
AcDbSavedByObjectVersion
1070
     0
  0
VISUALSTYLE
  5
2D
102
{ACAD_REACTORS
330
2A
102
}
330
2A
100
AcDbVisualStyle
  2
Gouraud
 70
     2
 71
     2
 72
     2
 73
     1
 90
        2
 40
-0.6
 41
30.0
 62
     5
 63
     7
421
 16777215
 74
     0
 91
        4
 64
     7
 65
   257
 75
     1
175
     1
 42
1.0
 92
        0
 66
     7
 43
1.0
 76
     1
 77
     6
 78
     2
 67
     7
 79
     5
170
     0
171
     0
290
     0
174
     0
 93
       13
 44
0.0
173
     0
291
     1
 45
0.0
1001
ACAD
1000
AcDbSavedByObjectVersion
1070
     0
  0
VISUALSTYLE
  5
2E
102
{ACAD_REACTORS
330
2A
102
}
330
2A
100
AcDbVisualStyle
  2
GouraudWithEdges
 70
     3
 71
     2
 72
     2
 73
     1
 90
        2
 40
-0.6
 41
30.0
 62
     5
 63
     7
421
 16777215
 74
     1
 91
        4
 64
     7
 65
   257
 75
     1
175
     1
 42
1.0
 92
        0
 66
   257
 43
1.0
 76
     1
 77
     6
 78
     2
 67
     7
 79
     5
170
     0
171
     0
290
     0
174
     0
 93
       13
 44
0.0
173
     0
291
     1
 45
0.0
1001
ACAD
1000
AcDbSavedByObjectVersion
1070
     0
  0
VISUALSTYLE
  5
38
102
{ACAD_REACTORS
330
2A
102
}
330
2A
100
AcDbVisualStyle
  2
Linepattern
 70
    14
 71
     2
 72
     2
 73
     0
 90
        0
 40
-0.6
 41
-30.0
 62
     5
 63
     7
421
 16777215
 74
     1
 91
        4
 64
     7
 65
   257
 75
     7
175
     7
 42
1.0
 92
        8
 66
     7
 43
1.0
 76
     1
 77
     6
 78
     2
 67
     7
 79
     5
170
     0
171
     0
290
     0
174
     0
 93
        1
 44
0.0
173
     0
291
     1
 45
0.0
1001
ACAD
1000
AcDbSavedByObjectVersion
1070
     0
  0
VISUALSTYLE
  5
33
102
{ACAD_REACTORS
330
2A
102
}
330
2A
100
AcDbVisualStyle
  2
Realistic
 70
     8
 71
     2
 72
     2
 73
     0
 90
        0
 40
-0.6
 41
-30.0
 62
     5
 63
     7
421
 16777215
 74
     1
 91
        0
 64
     7
 65
   257
 75
     1
175
     1
 42
1.0
 92
        8
 66
     8
424
  7895160
 43
1.0
 76
     1
 77
     6
 78
     2
 67
     7
 79
     5
170
     0
171
     0
290
     0
174
     0
 93
       13
 44
0.0
173
     0
291
     0
 45
0.0
1001
ACAD
1000
AcDbSavedByObjectVersion
1070
     0
  0
VISUALSTYLE
  5
37
102
{ACAD_REACTORS
330
2A
102
}
330
2A
100
AcDbVisualStyle
  2
Thicken
 70
    13
 71
     2
 72
     2
 73
     0
 90
        0
 40
-0.6
 41
-30.0
 62
     5
 63
     7
421
 16777215
 74
     1
 91
        4
 64
     7
 65
   257
 75
     1
175
     1
 42
1.0
 92
       12
 66
     7
 43
1.0
 76
     1
 77
     6
 78
     2
 67
     7
 79
     5
170
     0
171
     0
290
     0
174
     0
 93
        1
 44
0.0
173
     0
291
     1
 45
0.0
1001
ACAD
1000
AcDbSavedByObjectVersion
1070
     0
  0
ENDSEC
  0
EOF
