  0
SECTION
  2
HEADER
  9
$ACADVER
  1
AC1003
  9
$EXTMIN
 10
0.131156720232257
 20
12.4963887427168
  9
$EXTMAX
 10
15.8349263063509
 20
0.0922012563881802
  9
$INSBASE
 10
7.98304151329158
 20
6.29429499955247
999
Created with OMAX Layout for Windows. (http://www.omax.com) 18/1/2013
  0
ENDSEC
  0
SECTION
  2
TABLES
  0
TABLE
  2
LAYER
 70
    10
  0
LAYER
  2
0
 70
     0
 62
     7
  6
CONTINUOUS
  0
LAYER
  2
1
 70
     0
 62
     7
  6
CONTINUOUS
  0
LAYER
  2
2
 70
     0
 62
     7
  6
CONTINUOUS
  0
LAYER
  2
3
 70
     0
 62
     7
  6
CONTINUOUS
  0
LAYER
  2
4
 70
     0
 62
     7
  6
CONTINUOUS
  0
LAYER
  2
5
 70
     0
 62
     7
  6
CONTINUOUS
  0
LAYER
  2
6
 70
     0
 62
     7
  6
CONTINUOUS
  0
LAYER
  2
7
 70
     0
 62
     7
  6
CONTINUOUS
  0
LAYER
  2
8
 70
     0
 62
     7
  6
CONTINUOUS
  0
LAYER
  2
9
 70
     0
 62
     7
  6
CONTINUOUS
  0
LAYER
  2
10
 70
     0
 62
     7
  6
CONTINUOUS
  0
LAYER
  2
11
 70
     0
 62
     7
  6
CONTINUOUS
  0
LAYER
  2
12
 70
     0
 62
     7
  6
CONTINUOUS
  0
LAYER
  2
13
 70
     0
 62
     7
  6
CONTINUOUS
  0
LAYER
  2
14
 70
     0
 62
     7
  6
CONTINUOUS
  0
LAYER
  2
15
 70
     0
 62
     7
  6
CONTINUOUS
  0
LAYER
  2
16
 70
     0
 62
     7
  6
CONTINUOUS
  0
LAYER
  2
17
 70
     0
 62
     7
  6
CONTINUOUS
  0
LAYER
  2
18
 70
     0
 62
     7
  6
CONTINUOUS
  0
LAYER
  2
19
 70
     0
 62
     7
  6
CONTINUOUS
  0
LAYER
  2
20
 70
     0
 62
     7
  6
CONTINUOUS
  0
LAYER
  2
21
 70
     0
 62
     7
  6
CONTINUOUS
  0
LAYER
  2
22
 70
     0
 62
     7
  6
CONTINUOUS
  0
LAYER
  2
23
 70
     0
 62
     7
  6
CONTINUOUS
  0
LAYER
  2
24
 70
     0
 62
     7
  6
CONTINUOUS
  0
LAYER
  2
25
 70
     0
 62
     7
  6
CONTINUOUS
  0
LAYER
  2
26
 70
     0
 62
     7
  6
CONTINUOUS
  0
LAYER
  2
27
 70
     0
 62
     7
  6
CONTINUOUS
  0
LAYER
  2
28
 70
     0
 62
     7
  6
CONTINUOUS
  0
LAYER
  2
29
 70
     0
 62
     7
  6
CONTINUOUS
  0
LAYER
  2
30
 70
     0
 62
     7
  6
CONTINUOUS
  0
LAYER
  2
31
 70
     0
 62
     7
  6
CONTINUOUS
  0
ENDTAB
  0
ENDSEC
  0
SECTION
  2
ENTITIES
  0
ARC
  8
5
  6
CONTINUOUS
 62
5
 10
4.57351975675692
 20
5.75847575184378
 30
0.0
 40
0.0865
 50
7.71703071250983E-9
 51
180.00000000257
  0
ARC
  8
5
  6
CONTINUOUS
 62
5
 10
3.44951975675693
 20
5.75847575184378
 30
0.0
 40
0.0864999999999991
 50
7.71644549044845E-9
 51
180.00000000257
  0
ARC
  8
5
  6
CONTINUOUS
 62
5
 10
3.44951975675693
 20
2.25847575184378
 30
0.0
 40
0.0865000000000009
 50
7.71703071250983E-9
 51
180.00000000257
  0
ARC
  8
5
  6
CONTINUOUS
 62
5
 10
4.57351975675692
 20
2.25847575184378
 30
0.0
 40
0.0865
 50
7.71614015719902E-9
 51
180.00000000257
  0
LINE
  8
5
  6
CONTINUOUS
 62
5
 10
3.57451975675693
 20
6.50847575185543
 30
0.0
 11
3.57451975675693
 21
6.25847575185543
 31
0.0
  0
LINE
  8
5
  6
CONTINUOUS
 62
5
 10
3.57451975675693
 20
6.25847575185543
 30
0.0
 11
3.32451975675693
 21
6.25847575185543
 31
0.0
  0
LINE
  8
5
  6
CONTINUOUS
 62
5
 10
3.32451975675693
 20
6.25847575185543
 30
0.0
 11
3.32451975675693
 21
6.50847575185543
 31
0.0
  0
LINE
  8
5
  6
CONTINUOUS
 62
5
 10
4.69851975675692
 20
6.50847575185543
 30
0.0
 11
4.69851975675692
 21
6.25847575185543
 31
0.0
  0
LINE
  8
5
  6
CONTINUOUS
 62
5
 10
4.44851975675692
 20
6.25847575185543
 30
0.0
 11
4.44851975675692
 21
6.50847575185543
 31
0.0
  0
LINE
  8
5
  6
CONTINUOUS
 62
5
 10
4.44851975675692
 20
6.50847575185543
 30
0.0
 11
4.69851975675692
 21
6.50847575185543
 31
0.0
  0
LINE
  8
5
  6
CONTINUOUS
 62
5
 10
3.57451975675693
 20
1.75847575185543
 30
0.0
 11
3.57451975675693
 21
1.50847575185543
 31
0.0
  0
LINE
  8
5
  6
CONTINUOUS
 62
5
 10
3.57451975675693
 20
1.50847575185543
 30
0.0
 11
3.32451975675693
 21
1.50847575185543
 31
0.0
  0
LINE
  8
5
  6
CONTINUOUS
 62
5
 10
3.32451975675693
 20
1.50847575185543
 30
0.0
 11
3.32451975675693
 21
1.75847575185543
 31
0.0
  0
LINE
  8
5
  6
CONTINUOUS
 62
5
 10
3.57451975675693
 20
2.75847575185543
 30
0.0
 11
3.32451975675693
 21
2.75847575185543
 31
0.0
  0
LINE
  8
5
  6
CONTINUOUS
 62
5
 10
3.32451975675693
 20
3.25847575185543
 30
0.0
 11
3.32451975675693
 21
2.75847575185543
 31
0.0
  0
LINE
  8
5
  6
CONTINUOUS
 62
5
 10
3.57451975675693
 20
2.75847575185543
 30
0.0
 11
3.57451975675693
 21
3.25847575185543
 31
0.0
  0
LINE
  8
5
  6
CONTINUOUS
 62
5
 10
4.69851975675692
 20
1.75847575185543
 30
0.0
 11
4.69851975675692
 21
1.50847575185543
 31
0.0
  0
LINE
  8
5
  6
CONTINUOUS
 62
5
 10
4.69851975675692
 20
1.50847575185543
 30
0.0
 11
4.44851975675692
 21
1.50847575185543
 31
0.0
  0
LINE
  8
5
  6
CONTINUOUS
 62
5
 10
4.44851975675692
 20
1.75847575185543
 30
0.0
 11
4.69851975675692
 21
1.75847575185543
 31
0.0
  0
LINE
  8
5
  6
CONTINUOUS
 62
5
 10
4.44851975675692
 20
3.25847575185543
 30
0.0
 11
4.44851975675692
 21
2.75847575185543
 31
0.0
  0
LINE
  8
5
  6
CONTINUOUS
 62
5
 10
4.44851975675692
 20
3.25847575185543
 30
0.0
 11
4.69851975675692
 21
3.25847575185543
 31
0.0
  0
LINE
  8
5
  6
CONTINUOUS
 62
5
 10
4.69851975675692
 20
2.75847575185543
 30
0.0
 11
4.69851975675692
 21
3.25847575185543
 31
0.0
  0
LINE
  8
5
  6
CONTINUOUS
 62
5
 10
3.57451975675693
 20
4.75847575185543
 30
0.0
 11
3.57451975675693
 21
5.25847575185543
 31
0.0
  0
LINE
  8
5
  6
CONTINUOUS
 62
5
 10
3.57451975675693
 20
4.75847575185543
 30
0.0
 11
3.32451975675693
 21
4.75847575185543
 31
0.0
  0
LINE
  8
5
  6
CONTINUOUS
 62
5
 10
3.32451975675693
 20
5.25847575185543
 30
0.0
 11
3.32451975675693
 21
4.75847575185543
 31
0.0
  0
LINE
  8
5
  6
CONTINUOUS
 62
5
 10
4.44851975675692
 20
5.25847575185543
 30
0.0
 11
4.69851975675692
 21
5.25847575185543
 31
0.0
  0
LINE
  8
5
  6
CONTINUOUS
 62
5
 10
4.69851975675692
 20
4.75847575185543
 30
0.0
 11
4.69851975675692
 21
5.25847575185543
 31
0.0
  0
LINE
  8
5
  6
CONTINUOUS
 62
5
 10
4.69851975675692
 20
4.75847575185543
 30
0.0
 11
4.44851975675692
 21
4.75847575185543
 31
0.0
  0
LINE
  8
5
  6
CONTINUOUS
 62
5
 10
6.26151975677499
 20
5.87103984449252
 30
0.0
 11
6.26151975674036
 21
2.14591165939793
 31
0.0
  0
ARC
  8
5
  6
CONTINUOUS
 62
5
 10
5.76151975628014
 20
5.87103984425315
 30
0.0
 40
0.500000000494849
 50
2.74287537119264E-8
 51
61.9314631091941
  0
ARC
  8
5
  6
CONTINUOUS
 62
5
 10
2.26151975600801
 20
5.8710398449008
 30
0.0
 40
0.499999999251084
 50
118.068536975448
 51
180.000000057076
  0
LINE
  8
5
  6
CONTINUOUS
 62
5
 10
1.76151975673886
 20
2.14591165930814
 30
0.0
 11
1.76151975675693
 21
5.87103984440272
 31
0.0
  0
ARC
  8
5
  6
CONTINUOUS
 62
5
 10
2.26151975667717
 20
2.14591165912375
 30
0.0
 40
0.499999999938309
 50
179.99999997887
 51
241.931463060635
  0
ARC
  8
5
  6
CONTINUOUS
 62
5
 10
4.01151975662897
 20
5.42770651956285
 30
0.0
 40
4.21923076796491
 50
241.931463054309
 51
298.068536948757
  0
ARC
  8
5
  6
CONTINUOUS
 62
5
 10
5.76151975680698
 20
2.14591165923884
 30
0.0
 40
0.499999999933376
 50
298.068536936164
 51
1.82299852677444E-8
  0
ARC
  8
5
  6
CONTINUOUS
 62
5
 10
4.03115672052466
 20
4.03586849179657
 30
0.0
 40
3.90000000012829
 50
180.00000002009
 51
4.87311866075114E-10
  0
ARC
  8
5
  6
CONTINUOUS
 62
5
 10
4.03115672131111
 20
4.03586849159067
 30
0.0
 40
3.89999999934183
 50
3.51273817350493E-9
 51
85.9485766098042
  0
ARC
  8
5
  6
CONTINUOUS
 62
5
 10
4.03115671784354
 20
4.03586849373565
 30
0.0
 40
3.89999999744719
 50
85.9485765567621
 51
180.000000048579
  0
ARC
  8
5
  6
CONTINUOUS
 62
5
 10
4.05126842652924
 20
7.73581383117854
 30
0.0
 40
0.0730000000032769
 50
180.000000018007
 51
2.57205095980592E-9
  0
ARC
  8
5
  6
CONTINUOUS
 62
5
 10
4.05126842651593
 20
7.73581383117973
 30
0.0
 40
0.0729999999899667
 50
72.0000000081885
 51
180.000000018941
  0
ARC
  8
5
  6
CONTINUOUS
 62
5
 10
1.66828416003842
 20
6.88311861417488
 30
0.0
 40
0.0729999999999999
 50
7.71820115663261E-9
 51
180.00000000257
  0
ARC
  8
5
  6
CONTINUOUS
 62
5
 10
0.390914224970731
 20
4.69816342095293
 30
0.0
 40
0.0729999999999951
 50
7.71736149019671E-9
 51
180.000000002571
  0
ARC
  8
5
  6
CONTINUOUS
 62
5
 10
0.816854210328191
 20
2.20331306947368
 30
0.0
 40
0.0729999999999999
 50
7.71748871238397E-9
 51
180.00000000257
  0
ARC
  8
5
  6
CONTINUOUS
 62
5
 10
2.74680206316641
 20
0.565935766370716
 30
0.0
 40
0.0729999999999999
 50
5.14524691929716E-9
 51
179.999999999997
  0
ARC
  8
5
  6
CONTINUOUS
 62
5
 10
5.31551137774177
 20
7.50580121589131
 30
0.0
 40
0.0730000000032733
 50
180.000000018006
 51
2.5728779040231E-9
  0
ARC
  8
5
  6
CONTINUOUS
 62
5
 10
5.31551137774353
 20
7.50580121588641
 30
0.0
 40
0.0730000000015082
 50
6.42380445680804E-9
 51
153.00000002568
  0
ARC
  8
5
  6
CONTINUOUS
 62
5
 10
7.24545923057999
 20
5.86842391277523
 30
0.0
 40
0.0730000000032776
 50
180.000000010288
 51
270.000000010288
  0
ARC
  8
5
  6
CONTINUOUS
 62
5
 10
7.24545923057999
 20
5.86842391277523
 30
0.0
 40
0.0730000000032781
 50
270.000000010288
 51
1.02882038392237E-8
  0
ARC
  8
5
  6
CONTINUOUS
 62
5
 10
7.24545923058541
 20
5.86842391278256
 30
0.0
 40
0.0729999999978592
 50
4.53678136429574E-9
 51
126.00000002895
  0
ARC
  8
5
  6
CONTINUOUS
 62
5
 10
6.42484220222953
 20
6.85726350323623
 30
0.0
 40
0.0730000000032775
 50
180.000000010289
 51
270.000000010289
  0
ARC
  8
5
  6
CONTINUOUS
 62
5
 10
6.42484220222953
 20
6.85726350323623
 30
0.0
 40
0.073000000003278
 50
270.000000010289
 51
1.02896732554865E-8
  0
ARC
  8
5
  6
CONTINUOUS
 62
5
 10
6.42484220223129
 20
6.85726350324116
 30
0.0
 40
0.0730000000015126
 50
6.42310473477812E-9
 51
153.000000025681
  0
ARC
  8
5
  6
CONTINUOUS
 62
5
 10
4.01104501438058
 20
0.33592315109331
 30
0.0
 40
0.0730000000032769
 50
180.000000012859
 51
7.71682715701022E-9
  0
ARC
  8
5
  6
CONTINUOUS
 62
5
 10
4.01104501437987
 20
0.335923151093818
 30
0.0
 40
0.0730000000025723
 50
9.00000001720427
 51
180.000000013258
  0
ARC
  8
5
  6
CONTINUOUS
 62
5
 10
7.67838393815662
 20
4.65855109282616
 30
0.0
 40
0.0730000000032776
 50
180.000000010288
 51
270.000000010288
  0
ARC
  8
5
  6
CONTINUOUS
 62
5
 10
7.67838393815662
 20
4.65855109282616
 30
0.0
 40
0.0730000000032781
 50
270.000000010288
 51
1.02882038392237E-8
  0
ARC
  8
5
  6
CONTINUOUS
 62
5
 10
7.67838393816837
 20
4.65855109283831
 30
0.0
 40
0.0729999999915254
 50
7.47118655785143E-10
 51
108.000000033858
  0
ARC
  8
5
  6
CONTINUOUS
 62
5
 10
7.67139921593746
 20
3.37357356130582
 30
0.0
 40
0.0730000000032778
 50
180.000000018006
 51
2.57166929324414E-9
  0
ARC
  8
5
  6
CONTINUOUS
 62
5
 10
7.67139921592415
 20
3.37357356130701
 30
0.0
 40
0.0729999999899675
 50
72.0000000081886
 51
180.000000018942
  0
ARC
  8
5
  6
CONTINUOUS
 62
5
 10
7.22534752450567
 20
2.1684785727359
 30
0.0
 40
0.0730000000032735
 50
180.000000010289
 51
270.000000010289
  0
ARC
  8
5
  6
CONTINUOUS
 62
5
 10
7.22534752450567
 20
2.1684785727359
 30
0.0
 40
0.0730000000032731
 50
270.000000010289
 51
1.02889735334566E-8
  0
ARC
  8
5
  6
CONTINUOUS
 62
5
 10
7.22534752449892
 20
2.16847857274255
 30
0.0
 40
0.0729999999965286
 50
54.000000012737
 51
180.00000001551
  0
ARC
  8
5
  6
CONTINUOUS
 62
5
 10
6.39402928086976
 20
1.18861836807405
 30
0.0
 40
0.0730000000032778
 50
180.000000010288
 51
1.02885473391293E-8
  0
ARC
  8
5
  6
CONTINUOUS
 62
5
 10
6.39402928086725
 20
1.1886183680788
 30
0.0
 40
0.0730000000007698
 50
27.0000000156173
 51
180.000000014015
  0
ARC
  8
5
  6
CONTINUOUS
 62
5
 10
5.27771373416284
 20
0.55217854919241
 30
0.0
 40
0.0730000000032778
 50
180.000000012861
 51
7.71818843441389E-9
  0
ARC
  8
5
  6
CONTINUOUS
 62
5
 10
5.27771373416213
 20
0.552178549192917
 30
0.0
 40
0.0730000000025733
 50
9.00000001720515
 51
180.000000013259
  0
ARC
  8
5
  6
CONTINUOUS
 62
5
 10
1.63747123867865
 20
1.2144734790127
 30
0.0
 40
0.0730000000000004
 50
7.71697982363493E-9
 51
180.00000000257
  0
ARC
  8
5
  6
CONTINUOUS
 62
5
 10
0.383929502751571
 20
3.41318588942276
 30
0.0
 40
0.0729999999999953
 50
7.71680171257277E-9
 51
180.00000000257
  0
ARC
  8
5
  6
CONTINUOUS
 62
5
 10
0.836965916402521
 20
5.90325840951302
 30
0.0
 40
0.0729999999999999
 50
7.71835382325732E-9
 51
180.00000000257
  0
ARC
  8
5
  6
CONTINUOUS
 62
5
 10
2.78459970673223
 20
7.51955843307126
 30
0.0
 40
0.0729999999967229
 50
269.999999999999
 51
359.999999999999
  0
ARC
  8
5
  6
CONTINUOUS
 62
5
 10
2.78459970673223
 20
7.51955843307126
 30
0.0
 40
0.072999999996723
 50
359.999999999999
 51
89.9999999999998
  0
ARC
  8
5
  6
CONTINUOUS
 62
5
 10
2.78459970673205
 20
7.51955843307561
 30
0.0
 40
0.0729999999923721
 50
89.9999999998608
 51
198.000000006687
  0
ARC
  8
5
  6
CONTINUOUS
 62
5
 10
4.03115672051734
 20
4.03586849172812
 30
0.0
 40
3.50000000011513
 50
180.00000002009
 51
4.87311866075114E-10
  0
ARC
  8
5
  6
CONTINUOUS
 62
5
 10
4.03115671974515
 20
4.0358684916357
 30
0.0
 40
3.49999999934296
 50
99.8971531653067
 51
180.000000018578
  0
ARC
  8
5
  6
CONTINUOUS
 62
5
 10
4.03115672680567
 20
4.03586849111041
 30
0.0
 40
3.62699999367717
 50
353.871972142521
 51
5.50515134258999
  0
ARC
  8
5
  6
CONTINUOUS
 62
5
 10
7.71110459288546
 20
4.3905410953363
 30
0.0
 40
0.0700000000006299
 50
96.9606478781121
 51
185.505151331875
  0
ARC
  8
5
  6
CONTINUOUS
 62
5
 10
7.71705588038697
 20
4.39133492434212
 30
0.0
 40
0.0699999996582168
 50
5.50854368035994
 51
98.2347621994073
  0
ARC
  8
5
  6
CONTINUOUS
 62
5
 10
4.03115672377994
 20
4.03586849100788
 30
0.0
 40
3.77299999667467
 50
353.868580063929
 51
5.50854343528574
  0
ARC
  8
5
  6
CONTINUOUS
 62
5
 10
7.71297378818431
 20
3.64035353608267
 30
0.0
 40
0.0700000000086274
 50
261.142361540607
 51
353.868580059654
  0
ARC
  8
5
  6
CONTINUOUS
 62
5
 10
7.67139921620192
 20
3.3735735645218
 30
0.0
 40
0.199999996771993
 50
81.1423615020498
 51
82.4164755604995
  0
ARC
  8
5
  6
CONTINUOUS
 62
5
 10
7.70703148237112
 20
3.64121201441464
 30
0.0
 40
0.0699999999935505
 50
173.871972162235
 51
262.416475615995
  0
ARC
  8
5
  6
CONTINUOUS
 62
5
 10
4.03115671554959
 20
4.03586848699946
 30
0.0
 40
3.62699999362207
 50
213.871972141941
 51
225.505151341998
  0
ARC
  8
5
  6
CONTINUOUS
 62
5
 10
1.44013225726294
 20
1.39874861685305
 30
0.0
 40
0.0700000000161078
 50
316.960647866217
 51
45.505151330269
  0
ARC
  8
5
  6
CONTINUOUS
 62
5
 10
1.43608357000303
 20
1.39431509513512
 30
0.0
 40
0.0699999999639523
 50
225.508543388486
 51
318.234761907533
  0
ARC
  8
5
  6
CONTINUOUS
 62
5
 10
4.03115671523857
 20
4.0358684869766
 30
0.0
 40
3.77299999335741
 50
213.868580059259
 51
225.508543430604
  0
ARC
  8
5
  6
CONTINUOUS
 62
5
 10
0.956489102570851
 20
1.97222413234267
 30
0.0
 40
0.0700000000006349
 50
121.142361557997
 51
213.868580066754
  0
ARC
  8
5
  6
CONTINUOUS
 62
5
 10
0.816854211645074
 20
2.20331306773399
 30
0.0
 40
0.199999997821862
 50
301.14236149505
 51
302.416475553501
  0
ARC
  8
5
  6
CONTINUOUS
 62
5
 10
0.961592992170041
 20
1.97538614033737
 30
0.0
 40
0.0699999999935454
 50
33.8719721622363
 51
122.416475626287
  0
ARC
  8
5
  6
CONTINUOUS
 62
5
 10
4.03115672648419
 20
4.03586849330392
 30
0.0
 40
3.62699999361892
 50
13.8719721426266
 51
25.5051513426834
  0
ARC
  8
5
  6
CONTINUOUS
 62
5
 10
7.36787140613005
 20
5.62776801885779
 30
0.0
 40
0.0700000000006238
 50
116.960647878123
 51
205.505151331881
  0
ARC
  8
5
  6
CONTINUOUS
 62
5
 10
7.37319228156903
 20
5.63054943432092
 30
0.0
 40
0.0699999996582612
 50
25.5085436803294
 51
118.234762199378
  0
ARC
  8
5
  6
CONTINUOUS
 62
5
 10
4.03115672367615
 20
4.03586849217269
 30
0.0
 40
3.77299999661628
 50
13.8685800640309
 51
25.5085434353758
  0
ARC
  8
5
  6
CONTINUOUS
 62
5
 10
7.62620713168879
 20
4.92346160767021
 30
0.0
 40
0.0700000000148209
 50
281.142361545909
 51
13.868580064956
  0
ARC
  8
5
  6
CONTINUOUS
 62
5
 10
7.67838393728358
 20
4.65855109594436
 30
0.0
 40
0.199999996772081
 50
101.14236149672
 51
102.416475555169
  0
ARC
  8
5
  6
CONTINUOUS
 62
5
 10
7.620329573891
 20
4.92223592513354
 30
0.0
 40
0.0699999999935503
 50
193.871972151944
 51
282.416475615995
  0
ARC
  8
5
  6
CONTINUOUS
 62
5
 10
4.03115671723102
 20
4.03586848558694
 30
0.0
 40
3.62699999362513
 50
233.871972142428
 51
245.505151342485
  0
ARC
  8
5
  6
CONTINUOUS
 62
5
 10
2.4983382694845
 20
0.67160384688336
 30
0.0
 40
0.0700000000161231
 50
336.960647866225
 51
65.5051513302749
  0
ARC
  8
5
  6
CONTINUOUS
 62
5
 10
2.49605010167591
 20
0.666052966644023
 30
0.0
 40
0.0699999999639597
 50
245.508543388485
 51
338.234761907531
  0
ARC
  8
5
  6
CONTINUOUS
 62
5
 10
4.03115671700025
 20
4.03586848542795
 30
0.0
 40
3.7729999933544
 50
233.86858005879
 51
245.508543430135
  0
ARC
  8
5
  6
CONTINUOUS
 62
5
 10
1.84772218792463
 20
1.04507885590841
 30
0.0
 40
0.0699999999974867
 50
141.142361560454
 51
233.868580069212
  0
ARC
  8
5
  6
CONTINUOUS
 62
5
 10
1.63747124033988
 20
1.21447347760722
 30
0.0
 40
0.199999997818758
 50
321.142361575886
 51
322.416475634336
  0
ARC
  8
5
  6
CONTINUOUS
 62
5
 10
1.85143680488242
 20
1.04979580453453
 30
0.0
 40
0.069999999993548
 50
53.8719721569629
 51
142.416475621012
  0
ARC
  8
5
  6
CONTINUOUS
 62
5
 10
4.03115671442506
 20
4.03586849331104
 30
0.0
 40
3.62699999362233
 50
153.871972142141
 51
165.505151342196
  0
ARC
  8
5
  6
CONTINUOUS
 62
5
 10
0.451831684914884
 20
4.96120156093343
 30
0.0
 40
0.0700000000094705
 50
256.960647860917
 51
345.505151324965
  0
ARC
  8
5
  6
CONTINUOUS
 62
5
 10
0.445967798441542
 20
4.96249106587837
 30
0.0
 40
0.0699999996642614
 50
165.508543684162
 51
258.234762192919
  0
ARC
  8
5
  6
CONTINUOUS
 62
5
 10
4.03115671726605
 20
4.03586849227216
 30
0.0
 40
3.7729999966368
 50
153.868580061945
 51
165.508543433289
  0
ARC
  8
5
  6
CONTINUOUS
 62
5
 10
0.706654472426329
 20
5.6667865770156
 30
0.0
 40
0.0700000000006334
 50
61.1423615580006
 51
153.868580077048
  0
ARC
  8
5
  6
CONTINUOUS
 62
5
 10
0.836965915546073
 20
5.90325840750761
 30
0.0
 40
0.199999997821945
 50
241.142361494981
 51
242.416475553432
  0
ARC
  8
5
  6
CONTINUOUS
 62
5
 10
0.711944796467724
 20
5.66394748295913
 30
0.0
 40
0.0700000000000033
 50
333.871972157085
 51
62.4164756211356
  0
ARC
  8
5
  6
CONTINUOUS
 62
5
 10
4.03115672535689
 20
4.03586849525927
 30
0.0
 40
3.62699999362214
 50
33.8719721421399
 51
45.5051513421965
  0
ARC
  8
5
  6
CONTINUOUS
 62
5
 10
6.62218118361788
 20
6.67298836540487
 30
0.0
 40
0.0699999999974805
 50
136.960647880755
 51
225.505151334514
  0
ARC
  8
5
  6
CONTINUOUS
 62
5
 10
6.62622987088876
 20
6.67742188756668
 30
0.0
 40
0.0699999996582412
 50
45.5085436803292
 51
138.234762199377
  0
ARC
  8
5
  6
CONTINUOUS
 62
5
 10
4.03115672312501
 20
4.03586849321201
 30
0.0
 40
3.77299999661627
 50
33.8685800640322
 51
45.5085434353772
  0
ARC
  8
5
  6
CONTINUOUS
 62
5
 10
7.10582433831046
 20
6.09951284991694
 30
0.0
 40
0.0700000000148258
 50
301.14236154591
 51
33.8685800649571
  0
ARC
  8
5
  6
CONTINUOUS
 62
5
 10
7.2454592286927
 20
5.86842391540746
 30
0.0
 40
0.199999996771819
 50
121.142361496658
 51
122.416475555108
  0
ARC
  8
5
  6
CONTINUOUS
 62
5
 10
7.1007204487365
 20
6.0963508419214
 30
0.0
 40
0.0699999999935526
 50
213.871972151946
 51
302.416475615995
  0
ARC
  8
5
  6
CONTINUOUS
 62
5
 10
4.03115672533171
 20
4.03586848697023
 30
0.0
 40
3.62699999362228
 50
313.871972142915
 51
325.505151342971
  0
ARC
  8
5
  6
CONTINUOUS
 62
5
 10
7.07813949457691
 20
1.94213857201687
 30
0.0
 40
0.0700000000006325
 50
56.9606478781113
 51
145.505151342163
  0
ARC
  8
5
  6
CONTINUOUS
 62
5
 10
7.08320870828783
 20
1.9389212663516
 30
0.0
 40
0.0699999999813209
 50
325.508543403014
 51
58.2347619220603
  0
ARC
  8
5
  6
CONTINUOUS
 62
5
 10
4.03115672546883
 20
4.03586848673854
 30
0.0
 40
3.772999993354
 50
313.868580058788
 51
325.508543430133
  0
ARC
  8
5
  6
CONTINUOUS
 62
5
 10
6.5973601132195
 20
1.36626006537545
 30
0.0
 40
0.0700000000086282
 50
221.142361540603
 51
313.868580059651
  0
ARC
  8
5
  6
CONTINUOUS
 62
5
 10
6.39402928333338
 20
1.18861837016364
 30
0.0
 40
0.199999996768973
 50
41.1423615828761
 51
42.4164756413255
  0
ARC
  8
5
  6
CONTINUOUS
 62
5
 10
6.59335986210668
 20
1.3707373384719
 30
0.0
 40
0.0699999999935561
 50
133.871972156961
 51
222.416475610721
  0
ARC
  8
5
  6
CONTINUOUS
 62
5
 10
4.03115672647109
 20
4.03586848891859
 30
0.0
 40
3.62699999361884
 50
333.871972142426
 51
345.505151342483
  0
ARC
  8
5
  6
CONTINUOUS
 62
5
 10
7.61048175597915
 20
3.11053542133729
 30
0.0
 40
0.0700000000006358
 50
76.9606478781239
 51
165.505151342174
  0
ARC
  8
5
  6
CONTINUOUS
 62
5
 10
7.61634564204123
 20
3.10924591614479
 30
0.0
 40
0.0699999999813111
 50
345.508543403018
 51
78.2347619220647
  0
ARC
  8
5
  6
CONTINUOUS
 62
5
 10
4.031156726668
 20
4.03586848871879
 30
0.0
 40
3.7729999933541
 50
333.868580058789
 51
345.508543430133
  0
ARC
  8
5
  6
CONTINUOUS
 62
5
 10
7.35565896847122
 20
2.40495040525724
 30
0.0
 40
0.0700000000086292
 50
241.142361540608
 51
333.868580059653
  0
ARC
  8
5
  6
CONTINUOUS
 62
5
 10
7.22534752585672
 20
2.16847857567651
 30
0.0
 40
0.199999996771981
 50
61.1423615018368
 51
62.416475560287
  0
ARC
  8
5
  6
CONTINUOUS
 62
5
 10
7.35036864443026
 20
2.40778949929683
 30
0.0
 40
0.0699999999935572
 50
153.871972162236
 51
242.416475615996
  0
ARC
  8
5
  6
CONTINUOUS
 62
5
 10
4.03115671932849
 20
4.03586849744111
 30
0.0
 40
3.626999993622
 50
93.8719721421399
 51
105.505151342197
  0
ARC
  8
5
  6
CONTINUOUS
 62
5
 10
3.04285614809622
 20
7.59832143520927
 30
0.0
 40
0.070000000009468
 50
196.960647860915
 51
285.505151324964
  0
ARC
  8
5
  6
CONTINUOUS
 62
5
 10
2.78459970984983
 20
7.51955843396643
 30
0.0
 40
0.199999996769226
 50
16.9606479028892
 51
18.2347619613399
  0
ARC
  8
5
  6
CONTINUOUS
 62
5
 10
3.04104094892168
 20
7.6040444623201
 30
0.0
 40
0.069999999682043
 50
105.508543698355
 51
198.234762207112
  0
ARC
  8
5
  6
CONTINUOUS
 62
5
 10
4.03115671981875
 20
4.03586849445601
 30
0.0
 40
3.77299999663342
 50
93.868580061476
 51
105.508543432821
  0
ARC
  8
5
  6
CONTINUOUS
 62
5
 10
3.78132209031194
 20
7.73043093579936
 30
0.0
 40
0.0699999999974998
 50
1.1423615604477
 51
93.868580079495
  0
ARC
  8
5
  6
CONTINUOUS
 62
5
 10
3.78150852476191
 20
7.72442983375661
 30
0.0
 40
0.0699999999960548
 50
273.871972149842
 51
2.41647561389044
  0
ARC
  8
5
  6
CONTINUOUS
 62
5
 10
4.03115671932093
 20
4.03586848481914
 30
0.0
 40
3.62699999362513
 50
253.871972142429
 51
265.505151342486
  0
ARC
  8
5
  6
CONTINUOUS
 62
5
 10
3.74142480888393
 20
0.35023904426791
 30
0.0
 40
0.0700000000161178
 50
356.96064786622
 51
85.5051513302694
  0
ARC
  8
5
  6
CONTINUOUS
 62
5
 10
3.74117314733411
 20
0.344240323586298
 30
0.0
 40
0.0699999999639658
 50
265.508543388478
 51
358.234761907526
  0
ARC
  8
5
  6
CONTINUOUS
 62
5
 10
4.03115671915836
 20
4.0358684845906
 30
0.0
 40
3.77299999335418
 50
253.868580058792
 51
265.508543430137
  0
ARC
  8
5
  6
CONTINUOUS
 62
5
 10
3.00230970196218
 20
0.478666948831598
 30
0.0
 40
0.0699999999974967
 50
161.14236156046
 51
253.868580069216
  0
ARC
  8
5
  6
CONTINUOUS
 62
5
 10
2.7468020652111
 20
0.56593576561585
 30
0.0
 40
0.199999997819256
 50
341.142361575825
 51
342.416475634276
  0
ARC
  8
5
  6
CONTINUOUS
 62
5
 10
3.00418700866129
 20
0.484369904472494
 30
0.0
 40
0.0699999999935473
 50
73.8719721569582
 51
162.416475621009
  0
ARC
  8
5
  6
CONTINUOUS
 62
5
 10
4.03115671443277
 20
4.03586848892571
 30
0.0
 40
3.62699999362205
 50
193.871972141942
 51
205.505151341998
  0
ARC
  8
5
  6
CONTINUOUS
 62
5
 10
0.694442034750584
 20
2.44396896340472
 30
0.0
 40
0.0700000000161123
 50
296.960647866219
 51
25.5051513302705
  0
ARC
  8
5
  6
CONTINUOUS
 62
5
 10
0.689121159475181
 20
2.44118754835922
 30
0.0
 40
0.069999999963978
 50
205.508543388475
 51
298.234761907521
  0
ARC
  8
5
  6
CONTINUOUS
 62
5
 10
4.03115671413261
 20
4.03586848901047
 30
0.0
 40
3.77299999335727
 50
193.868580059258
 51
205.508543430603
  0
ARC
  8
5
  6
CONTINUOUS
 62
5
 10
0.436106309194336
 20
3.14827537459798
 30
0.0
 40
0.0700000000006326
 50
101.142361557999
 51
193.868580066756
  0
ARC
  8
5
  6
CONTINUOUS
 62
5
 10
0.383929503390532
 20
3.41318588733803
 30
0.0
 40
0.199999997821741
 50
281.142361495092
 51
282.416475553542
  0
ARC
  8
5
  6
CONTINUOUS
 62
5
 10
0.441983867015527
 20
3.14950105712522
 30
0.0
 40
0.0699999999935521
 50
13.8719721622352
 51
102.416475626283
  0
ARC
  8
5
  6
CONTINUOUS
 62
5
 10
5.06000373850522
 20
7.59307003322196
 30
0.0
 40
0.070000000347131
 50
341.14236180616
 51
73.8685803252074
  0
ARC
  8
5
  6
CONTINUOUS
 62
5
 10
5.31551137460407
 20
7.50580121668653
 30
0.0
 40
0.199999996771975
 50
161.142361496895
 51
162.416475555345
  0
ARC
  8
5
  6
CONTINUOUS
 62
5
 10
5.05812643203588
 20
7.58736707820338
 30
0.0
 40
0.0700000003128677
 50
253.87197187297
 51
342.41647533702
  0
ARC
  8
5
  6
CONTINUOUS
 62
5
 10
4.03115672255977
 20
4.03586850485226
 30
0.0
 40
3.62699998615895
 50
76.7852598754629
 51
85.5051513488491
  0
ARC
  8
5
  6
CONTINUOUS
 62
5
 10
4.32088863200344
 20
7.72149793797368
 30
0.0
 40
0.0699999999975001
 50
176.960647880757
 51
265.505151334515
  0
ARC
  8
5
  6
CONTINUOUS
 62
5
 10
4.05126842870318
 20
7.73581383099363
 30
0.0
 40
0.199999997818493
 50
356.960647895946
 51
358.234761954396
  0
ARC
  8
5
  6
CONTINUOUS
 62
5
 10
4.32114029328148
 20
7.72749665899531
 30
0.0
 40
0.0699999996648798
 50
85.5085436849655
 51
178.234762204014
  0
ARC
  8
5
  6
CONTINUOUS
 62
5
 10
4.03115672189625
 20
4.03586849764129
 30
0.0
 40
3.77299999336936
 50
73.8685800713548
 51
85.5085434426996
  0
ARC
  8
5
  6
CONTINUOUS
 62
5
 10
4.03115672364861
 20
4.03586849668737
 30
0.0
 40
3.62699999362213
 50
53.8719721421389
 51
65.5051513421954
  0
ARC
  8
5
  6
CONTINUOUS
 62
5
 10
5.56397517139815
 20
7.40013313536581
 30
0.0
 40
0.0699999999974947
 50
156.960647880758
 51
245.505151334517
  0
ARC
  8
5
  6
CONTINUOUS
 62
5
 10
5.56626333906524
 20
7.40568401602599
 30
0.0
 40
0.0699999996582588
 50
65.5085436803167
 51
158.234762199364
  0
ARC
  8
5
  6
CONTINUOUS
 62
5
 10
4.03115672225154
 20
4.03586849400021
 30
0.0
 40
3.77299999661627
 50
53.8685800640313
 51
65.5085434353762
  0
ARC
  8
5
  6
CONTINUOUS
 62
5
 10
6.21459125295734
 20
7.02665812634683
 30
0.0
 40
0.0700000000148173
 50
321.142361545908
 51
53.8685800649558
  0
ARC
  8
5
  6
CONTINUOUS
 62
5
 10
6.42484219955626
 20
6.85726350506458
 30
0.0
 40
0.199999996772401
 50
141.142361496718
 51
142.416475555167
  0
ARC
  8
5
  6
CONTINUOUS
 62
5
 10
6.2108766360152
 20
7.02194117772294
 30
0.0
 40
0.0699999999935537
 50
233.871972151947
 51
322.416475615996
  0
ARC
  8
5
  6
CONTINUOUS
 62
5
 10
4.03115672154749
 20
4.03586848481273
 30
0.0
 40
3.62699999362545
 50
273.871972142428
 51
285.505151342484
  0
ARC
  8
5
  6
CONTINUOUS
 62
5
 10
5.01945729281837
 20
0.473415547064126
 30
0.0
 40
0.0699999999974922
 50
16.9606478807638
 51
105.505151344812
  0
ARC
  8
5
  6
CONTINUOUS
 62
5
 10
5.02127249159041
 20
0.467692520175387
 30
0.0
 40
0.0699999999813415
 50
285.50854340299
 51
18.2347619220394
  0
ARC
  8
5
  6
CONTINUOUS
 62
5
 10
4.03115672147307
 20
4.03586848454165
 30
0.0
 40
3.77299999335378
 50
273.868580058788
 51
285.508543430133
  0
ARC
  8
5
  6
CONTINUOUS
 62
5
 10
4.28099135060549
 20
0.341306046471288
 30
0.0
 40
0.07000000000863
 50
181.142361540604
 51
273.86858005965
  0
ARC
  8
5
  6
CONTINUOUS
 62
5
 10
4.01104501761047
 20
0.335923151106277
 30
0.0
 40
0.19999999676909
 50
1.14236158283166
 51
2.41647564128131
  0
ARC
  8
5
  6
CONTINUOUS
 62
5
 10
4.28080491614101
 20
0.347307148498106
 30
0.0
 40
0.069999999993547
 50
93.8719721569562
 51
182.416475610716
  0
ARC
  8
5
  6
CONTINUOUS
 62
5
 10
4.03115671717756
 20
4.03586849110065
 30
0.0
 40
3.62699999674136
 50
173.87197214716
 51
185.505151336978
  0
ARC
  8
5
  6
CONTINUOUS
 62
5
 10
0.351208847998037
 20
3.68119588693484
 30
0.0
 40
0.0700000000161099
 50
276.960647866227
 51
5.50515133027526
  0
ARC
  8
5
  6
CONTINUOUS
 62
5
 10
0.345257560793092
 20
3.68040205826552
 30
0.0
 40
0.0699999999639402
 50
185.508543388495
 51
278.234761907543
  0
ARC
  8
5
  6
CONTINUOUS
 62
5
 10
4.0311567170513
 20
4.03586849128242
 30
0.0
 40
3.77299999660271
 50
173.868580064474
 51
185.508543425582
  0
ARC
  8
5
  6
CONTINUOUS
 62
5
 10
0.349339652708966
 20
4.43138344618625
 30
0.0
 40
0.0700000000006402
 50
81.1423615580013
 51
173.868580077049
  0
ARC
  8
5
  6
CONTINUOUS
 62
5
 10
0.390914224855599
 20
4.69816341877604
 30
0.0
 40
0.199999997821923
 50
261.142361494862
 51
262.416475553311
  0
ARC
  8
5
  6
CONTINUOUS
 62
5
 10
0.355281958528341
 20
4.43052496783854
 30
0.0
 40
0.0700000000000007
 50
353.871972157088
 51
82.4164756211397
  0
ARC
  8
5
  6
CONTINUOUS
 62
5
 10
4.03115670566638
 20
4.03586850278209
 30
0.0
 40
3.6269999812184
 50
137.950574960445
 51
145.505151352088
  0
ARC
  8
5
  6
CONTINUOUS
 62
5
 10
0.984173946321951
 20
6.12959841025741
 30
0.0
 40
0.0700000000094678
 50
236.96064786091
 51
325.505151324958
  0
ARC
  8
5
  6
CONTINUOUS
 62
5
 10
0.836965917966133
 20
5.90325841235649
 30
0.0
 40
0.199999996772376
 50
56.9606478221113
 51
58.2347618805614
  0
ARC
  8
5
  6
CONTINUOUS
 62
5
 10
0.979104732163471
 20
6.13281571583919
 30
0.0
 40
0.0699999996788735
 50
145.50854370082
 51
238.234762209577
  0
ARC
  8
5
  6
CONTINUOUS
 62
5
 10
4.0311567178291
 20
4.03586849326973
 30
0.0
 40
3.77299999663368
 50
133.868580061477
 51
145.508543432822
  0
ARC
  8
5
  6
CONTINUOUS
 62
5
 10
1.46495332768774
 20
6.70547691689942
 30
0.0
 40
0.0699999999974995
 50
41.1423615604442
 51
133.86858007949
  0
ARC
  8
5
  6
CONTINUOUS
 62
5
 10
1.66828415854435
 20
6.88311861258415
 30
0.0
 40
0.199999997822098
 50
221.142361495039
 51
222.416475553488
  0
ARC
  8
5
  6
CONTINUOUS
 62
5
 10
1.46895357832415
 20
6.70099964379072
 30
0.0
 40
0.070000000335868
 50
313.871971891982
 51
42.4164753560341
  0
ARC
  8
5
  6
CONTINUOUS
 62
5
 10
4.03115672364188
 20
4.03586848556795
 30
0.0
 40
3.6269999936255
 50
293.871972142428
 51
305.505151342483
  0
ARC
  8
5
  6
CONTINUOUS
 62
5
 10
6.17828614194338
 20
1.02627645110337
 30
0.0
 40
0.0699999999974975
 50
36.9606478807495
 51
125.505151344799
  0
ARC
  8
5
  6
CONTINUOUS
 62
5
 10
6.18194926131146
 20
1.02151939951165
 30
0.0
 40
0.0699999999813527
 50
305.508543402979
 51
38.2347619220271
  0
ARC
  8
5
  6
CONTINUOUS
 62
5
 10
4.03115672366475
 20
4.03586848528764
 30
0.0
 40
3.77299999335367
 50
293.868580058788
 51
305.508543430133
  0
ARC
  8
5
  6
CONTINUOUS
 62
5
 10
5.52953925567168
 20
0.649563900863793
 30
0.0
 40
0.0700000000086232
 50
201.142361540604
 51
293.868580059651
  0
ARC
  8
5
  6
CONTINUOUS
 62
5
 10
5.27771373719235
 20
0.552178550309508
 30
0.0
 40
0.19999999676909
 50
21.1423615828708
 51
22.4164756413205
  0
ARC
  8
5
  6
CONTINUOUS
 62
5
 10
5.52731156680582
 20
0.655139327812726
 30
0.0
 40
0.0699999999935504
 50
113.871972156964
 51
202.416475610724
  0
ARC
  8
5
  6
CONTINUOUS
 62
5
 10
4.03115671723757
 20
4.03586849667567
 30
0.0
 40
3.62699999362208
 50
113.871972142139
 51
125.505151342196
  0
ARC
  8
5
  6
CONTINUOUS
 62
5
 10
1.8840272989657
 20
7.04546053117191
 30
0.0
 40
0.0700000000094768
 50
216.960647860915
 51
305.505151324963
  0
ARC
  8
5
  6
CONTINUOUS
 62
5
 10
1.88036417911895
 20
7.05021758283902
 30
0.0
 40
0.0699999996642594
 50
125.508543684161
 51
218.234762192918
  0
ARC
  8
5
  6
CONTINUOUS
 62
5
 10
4.03115671871935
 20
4.03586849403812
 30
0.0
 40
3.77299999663369
 50
113.868580061476
 51
125.508543432821
  0
ARC
  8
5
  6
CONTINUOUS
 62
5
 10
2.53277418524104
 20
7.42217308140985
 30
0.0
 40
0.0699999999974988
 50
21.1423615604553
 51
113.868580079502
  0
ARC
  8
5
  6
CONTINUOUS
 62
5
 10
2.78459970479401
 20
7.51955843207591
 30
0.0
 40
0.199999997821894
 50
201.14236149485
 51
202.416475553299
  0
ARC
  8
5
  6
CONTINUOUS
 62
5
 10
2.53500187408901
 20
7.41659765444102
 30
0.0
 40
0.0699999999999985
 50
293.871972157094
 51
22.4164756211442
  0
LINE
  8
9
  6
CONTINUOUS
 62
9
 10
4.30669861216029
 20
7.92612255286398
 30
0.0
 11
4.31071922344976
 21
8.07457186559032
 31
0.0
  0
LINE
  8
9
  6
CONTINUOUS
 62
9
 10
4.30669861216029
 20
7.92612255286398
 30
0.0
 11
4.31237483385554
 21
7.97554767812701
 31
0.0
  0
LINE
  8
9
  6
CONTINUOUS
 62
9
 10
4.07382666710474
 20
7.80524095685891
 30
0.0
 11
4.05448228323097
 21
7.73548736195796
 31
0.0
  0
LINE
  8
9
  6
CONTINUOUS
 62
9
 10
4.07382666710474
 20
7.80524095685891
 30
0.0
 11
4.05640384990498
 21
7.75864151543711
 31
0.0
  0
LINE
  8
9
  6
CONTINUOUS
 62
9
 10
3.85136487071786
 20
7.72960348700573
 30
0.0
 11
3.70327514879424
 21
7.71852205999251
 31
0.0
  0
LINE
  8
9
  6
CONTINUOUS
 62
9
 10
3.85136487071786
 20
7.72960348700573
 30
0.0
 11
3.8016188051151
 21
7.73022915228858
 31
0.0
  0
LINE
  8
9
  6
CONTINUOUS
 62
9
 10
3.42957618394103
 20
7.48378102740895
 30
0.0
 11
3.46145797843394
 21
7.3387399472145
 31
0.0
  0
LINE
  8
9
  6
CONTINUOUS
 62
9
 10
3.42957618394103
 20
7.48378102740895
 30
0.0
 11
3.43598131344407
 21
7.43444506875759
 31
0.0
  0
LINE
  8
9
  6
CONTINUOUS
 62
9
 10
1.33786498826219
 20
6.46512941687103
 30
0.0
 11
1.2820497174493
 21
6.51122089909004
 31
0.0
  0
LINE
  8
9
  6
CONTINUOUS
 62
9
 10
1.33786498826219
 20
6.46512941687103
 30
0.0
 11
1.30241087177467
 21
6.50003024958443
 31
0.0
  0
LINE
  8
9
  6
CONTINUOUS
 62
9
 10
1.62537583662849
 20
6.82406037358995
 30
0.0
 11
1.66532848521319
 21
6.8844222411897
 31
0.0
  0
LINE
  8
9
  6
CONTINUOUS
 62
9
 10
1.62537583662849
 20
6.82406037358995
 30
0.0
 11
1.65634593978928
 21
6.86299512940285
 31
0.0
  0
LINE
  8
9
  6
CONTINUOUS
 62
9
 10
1.82674697667732
 20
7.00514129954634
 30
0.0
 11
1.94034450467385
 21
7.10079152378621
 31
0.0
  0
LINE
  8
9
  6
CONTINUOUS
 62
9
 10
1.82674697667732
 20
7.00514129954634
 30
0.0
 11
1.86745107096337
 21
7.03374618039475
 31
0.0
  0
LINE
  8
9
  6
CONTINUOUS
 62
9
 10
3.53380517582162
 20
6.78134434487346
 30
0.0
 11
3.51057112899214
 21
6.9280193012634
 31
0.0
  0
LINE
  8
9
  6
CONTINUOUS
 62
9
 10
3.53380517582162
 20
6.78134434487346
 30
0.0
 11
3.53033379575446
 21
6.83097308675183
 31
0.0
  0
LINE
  8
9
  6
CONTINUOUS
 62
9
 10
3.52451975675693
 20
6.50847575185543
 30
0.0
 11
3.52992321743179
 21
6.38471615578714
 31
0.0
  0
LINE
  8
9
  6
CONTINUOUS
 62
9
 10
3.52451975675693
 20
6.50847575185543
 30
0.0
 11
3.52234969224226
 21
6.45877310283144
 31
0.0
  0
LINE
  8
9
  6
CONTINUOUS
 62
9
 10
3.4495197567647
 20
5.67197575185543
 30
0.0
 11
3.44577639544225
 21
5.7577128214203
 31
0.0
  0
LINE
  8
9
  6
CONTINUOUS
 62
9
 10
3.4495197567647
 20
5.67197575185543
 30
0.0
 11
3.45168982127267
 21
5.72167840087971
 31
0.0
  0
LINE
  8
9
  6
CONTINUOUS
 62
9
 10
3.50451975675693
 20
5.25847575185543
 30
0.0
 11
3.51099739937318
 21
5.11011334452056
 31
0.0
  0
LINE
  8
9
  6
CONTINUOUS
 62
9
 10
3.50451975675693
 20
5.25847575185543
 30
0.0
 11
3.50234969224226
 21
5.20877310283144
 31
0.0
  0
LINE
  8
9
  6
CONTINUOUS
 62
9
 10
4.44851975675692
 20
5.19847575185543
 30
0.0
 11
4.57227935282448
 21
5.20387921254696
 31
0.0
  0
LINE
  8
9
  6
CONTINUOUS
 62
9
 10
4.44851975675692
 20
5.19847575185543
 30
0.0
 11
4.49822240578082
 21
5.19630568733853
 31
0.0
  0
LINE
  8
9
  6
CONTINUOUS
 62
9
 10
4.57351975676469
 20
5.67197575185543
 30
0.0
 11
4.56977639544224
 21
5.7577128214203
 31
0.0
  0
LINE
  8
9
  6
CONTINUOUS
 62
9
 10
4.57351975676469
 20
5.67197575185543
 30
0.0
 11
4.57568982127266
 21
5.72167840087971
 31
0.0
  0
LINE
  8
9
  6
CONTINUOUS
 62
9
 10
4.62851975675692
 20
6.25847575185543
 30
0.0
 11
4.62311629607094
 21
6.38223534792323
 31
0.0
  0
LINE
  8
9
  6
CONTINUOUS
 62
9
 10
4.62851975675692
 20
6.25847575185543
 30
0.0
 11
4.63068982126713
 21
6.30817840087962
 31
0.0
  0
LINE
  8
9
  6
CONTINUOUS
 62
9
 10
4.86029374055661
 20
7.56682598193753
 30
0.0
 11
4.87375174882471
 21
7.63795017755701
 31
0.0
  0
LINE
  8
9
  6
CONTINUOUS
 62
9
 10
4.86029374055661
 20
7.56682598193753
 30
0.0
 11
4.87376843373869
 21
7.61471643133664
 31
0.0
  0
LINE
  8
9
  6
CONTINUOUS
 62
9
 10
5.25046790146754
 20
7.53894252235061
 30
0.0
 11
5.3156575269218
 21
7.50923389846573
 31
0.0
  0
LINE
  8
9
  6
CONTINUOUS
 62
9
 10
5.25046790146754
 20
7.53894252235061
 30
0.0
 11
5.29376809734776
 21
7.5144444502482
 31
0.0
  0
LINE
  8
9
  6
CONTINUOUS
 62
9
 10
5.50041753140706
 20
7.42957973376456
 30
0.0
 11
5.64005181945653
 21
7.37902650078211
 31
0.0
  0
LINE
  8
9
  6
CONTINUOUS
 62
9
 10
5.50041753140706
 20
7.42957973376456
 30
0.0
 11
5.54554213202949
 21
7.40863139448276
 31
0.0
  0
LINE
  8
9
  6
CONTINUOUS
 62
9
 10
6.35979872595529
 20
6.89040480970536
 30
0.0
 11
6.42430929281108
 21
6.86100565065262
 31
0.0
  0
LINE
  8
9
  6
CONTINUOUS
 62
9
 10
6.35979872595529
 20
6.89040480970536
 30
0.0
 11
6.40309892183551
 21
6.86590673760295
 31
0.0
  0
LINE
  8
9
  6
CONTINUOUS
 62
9
 10
6.57252786812849
 20
6.72239710976662
 30
0.0
 11
6.68645095422693
 21
6.62713487056414
 31
0.0
  0
LINE
  8
9
  6
CONTINUOUS
 62
9
 10
6.57252786812849
 20
6.72239710976662
 30
0.0
 11
6.60776636834567
 21
6.68727858755335
 31
0.0
  0
LINE
  8
9
  6
CONTINUOUS
 62
9
 10
7.20255090715008
 20
5.92748215335622
 30
0.0
 11
7.24621875263963
 21
5.87258414768616
 31
0.0
  0
LINE
  8
9
  6
CONTINUOUS
 62
9
 10
7.20255090715008
 20
5.92748215335622
 30
0.0
 11
7.23000977218156
 21
5.88599633371646
 31
0.0
  0
LINE
  8
9
  6
CONTINUOUS
 62
9
 10
7.3381113377967
 20
5.69117948542136
 30
0.0
 11
7.41258241643534
 21
5.56269827196796
 31
0.0
  0
LINE
  8
9
  6
CONTINUOUS
 62
9
 10
7.3381113377967
 20
5.69117948542136
 30
0.0
 11
7.3592134544177
 21
5.64612659234984
 31
0.0
  0
LINE
  8
9
  6
CONTINUOUS
 62
9
 10
7.65582569755306
 20
4.72797821851052
 30
0.0
 11
7.6810485086895
 21
4.66051674576774
 31
0.0
  0
LINE
  8
9
  6
CONTINUOUS
 62
9
 10
7.65582569755306
 20
4.72797821851052
 30
0.0
 11
7.66912080677706
 21
4.68003760346731
 31
0.0
  0
LINE
  8
9
  6
CONTINUOUS
 62
9
 10
7.7048272751611
 20
4.46030692537605
 30
0.0
 11
7.7308640351795
 21
4.31410346819461
 31
0.0
  0
LINE
  8
9
  6
CONTINUOUS
 62
9
 10
7.7048272751611
 20
4.46030692537605
 30
0.0
 11
7.70924778148715
 21
4.41075370526049
 31
0.0
  0
LINE
  8
9
  6
CONTINUOUS
 62
9
 10
7.69395745651296
 20
3.44300068698619
 30
0.0
 11
7.67461307263918
 21
3.37324709208524
 31
0.0
  0
LINE
  8
9
  6
CONTINUOUS
 62
9
 10
7.69395745651296
 20
3.44300068698619
 30
0.0
 11
7.6765346393132
 21
3.39640124556439
 31
0.0
  0
LINE
  8
9
  6
CONTINUOUS
 62
9
 10
7.62844432602466
 20
3.17824082611645
 30
0.0
 11
7.60290634990327
 21
3.03194941987642
 31
0.0
  0
LINE
  8
9
  6
CONTINUOUS
 62
9
 10
7.62844432602466
 20
3.17824082611645
 30
0.0
 11
7.61565004375323
 21
3.13016412863046
 31
0.0
  0
LINE
  8
9
  6
CONTINUOUS
 62
9
 10
7.26825584791171
 20
2.22753681333095
 30
0.0
 11
7.22953884825685
 21
2.16904180761272
 31
0.0
  0
LINE
  8
9
  6
CONTINUOUS
 62
9
 10
7.26825584791171
 20
2.22753681333095
 30
0.0
 11
7.23728574475395
 21
2.18860205751564
 31
0.0
  0
LINE
  8
9
  6
CONTINUOUS
 62
9
 10
7.11817540134553
 20
1.9996172804937
 30
0.0
 11
7.04414294590499
 21
1.8708828278188
 31
0.0
  0
LINE
  8
9
  6
CONTINUOUS
 62
9
 10
7.11817540134553
 20
1.9996172804937
 30
0.0
 11
7.08970950974206
 21
1.95881586489057
 31
0.0
  0
LINE
  8
9
  6
CONTINUOUS
 62
9
 10
6.4590727571306
 20
1.22175967456618
 30
0.0
 11
6.39736997802489
 21
1.18684992177855
 31
0.0
  0
LINE
  8
9
  6
CONTINUOUS
 62
9
 10
6.4590727571306
 20
1.22175967456618
 30
0.0
 11
6.41380218391242
 21
1.20112868572665
 31
0.0
  0
LINE
  8
9
  6
CONTINUOUS
 62
9
 10
6.2355664642073
 20
1.06659568274087
 30
0.0
 11
6.12196893617641
 21
0.970945458541789
 31
0.0
  0
LINE
  8
9
  6
CONTINUOUS
 62
9
 10
6.2355664642073
 20
1.06659568274087
 30
0.0
 11
6.19486236991097
 21
1.03799080190707
 31
0.0
  0
LINE
  8
9
  6
CONTINUOUS
 62
9
 10
5.34981498302674
 20
0.563598265149959
 30
0.0
 11
5.28034444600392
 21
0.549464324622863
 31
0.0
  0
LINE
  8
9
  6
CONTINUOUS
 62
9
 10
5.34981498302674
 20
0.563598265149959
 30
0.0
 11
5.30038478320899
 21
0.557966405246022
 31
0.0
  0
LINE
  8
9
  6
CONTINUOUS
 62
9
 10
5.08707317834944
 20
0.491712207479198
 30
0.0
 11
4.94761211612949
 21
0.44068304044165
 31
0.0
  0
LINE
  8
9
  6
CONTINUOUS
 62
9
 10
5.08707317834944
 20
0.491712207479198
 30
0.0
 11
5.03904039586079
 21
0.478754032206486
 31
0.0
  0
LINE
  8
9
  6
CONTINUOUS
 62
9
 10
4.08314626324448
 20
0.347342867050858
 30
0.0
 11
4.01367572622166
 21
0.333208926523762
 31
0.0
  0
LINE
  8
9
  6
CONTINUOUS
 62
9
 10
4.08314626324448
 20
0.347342867050858
 30
0.0
 11
4.03371606342673
 21
0.341711007146922
 31
0.0
  0
LINE
  8
9
  6
CONTINUOUS
 62
9
 10
3.81122078400059
 20
0.344306286165829
 30
0.0
 11
3.66271724992161
 21
0.344053046917813
 31
0.0
  0
LINE
  8
9
  6
CONTINUOUS
 62
9
 10
3.81122078400059
 20
0.344306286165829
 30
0.0
 11
3.76165277577541
 21
0.348557763625364
 31
0.0
  0
LINE
  8
9
  6
CONTINUOUS
 62
9
 10
2.80586030375655
 20
0.523027442960982
 30
0.0
 11
2.7454984361611
 21
0.562980091552179
 31
0.0
  0
LINE
  8
9
  6
CONTINUOUS
 62
9
 10
2.80586030375655
 20
0.523027442960982
 30
0.0
 11
2.76692554794699
 21
0.553997546125965
 31
0.0
  0
LINE
  8
9
  6
CONTINUOUS
 62
9
 10
2.56189590948579
 20
0.642157248460974
 30
0.0
 11
2.42226162142723
 21
0.692710481418322
 31
0.0
  0
LINE
  8
9
  6
CONTINUOUS
 62
9
 10
2.56189590948579
 20
0.642157248460974
 30
0.0
 11
2.51677130885959
 21
0.663105587734661
 31
0.0
  0
LINE
  8
9
  6
CONTINUOUS
 62
9
 10
1.68037956209918
 20
1.15541523843547
 30
0.0
 11
1.63531806196972
 21
1.21206530811896
 31
0.0
  0
LINE
  8
9
  6
CONTINUOUS
 62
9
 10
1.68037956209918
 20
1.15541523843547
 30
0.0
 11
1.65292069707017
 21
1.19690105807687
 31
0.0
  0
LINE
  8
9
  6
CONTINUOUS
 62
9
 10
1.48978557275383
 20
1.3493398724656
 30
0.0
 11
1.37586248663826
 21
1.4446021116476
 31
0.0
  0
LINE
  8
9
  6
CONTINUOUS
 62
9
 10
1.48978557275383
 20
1.3493398724656
 30
0.0
 11
1.45454707253033
 21
1.38445839467254
 31
0.0
  0
LINE
  8
9
  6
CONTINUOUS
 62
9
 10
0.839412450922551
 20
2.13388594379559
 30
0.0
 11
0.814062251853891
 21
2.20168813104823
 31
0.0
  0
LINE
  8
9
  6
CONTINUOUS
 62
9
 10
0.839412450922551
 20
2.13388594379559
 30
0.0
 11
0.826117341700541
 21
2.18182655883936
 31
0.0
  0
LINE
  8
9
  6
CONTINUOUS
 62
9
 10
0.724202103077995
 20
2.38055749682075
 30
0.0
 11
0.649731024416307
 21
2.50903871026079
 31
0.0
  0
LINE
  8
9
  6
CONTINUOUS
 62
9
 10
0.724202103077995
 20
2.38055749682075
 30
0.0
 11
0.703099986448918
 21
2.42561038988848
 31
0.0
  0
LINE
  8
9
  6
CONTINUOUS
 62
9
 10
0.406487743345926
 20
3.34375876374467
 30
0.0
 11
0.381137544277272
 21
3.41156095099731
 31
0.0
  0
LINE
  8
9
  6
CONTINUOUS
 62
9
 10
0.406487743345926
 20
3.34375876374467
 30
0.0
 11
0.393192634123921
 21
3.39169937878844
 31
0.0
  0
LINE
  8
9
  6
CONTINUOUS
 62
9
 10
0.357486165709855
 20
3.61143005687795
 30
0.0
 11
0.331449405665201
 21
3.75763351405472
 31
0.0
  0
LINE
  8
9
  6
CONTINUOUS
 62
9
 10
0.357486165709855
 20
3.61143005687795
 30
0.0
 11
0.353065659374906
 21
3.66098327699272
 31
0.0
  0
LINE
  8
9
  6
CONTINUOUS
 62
9
 10
0.390914224977285
 20
4.62516342096277
 30
0.0
 11
0.387756781079221
 21
4.6974807752914
 31
0.0
  0
LINE
  8
9
  6
CONTINUOUS
 62
9
 10
0.390914224977285
 20
4.62516342096277
 30
0.0
 11
0.39308428948526
 21
4.67486606998705
 31
0.0
  0
LINE
  8
9
  6
CONTINUOUS
 62
9
 10
0.43386911484681
 20
4.89349615615001
 30
0.0
 11
0.459407090915624
 21
5.03978756239922
 31
0.0
  0
LINE
  8
9
  6
CONTINUOUS
 62
9
 10
0.43386911484681
 20
4.89349615615001
 30
0.0
 11
0.44666339710096
 21
4.9415728536406
 31
0.0
  0
LINE
  8
9
  6
CONTINUOUS
 62
9
 10
0.814407675820631
 20
5.83383128383088
 30
0.0
 11
0.833752059701071
 21
5.90358487872999
 31
0.0
  0
LINE
  8
9
  6
CONTINUOUS
 62
9
 10
0.814407675820631
 20
5.83383128383088
 30
0.0
 11
0.831830493024841
 21
5.88043072525102
 31
0.0
  0
LINE
  8
9
  6
CONTINUOUS
 62
9
 10
2.7151725810524
 20
7.49700019248049
 30
0.0
 11
2.78297476830515
 21
7.52235039154884
 31
0.0
  0
LINE
  8
9
  6
CONTINUOUS
 62
9
 10
2.7151725810524
 20
7.49700019248049
 30
0.0
 11
2.76311319609623
 21
7.51029530170228
 31
0.0
  0
LINE
  8
9
  6
CONTINUOUS
 62
9
 10
3.38451975675693
 20
3.25847575185543
 30
0.0
 11
3.39099739937318
 21
3.11011334452056
 31
0.0
  0
LINE
  8
9
  6
CONTINUOUS
 62
9
 10
3.38451975675693
 20
3.25847575185543
 30
0.0
 11
3.38234969224226
 21
3.20877310283144
 31
0.0
  0
LINE
  8
9
  6
CONTINUOUS
 62
9
 10
3.4495197567647
 20
2.17197575185543
 30
0.0
 11
3.44577639544225
 21
2.2577128214203
 31
0.0
  0
LINE
  8
9
  6
CONTINUOUS
 62
9
 10
3.4495197567647
 20
2.17197575185543
 30
0.0
 11
3.45168982127267
 21
2.22167840087971
 31
0.0
  0
LINE
  8
9
  6
CONTINUOUS
 62
9
 10
3.50451975675693
 20
1.75847575185543
 30
0.0
 11
3.50992321743179
 21
1.63471615578715
 31
0.0
  0
LINE
  8
9
  6
CONTINUOUS
 62
9
 10
3.50451975675693
 20
1.75847575185543
 30
0.0
 11
3.50234969224226
 21
1.70877310283144
 31
0.0
  0
LINE
  8
9
  6
CONTINUOUS
 62
9
 10
4.44851975675692
 20
1.63847575185543
 30
0.0
 11
4.57227935282448
 21
1.64387921254696
 31
0.0
  0
LINE
  8
9
  6
CONTINUOUS
 62
9
 10
4.44851975675692
 20
1.63847575185543
 30
0.0
 11
4.49822240578082
 21
1.63630568733853
 31
0.0
  0
LINE
  8
9
  6
CONTINUOUS
 62
9
 10
4.57351975676469
 20
2.17197575185543
 30
0.0
 11
4.56977639544224
 21
2.25771282142031
 31
0.0
  0
LINE
  8
9
  6
CONTINUOUS
 62
9
 10
4.57351975676469
 20
2.17197575185543
 30
0.0
 11
4.57568982127266
 21
2.22167840087971
 31
0.0
  0
LINE
  8
9
  6
CONTINUOUS
 62
9
 10
4.57851975675692
 20
2.75847575185543
 30
0.0
 11
4.57204211412734
 21
2.90683815918972
 31
0.0
  0
LINE
  8
9
  6
CONTINUOUS
 62
9
 10
4.57851975675692
 20
2.75847575185543
 30
0.0
 11
4.58068982126713
 21
2.80817840087962
 31
0.0
  0
LINE
  8
0
  6
CONTINUOUS
 62
0
 10
4.57204211412734
 20
2.90683815918972
 30
0.0
 11
0.131156720232257
 21
8.07457186559032
 31
0.0
  0
LINE
  8
0
  6
CONTINUOUS
 62
0
 10
4.56977639544224
 20
2.25771282142031
 30
0.0
 11
4.58068982126713
 21
2.80817840087962
 31
0.0
  0
LINE
  8
0
  6
CONTINUOUS
 62
0
 10
4.57227935282448
 20
1.64387921254696
 30
0.0
 11
4.57568982127266
 21
2.22167840087971
 31
0.0
  0
LINE
  8
0
  6
CONTINUOUS
 62
0
 10
3.50992321743179
 20
1.63471615578715
 30
0.0
 11
4.49822240578082
 21
1.63630568733853
 31
0.0
  0
LINE
  8
0
  6
CONTINUOUS
 62
0
 10
3.44577639544225
 20
2.2577128214203
 30
0.0
 11
3.50234969224226
 21
1.70877310283144
 31
0.0
  0
LINE
  8
0
  6
CONTINUOUS
 62
0
 10
3.39099739937318
 20
3.11011334452056
 30
0.0
 11
3.45168982127267
 21
2.22167840087971
 31
0.0
  0
LINE
  8
0
  6
CONTINUOUS
 62
0
 10
2.78297476830515
 20
7.52235039154884
 30
0.0
 11
3.38234969224226
 21
3.20877310283144
 31
0.0
  0
LINE
  8
0
  6
CONTINUOUS
 62
0
 10
0.833752059701071
 20
5.90358487872999
 30
0.0
 11
2.76311319609623
 21
7.51029530170228
 31
0.0
  0
LINE
  8
0
  6
CONTINUOUS
 62
0
 10
0.459407090915624
 20
5.03978756239922
 30
0.0
 11
0.831830493024841
 21
5.88043072525102
 31
0.0
  0
LINE
  8
0
  6
CONTINUOUS
 62
0
 10
0.387756781079221
 20
4.6974807752914
 30
0.0
 11
0.44666339710096
 21
4.9415728536406
 31
0.0
  0
LINE
  8
0
  6
CONTINUOUS
 62
0
 10
0.331449405665201
 20
3.75763351405472
 30
0.0
 11
0.39308428948526
 21
4.67486606998705
 31
0.0
  0
LINE
  8
0
  6
CONTINUOUS
 62
0
 10
0.381137544277272
 20
3.41156095099731
 30
0.0
 11
0.353065659374906
 21
3.66098327699272
 31
0.0
  0
LINE
  8
0
  6
CONTINUOUS
 62
0
 10
0.649731024416307
 20
2.50903871026079
 30
0.0
 11
0.393192634123921
 21
3.39169937878844
 31
0.0
  0
LINE
  8
0
  6
CONTINUOUS
 62
0
 10
0.814062251853891
 20
2.20168813104823
 30
0.0
 11
0.703099986448918
 21
2.42561038988848
 31
0.0
  0
LINE
  8
0
  6
CONTINUOUS
 62
0
 10
1.37586248663826
 20
1.4446021116476
 30
0.0
 11
0.826117341700541
 21
2.18182655883936
 31
0.0
  0
LINE
  8
0
  6
CONTINUOUS
 62
0
 10
1.63531806196972
 20
1.21206530811896
 30
0.0
 11
1.45454707253033
 21
1.38445839467254
 31
0.0
  0
LINE
  8
0
  6
CONTINUOUS
 62
0
 10
2.42226162142723
 20
0.692710481418322
 30
0.0
 11
1.65292069707017
 21
1.19690105807687
 31
0.0
  0
LINE
  8
0
  6
CONTINUOUS
 62
0
 10
2.7454984361611
 20
0.562980091552179
 30
0.0
 11
2.51677130885959
 21
0.663105587734661
 31
0.0
  0
LINE
  8
0
  6
CONTINUOUS
 62
0
 10
3.66271724992161
 20
0.344053046917813
 30
0.0
 11
2.76692554794699
 21
0.553997546125965
 31
0.0
  0
LINE
  8
0
  6
CONTINUOUS
 62
0
 10
4.01367572622166
 20
0.333208926523762
 30
0.0
 11
3.76165277577541
 21
0.348557763625364
 31
0.0
  0
LINE
  8
0
  6
CONTINUOUS
 62
0
 10
4.94761211612949
 20
0.44068304044165
 30
0.0
 11
4.03371606342673
 21
0.341711007146922
 31
0.0
  0
LINE
  8
0
  6
CONTINUOUS
 62
0
 10
5.28034444600392
 20
0.549464324622863
 30
0.0
 11
5.03904039586079
 21
0.478754032206486
 31
0.0
  0
LINE
  8
0
  6
CONTINUOUS
 62
0
 10
6.12196893617641
 20
0.970945458541789
 30
0.0
 11
5.30038478320899
 21
0.557966405246022
 31
0.0
  0
LINE
  8
0
  6
CONTINUOUS
 62
0
 10
6.39736997802489
 20
1.18684992177855
 30
0.0
 11
6.19486236991097
 21
1.03799080190707
 31
0.0
  0
LINE
  8
0
  6
CONTINUOUS
 62
0
 10
7.04414294590499
 20
1.8708828278188
 30
0.0
 11
6.41380218391242
 21
1.20112868572665
 31
0.0
  0
LINE
  8
0
  6
CONTINUOUS
 62
0
 10
7.22953884825685
 20
2.16904180761272
 30
0.0
 11
7.08970950974206
 21
1.95881586489057
 31
0.0
  0
LINE
  8
0
  6
CONTINUOUS
 62
0
 10
7.60290634990327
 20
3.03194941987642
 30
0.0
 11
7.23728574475395
 21
2.18860205751564
 31
0.0
  0
LINE
  8
0
  6
CONTINUOUS
 62
0
 10
7.67461307263918
 20
3.37324709208524
 30
0.0
 11
7.61565004375323
 21
3.13016412863046
 31
0.0
  0
LINE
  8
0
  6
CONTINUOUS
 62
0
 10
7.7308640351795
 20
4.31410346819461
 30
0.0
 11
7.6765346393132
 21
3.39640124556439
 31
0.0
  0
LINE
  8
0
  6
CONTINUOUS
 62
0
 10
7.6810485086895
 20
4.66051674576774
 30
0.0
 11
7.70924778148715
 21
4.41075370526049
 31
0.0
  0
LINE
  8
0
  6
CONTINUOUS
 62
0
 10
7.41258241643534
 20
5.56269827196796
 30
0.0
 11
7.66912080677706
 21
4.68003760346731
 31
0.0
  0
LINE
  8
0
  6
CONTINUOUS
 62
0
 10
7.24621875263963
 20
5.87258414768616
 30
0.0
 11
7.3592134544177
 21
5.64612659234984
 31
0.0
  0
LINE
  8
0
  6
CONTINUOUS
 62
0
 10
6.68645095422693
 20
6.62713487056414
 30
0.0
 11
7.23000977218156
 21
5.88599633371646
 31
0.0
  0
LINE
  8
0
  6
CONTINUOUS
 62
0
 10
6.42430929281108
 20
6.86100565065262
 30
0.0
 11
6.60776636834567
 21
6.68727858755335
 31
0.0
  0
LINE
  8
0
  6
CONTINUOUS
 62
0
 10
5.64005181945653
 20
7.37902650078211
 30
0.0
 11
6.40309892183551
 21
6.86590673760295
 31
0.0
  0
LINE
  8
0
  6
CONTINUOUS
 62
0
 10
5.3156575269218
 20
7.50923389846573
 30
0.0
 11
5.54554213202949
 21
7.40863139448276
 31
0.0
  0
LINE
  8
0
  6
CONTINUOUS
 62
0
 10
4.87375174882471
 20
7.63795017755701
 30
0.0
 11
5.29376809734776
 21
7.5144444502482
 31
0.0
  0
LINE
  8
0
  6
CONTINUOUS
 62
0
 10
4.62311629607094
 20
6.38223534792323
 30
0.0
 11
4.87376843373869
 21
7.61471643133664
 31
0.0
  0
LINE
  8
0
  6
CONTINUOUS
 62
0
 10
4.56977639544224
 20
5.7577128214203
 30
0.0
 11
4.63068982126713
 21
6.30817840087962
 31
0.0
  0
LINE
  8
0
  6
CONTINUOUS
 62
0
 10
4.57227935282448
 20
5.20387921254696
 30
0.0
 11
4.57568982127266
 21
5.72167840087971
 31
0.0
  0
LINE
  8
0
  6
CONTINUOUS
 62
0
 10
3.51099739937318
 20
5.11011334452056
 30
0.0
 11
4.49822240578082
 21
5.19630568733853
 31
0.0
  0
LINE
  8
0
  6
CONTINUOUS
 62
0
 10
3.44577639544225
 20
5.7577128214203
 30
0.0
 11
3.50234969224226
 21
5.20877310283144
 31
0.0
  0
LINE
  8
0
  6
CONTINUOUS
 62
0
 10
3.52992321743179
 20
6.38471615578714
 30
0.0
 11
3.45168982127267
 21
5.72167840087971
 31
0.0
  0
LINE
  8
0
  6
CONTINUOUS
 62
0
 10
3.51057112899214
 20
6.9280193012634
 30
0.0
 11
3.52234969224226
 21
6.45877310283144
 31
0.0
  0
LINE
  8
0
  6
CONTINUOUS
 62
0
 10
1.94034450467385
 20
7.10079152378621
 30
0.0
 11
3.53033379575446
 21
6.83097308675183
 31
0.0
  0
LINE
  8
0
  6
CONTINUOUS
 62
0
 10
1.66532848521319
 20
6.8844222411897
 30
0.0
 11
1.86745107096337
 21
7.03374618039475
 31
0.0
  0
LINE
  8
0
  6
CONTINUOUS
 62
0
 10
1.2820497174493
 20
6.51122089909004
 30
0.0
 11
1.65634593978928
 21
6.86299512940285
 31
0.0
  0
LINE
  8
0
  6
CONTINUOUS
 62
0
 10
3.46145797843394
 20
7.3387399472145
 30
0.0
 11
1.30241087177467
 21
6.50003024958443
 31
0.0
  0
LINE
  8
0
  6
CONTINUOUS
 62
0
 10
3.70327514879424
 20
7.71852205999251
 30
0.0
 11
3.43598131344407
 21
7.43444506875759
 31
0.0
  0
LINE
  8
0
  6
CONTINUOUS
 62
0
 10
4.05448228323097
 20
7.73548736195796
 30
0.0
 11
3.8016188051151
 21
7.73022915228858
 31
0.0
  0
LINE
  8
0
  6
CONTINUOUS
 62
0
 10
4.31071922344976
 20
8.07457186559032
 30
0.0
 11
4.05640384990498
 21
7.75864151543711
 31
0.0
  0
ARC
  8
5
  6
CONTINUOUS
 62
5
 10
4.05126842654154
 20
7.73581383117035
 30
0.0
 40
0.0729999999909767
 50
9.00261727586675E-9
 51
72.0000000295822
  0
ARC
  8
5
  6
CONTINUOUS
 62
5
 10
4.05126842329839
 20
7.73581383107736
 30
0.0
 40
0.199999996769518
 50
181.779418585383
 51
182.416475619754
  0
ARC
  8
5
  6
CONTINUOUS
 62
5
 10
4.05126842329728
 20
7.7358138311132
 30
0.0
 40
0.199999996769524
 50
181.142361561286
 51
181.779418595656
  0
ARC
  8
5
  6
CONTINUOUS
 62
5
 10
4.03115672127023
 20
4.03586849188229
 30
0.0
 40
3.49999999936224
 50
359.999999997964
 51
99.8971531905943
  0
ARC
  8
5
  6
CONTINUOUS
 62
5
 10
4.03115671376802
 20
4.03586849737874
 30
0.0
 40
3.62699999085342
 50
133.871972155713
 51
137.950574982781
  0
ARC
  8
5
  6
CONTINUOUS
 62
5
 10
1.66828416004176
 20
6.88311861417816
 30
0.0
 40
0.07299999999666
 50
234.000000002057
 51
5.14419097514291E-9
  0
ARC
  8
5
  6
CONTINUOUS
 62
5
 10
1.66828416002556
 20
6.88311861417815
 30
0.0
 40
0.0729999999871344
 50
180.000000005144
 51
234.000000012347
  0
ARC
  8
5
  6
CONTINUOUS
 62
5
 10
1.66828416260376
 20
6.88311861614852
 30
0.0
 40
0.199999996769283
 50
37.5977049261972
 51
38.2347619502775
  0
ARC
  8
5
  6
CONTINUOUS
 62
5
 10
1.66828416262573
 20
6.88311861612005
 30
0.0
 40
0.199999996769248
 50
36.9606478918389
 51
37.5977049364987
  0
ARC
  8
5
  6
CONTINUOUS
 62
5
 10
4.0115197559769
 20
2.58924498451173
 30
0.0
 40
4.21923076724159
 50
96.5011494191969
 51
118.068536950492
  0
ARC
  8
5
  6
CONTINUOUS
 62
5
 10
4.01151975788874
 20
2.58924498708819
 30
0.0
 40
4.21923076489819
 50
61.9314630578409
 51
96.5011494489531
  0
LINE
  8
5
  6
CONTINUOUS
 62
5
 10
3.52451975675693
 20
6.50847575185543
 30
0.0
 11
3.57451975675693
 21
6.50847575185543
 31
0.0
  0
LINE
  8
5
  6
CONTINUOUS
 62
5
 10
3.32451975675693
 20
6.50847575185543
 30
0.0
 11
3.52451975675693
 21
6.50847575185543
 31
0.0
  0
ARC
  8
5
  6
CONTINUOUS
 62
5
 10
3.4495197567647
 20
5.75847575184766
 30
0.0
 40
0.0864999999922321
 50
269.999999999999
 51
5.14391744744031E-9
  0
ARC
  8
5
  6
CONTINUOUS
 62
5
 10
3.44951975674916
 20
5.75847575184766
 30
0.0
 40
0.0864999999922321
 50
180.000000005143
 51
270.000000010288
  0
LINE
  8
5
  6
CONTINUOUS
 62
5
 10
3.50451975675693
 20
5.25847575185543
 30
0.0
 11
3.57451975675693
 21
5.25847575185543
 31
0.0
  0
LINE
  8
5
  6
CONTINUOUS
 62
5
 10
3.32451975675693
 20
5.25847575185543
 30
0.0
 11
3.50451975675693
 21
5.25847575185543
 31
0.0
  0
LINE
  8
5
  6
CONTINUOUS
 62
5
 10
4.44851975675692
 20
5.19847575185543
 30
0.0
 11
4.44851975675692
 21
5.25847575185543
 31
0.0
  0
LINE
  8
5
  6
CONTINUOUS
 62
5
 10
4.44851975675692
 20
5.19847575185543
 30
0.0
 11
4.44851975675692
 21
4.75847575185543
 31
0.0
  0
ARC
  8
5
  6
CONTINUOUS
 62
5
 10
4.57351975676469
 20
5.75847575184766
 30
0.0
 40
0.0864999999922332
 50
269.999999999998
 51
5.14377114192496E-9
  0
ARC
  8
5
  6
CONTINUOUS
 62
5
 10
4.57351975674915
 20
5.75847575184766
 30
0.0
 40
0.0864999999922327
 50
180.000000005143
 51
270.000000010288
  0
LINE
  8
5
  6
CONTINUOUS
 62
5
 10
4.62851975675692
 20
6.25847575185543
 30
0.0
 11
4.44851975675692
 21
6.25847575185543
 31
0.0
  0
LINE
  8
5
  6
CONTINUOUS
 62
5
 10
4.69851975675692
 20
6.25847575185543
 30
0.0
 11
4.62851975675692
 21
6.25847575185543
 31
0.0
  0
ARC
  8
5
  6
CONTINUOUS
 62
5
 10
4.03115672417317
 20
4.0358685034121
 30
0.0
 40
3.62699998719214
 50
73.8719721659763
 51
76.7852599054758
  0
ARC
  8
5
  6
CONTINUOUS
 62
5
 10
5.31551137771119
 20
7.5058012158864
 30
0.0
 40
0.0729999999726911
 50
153.000000014146
 51
180.000000014146
  0
ARC
  8
5
  6
CONTINUOUS
 62
5
 10
5.31551138072374
 20
7.50580121464189
 30
0.0
 40
0.199999996769137
 50
337.597704905551
 51
338.234761939921
  0
ARC
  8
5
  6
CONTINUOUS
 62
5
 10
5.31551138070997
 20
7.50580121460863
 30
0.0
 40
0.199999996769191
 50
336.960647881496
 51
337.597704915866
  0
ARC
  8
5
  6
CONTINUOUS
 62
5
 10
6.42484220219895
 20
6.85726350324115
 30
0.0
 40
0.0729999999726959
 50
153.000000014147
 51
180.000000014148
  0
ARC
  8
5
  6
CONTINUOUS
 62
5
 10
6.42484220460734
 20
6.85726350105155
 30
0.0
 40
0.199999996769747
 50
317.597704905471
 51
318.234761939841
  0
ARC
  8
5
  6
CONTINUOUS
 62
5
 10
6.42484220458314
 20
6.85726350102484
 30
0.0
 40
0.199999996769613
 50
316.960647881426
 51
317.597704915796
  0
ARC
  8
5
  6
CONTINUOUS
 62
5
 10
7.24545923056385
 20
5.86842391278015
 30
0.0
 40
0.0729999999871354
 50
126.000000014147
 51
180.000000014147
  0
ARC
  8
5
  6
CONTINUOUS
 62
5
 10
7.24545923206659
 20
5.86842390990794
 30
0.0
 40
0.199999996769503
 50
297.597704905674
 51
298.234761940044
  0
ARC
  8
5
  6
CONTINUOUS
 62
5
 10
7.24545923203482
 20
5.86842390989144
 30
0.0
 40
0.199999996769596
 50
296.960647881556
 51
297.597704915927
  0
ARC
  8
5
  6
CONTINUOUS
 62
5
 10
7.67838393814432
 20
4.65855109283108
 30
0.0
 40
0.0729999999909781
 50
108.000000014148
 51
180.000000014147
  0
ARC
  8
5
  6
CONTINUOUS
 62
5
 10
7.6783839385733
 20
4.65855108962272
 30
0.0
 40
0.199999996769389
 50
277.597704905534
 51
278.234761939904
  0
ARC
  8
5
  6
CONTINUOUS
 62
5
 10
7.67838393853772
 20
4.658551089618
 30
0.0
 40
0.199999996769419
 50
276.960647881451
 51
277.59770491582
  0
ARC
  8
5
  6
CONTINUOUS
 62
5
 10
7.67139921594976
 20
3.37357356129763
 30
0.0
 40
0.0729999999909778
 50
9.0008234430264E-9
 51
72.0000000295815
  0
ARC
  8
5
  6
CONTINUOUS
 62
5
 10
7.67139921523321
 20
3.37357355814295
 30
0.0
 40
0.199999996769645
 50
257.597704905568
 51
258.234761939937
  0
ARC
  8
5
  6
CONTINUOUS
 62
5
 10
7.67139921519817
 20
3.37357355815066
 30
0.0
 40
0.199999996769646
 50
256.96064788148
 51
257.597704915849
  0
ARC
  8
5
  6
CONTINUOUS
 62
5
 10
7.22534752452181
 20
2.16847857273754
 30
0.0
 40
0.0729999999871303
 50
9.00221016486752E-9
 51
54.0000000295824
  0
ARC
  8
5
  6
CONTINUOUS
 62
5
 10
7.22534752276524
 20
2.16847857001318
 30
0.0
 40
0.199999996769454
 50
237.597704905585
 51
238.234761939955
  0
ARC
  8
5
  6
CONTINUOUS
 62
5
 10
7.22534752273495
 20
2.16847857003249
 30
0.0
 40
0.199999996769533
 50
236.960647881504
 51
237.597704915874
  0
ARC
  8
5
  6
CONTINUOUS
 62
5
 10
6.39402928090034
 20
1.18861836807569
 30
0.0
 40
0.0729999999726958
 50
9.00040838064047E-9
 51
27.0000000295805
  0
ARC
  8
5
  6
CONTINUOUS
 62
5
 10
6.39402927830275
 20
1.18861836611028
 30
0.0
 40
0.199999996769308
 50
217.597704905634
 51
218.234761940004
  0
ARC
  8
5
  6
CONTINUOUS
 62
5
 10
6.39402927828087
 20
1.18861836613868
 30
0.0
 40
0.199999996769299
 50
216.960647881537
 51
217.597704915907
  0
ARC
  8
5
  6
CONTINUOUS
 62
5
 10
5.27771373424941
 20
0.552178549190779
 30
0.0
 40
0.0729999999167091
 50
8.99928325942191E-9
 51
9.00000002957864
  0
ARC
  8
5
  6
CONTINUOUS
 62
5
 10
5.27771373107946
 20
0.552178548220944
 30
0.0
 40
0.199999996769763
 50
197.597704905512
 51
198.234761939882
  0
ARC
  8
5
  6
CONTINUOUS
 62
5
 10
5.27771373106867
 20
0.552178548255108
 30
0.0
 40
0.199999996769806
 50
196.960647881405
 51
197.597704915776
  0
ARC
  8
5
  6
CONTINUOUS
 62
5
 10
4.01104501446714
 20
0.335923151091677
 30
0.0
 40
0.0729999999167195
 50
8.99853105823974E-9
 51
9.000000029578
  0
ARC
  8
5
  6
CONTINUOUS
 62
5
 10
4.01104501115013
 20
0.335923151198573
 30
0.0
 40
0.199999996769484
 50
177.597704915858
 51
178.234761939937
  0
ARC
  8
5
  6
CONTINUOUS
 62
5
 10
4.01104501115142
 20
0.335923151234412
 30
0.0
 40
0.19999999676926
 50
176.960647881472
 51
177.597704926131
  0
ARC
  8
5
  6
CONTINUOUS
 62
5
 10
2.74680206318658
 20
0.56593576637072
 30
0.0
 40
0.072999999979826
 50
323.999999995881
 51
5.14355486420662E-9
  0
ARC
  8
5
  6
CONTINUOUS
 62
5
 10
2.74680206316428
 20
0.565935766370719
 30
0.0
 40
0.0729999999978702
 50
180
 51
324.000000006172
  0
ARC
  8
5
  6
CONTINUOUS
 62
5
 10
2.74680206016924
 20
0.565935767583729
 30
0.0
 40
0.199999996769221
 50
157.597704915878
 51
158.234761939959
  0
ARC
  8
5
  6
CONTINUOUS
 62
5
 10
2.74680206018287
 20
0.565935767616975
 30
0.0
 40
0.199999996769158
 50
156.960647881513
 51
157.597704926173
  0
ARC
  8
5
  6
CONTINUOUS
 62
5
 10
1.63747123869151
 20
1.21447347901597
 30
0.0
 40
0.0729999999871356
 50
305.99999999794
 51
5.14405421129161E-9
  0
ARC
  8
5
  6
CONTINUOUS
 62
5
 10
1.63747123867531
 20
1.21447347901597
 30
0.0
 40
0.0729999999966604
 50
180.000000005143
 51
306.000000008231
  0
ARC
  8
5
  6
CONTINUOUS
 62
5
 10
1.63747123627494
 20
1.21447348118084
 30
0.0
 40
0.199999996769613
 50
137.597704915789
 51
138.23476193987
  0
ARC
  8
5
  6
CONTINUOUS
 62
5
 10
1.63747123629929
 20
1.21447348120737
 30
0.0
 40
0.199999996769704
 50
136.960647881448
 51
137.597704926108
  0
ARC
  8
5
  6
CONTINUOUS
 62
5
 10
0.816854210337212
 20
2.20331306947697
 30
0.0
 40
0.0729999999909775
 50
287.999999998969
 51
5.14337675314446E-9
  0
ARC
  8
5
  6
CONTINUOUS
 62
5
 10
0.816854210323431
 20
2.20331306947697
 30
0.0
 40
0.0729999999952373
 50
180.000000005144
 51
288.00000000926
  0
ARC
  8
5
  6
CONTINUOUS
 62
5
 10
0.816854208808013
 20
2.20331307233407
 30
0.0
 40
0.199999996769548
 50
117.597704915926
 51
118.234761940006
  0
ARC
  8
5
  6
CONTINUOUS
 62
5
 10
0.816854208839832
 20
2.20331307235066
 30
0.0
 40
0.199999996769581
 50
116.960647881548
 51
117.597704926208
  0
ARC
  8
5
  6
CONTINUOUS
 62
5
 10
0.383929502760593
 20
3.41318588942604
 30
0.0
 40
0.0729999999909729
 50
287.999999998968
 51
5.1433703920351E-9
  0
ARC
  8
5
  6
CONTINUOUS
 62
5
 10
0.383929502746808
 20
3.41318588942603
 30
0.0
 40
0.0729999999952326
 50
180.000000005143
 51
288.000000009259
  0
ARC
  8
5
  6
CONTINUOUS
 62
5
 10
0.383929502297716
 20
3.4131858926309
 30
0.0
 40
0.199999996769776
 50
97.5977049158296
 51
98.2347619399098
  0
ARC
  8
5
  6
CONTINUOUS
 62
5
 10
0.383929502333295
 20
3.41318589263564
 30
0.0
 40
0.199999996769789
 50
96.9606478814524
 51
97.5977049261122
  0
ARC
  8
5
  6
CONTINUOUS
 62
5
 10
0.390914224977286
 20
4.69816342095621
 30
0.0
 40
0.0729999999934403
 50
269.999999999999
 51
5.1445026695017E-9
  0
ARC
  8
5
  6
CONTINUOUS
 62
5
 10
0.390914224964176
 20
4.69816342095621
 30
0.0
 40
0.0729999999934401
 50
180.000000005144
 51
270.000000010289
  0
ARC
  8
5
  6
CONTINUOUS
 62
5
 10
0.39091422567336
 20
4.69816342411575
 30
0.0
 40
0.19999999676968
 50
77.597704926158
 51
78.234761950238
  0
ARC
  8
5
  6
CONTINUOUS
 62
5
 10
0.390914225708341
 20
4.69816342410801
 30
0.0
 40
0.199999996769729
 50
76.9606478917625
 51
77.5977049364219
  0
ARC
  8
5
  6
CONTINUOUS
 62
5
 10
0.836965916407282
 20
5.9032584095163
 30
0.0
 40
0.072999999995237
 50
252.000000001027
 51
5.14396197520585E-9
  0
ARC
  8
5
  6
CONTINUOUS
 62
5
 10
0.836965916393501
 20
5.9032584095163
 30
0.0
 40
0.0729999999909773
 50
180.000000005144
 51
252.000000011318
  0
ARC
  8
5
  6
CONTINUOUS
 62
5
 10
2.78459970673387
 20
7.51955843306551
 30
0.0
 40
0.0729999999909783
 50
197.999999998711
 51
270.000000009001
  0
LINE
  8
5
  6
CONTINUOUS
 62
5
 10
3.38451975675693
 20
3.25847575185543
 30
0.0
 11
3.57451975675693
 21
3.25847575185543
 31
0.0
  0
LINE
  8
5
  6
CONTINUOUS
 62
5
 10
3.32451975675693
 20
3.25847575185543
 30
0.0
 11
3.38451975675693
 21
3.25847575185543
 31
0.0
  0
ARC
  8
5
  6
CONTINUOUS
 62
5
 10
3.4495197567647
 20
2.25847575184766
 30
0.0
 40
0.0864999999922337
 50
269.999999999998
 51
5.14377114192496E-9
  0
ARC
  8
5
  6
CONTINUOUS
 62
5
 10
3.44951975674916
 20
2.25847575184766
 30
0.0
 40
0.0864999999922338
 50
180.000000005143
 51
270.000000010288
  0
LINE
  8
5
  6
CONTINUOUS
 62
5
 10
3.50451975675693
 20
1.75847575185543
 30
0.0
 11
3.57451975675693
 21
1.75847575185543
 31
0.0
  0
LINE
  8
5
  6
CONTINUOUS
 62
5
 10
3.32451975675693
 20
1.75847575185543
 30
0.0
 11
3.50451975675693
 21
1.75847575185543
 31
0.0
  0
LINE
  8
5
  6
CONTINUOUS
 62
5
 10
4.44851975675692
 20
1.63847575185543
 30
0.0
 11
4.44851975675692
 21
1.75847575185543
 31
0.0
  0
LINE
  8
5
  6
CONTINUOUS
 62
5
 10
4.44851975675692
 20
1.50847575185543
 30
0.0
 11
4.44851975675692
 21
1.63847575185543
 31
0.0
  0
ARC
  8
5
  6
CONTINUOUS
 62
5
 10
4.57351975676469
 20
2.25847575184766
 30
0.0
 40
0.086499999992233
 50
269.999999999998
 51
5.14362483640961E-9
  0
ARC
  8
5
  6
CONTINUOUS
 62
5
 10
4.57351975674915
 20
2.25847575184766
 30
0.0
 40
0.0864999999922327
 50
180.000000005143
 51
270.000000010288
  0
LINE
  8
5
  6
CONTINUOUS
 62
5
 10
4.57851975675692
 20
2.75847575185543
 30
0.0
 11
4.44851975675692
 21
2.75847575185543
 31
0.0
  0
LINE
  8
5
  6
CONTINUOUS
 62
5
 10
4.69851975675692
 20
2.75847575185543
 30
0.0
 11
4.57851975675692
 21
2.75847575185543
 31
0.0
  0
ARC
  8
5
  6
CONTINUOUS
 62
5
 10
12.4772893424549
 20
5.71480851656368
 30
0.0
 40
0.0864999999999991
 50
7.71703071250983E-9
 51
180.00000000257
  0
ARC
  8
5
  6
CONTINUOUS
 62
5
 10
11.3532893424549
 20
5.71480851656368
 30
0.0
 40
0.0864999999999991
 50
7.71675082369786E-9
 51
180.00000000257
  0
ARC
  8
5
  6
CONTINUOUS
 62
5
 10
11.3532893424549
 20
2.21480851656368
 30
0.0
 40
0.0865000000000009
 50
7.71703071250983E-9
 51
180.00000000257
  0
ARC
  8
5
  6
CONTINUOUS
 62
5
 10
12.4772893424549
 20
2.21480851656368
 30
0.0
 40
0.0864999999999991
 50
7.71614015719902E-9
 51
180.00000000257
  0
LINE
  8
5
  6
CONTINUOUS
 62
5
 10
11.4782893424549
 20
6.46480851657533
 30
0.0
 11
11.4782893424549
 21
6.21480851657533
 31
0.0
  0
LINE
  8
5
  6
CONTINUOUS
 62
5
 10
11.4782893424549
 20
6.21480851657533
 30
0.0
 11
11.2282893424549
 21
6.21480851657533
 31
0.0
  0
LINE
  8
5
  6
CONTINUOUS
 62
5
 10
11.2282893424549
 20
6.21480851657533
 30
0.0
 11
11.2282893424549
 21
6.46480851657533
 31
0.0
  0
LINE
  8
5
  6
CONTINUOUS
 62
5
 10
12.6022893424549
 20
6.46480851657533
 30
0.0
 11
12.6022893424549
 21
6.21480851657533
 31
0.0
  0
LINE
  8
5
  6
CONTINUOUS
 62
5
 10
12.3522893424549
 20
6.21480851657533
 30
0.0
 11
12.3522893424549
 21
6.46480851657533
 31
0.0
  0
LINE
  8
5
  6
CONTINUOUS
 62
5
 10
12.3522893424549
 20
6.46480851657533
 30
0.0
 11
12.6022893424549
 21
6.46480851657533
 31
0.0
  0
LINE
  8
5
  6
CONTINUOUS
 62
5
 10
11.4782893424549
 20
1.71480851657533
 30
0.0
 11
11.4782893424549
 21
1.46480851657533
 31
0.0
  0
LINE
  8
5
  6
CONTINUOUS
 62
5
 10
11.4782893424549
 20
1.46480851657533
 30
0.0
 11
11.2282893424549
 21
1.46480851657533
 31
0.0
  0
LINE
  8
5
  6
CONTINUOUS
 62
5
 10
11.2282893424549
 20
1.46480851657533
 30
0.0
 11
11.2282893424549
 21
1.71480851657533
 31
0.0
  0
LINE
  8
5
  6
CONTINUOUS
 62
5
 10
11.4782893424549
 20
2.71480851657533
 30
0.0
 11
11.2282893424549
 21
2.71480851657533
 31
0.0
  0
LINE
  8
5
  6
CONTINUOUS
 62
5
 10
11.2282893424549
 20
3.21480851657533
 30
0.0
 11
11.2282893424549
 21
2.71480851657533
 31
0.0
  0
LINE
  8
5
  6
CONTINUOUS
 62
5
 10
11.4782893424549
 20
2.71480851657533
 30
0.0
 11
11.4782893424549
 21
3.21480851657533
 31
0.0
  0
LINE
  8
5
  6
CONTINUOUS
 62
5
 10
12.6022893424549
 20
1.71480851657533
 30
0.0
 11
12.6022893424549
 21
1.46480851657533
 31
0.0
  0
LINE
  8
5
  6
CONTINUOUS
 62
5
 10
12.6022893424549
 20
1.46480851657533
 30
0.0
 11
12.3522893424549
 21
1.46480851657533
 31
0.0
  0
LINE
  8
5
  6
CONTINUOUS
 62
5
 10
12.3522893424549
 20
1.71480851657533
 30
0.0
 11
12.6022893424549
 21
1.71480851657533
 31
0.0
  0
LINE
  8
5
  6
CONTINUOUS
 62
5
 10
12.3522893424549
 20
3.21480851657533
 30
0.0
 11
12.3522893424549
 21
2.71480851657533
 31
0.0
  0
LINE
  8
5
  6
CONTINUOUS
 62
5
 10
12.3522893424549
 20
3.21480851657533
 30
0.0
 11
12.6022893424549
 21
3.21480851657533
 31
0.0
  0
LINE
  8
5
  6
CONTINUOUS
 62
5
 10
12.6022893424549
 20
2.71480851657533
 30
0.0
 11
12.6022893424549
 21
3.21480851657533
 31
0.0
  0
LINE
  8
5
  6
CONTINUOUS
 62
5
 10
11.4782893424549
 20
4.71480851657533
 30
0.0
 11
11.4782893424549
 21
5.21480851657533
 31
0.0
  0
LINE
  8
5
  6
CONTINUOUS
 62
5
 10
11.4782893424549
 20
4.71480851657533
 30
0.0
 11
11.2282893424549
 21
4.71480851657533
 31
0.0
  0
LINE
  8
5
  6
CONTINUOUS
 62
5
 10
11.2282893424549
 20
5.21480851657533
 30
0.0
 11
11.2282893424549
 21
4.71480851657533
 31
0.0
  0
LINE
  8
5
  6
CONTINUOUS
 62
5
 10
12.3522893424549
 20
5.21480851657533
 30
0.0
 11
12.6022893424549
 21
5.21480851657533
 31
0.0
  0
LINE
  8
5
  6
CONTINUOUS
 62
5
 10
12.6022893424549
 20
4.71480851657533
 30
0.0
 11
12.6022893424549
 21
5.21480851657533
 31
0.0
  0
LINE
  8
5
  6
CONTINUOUS
 62
5
 10
12.6022893424549
 20
4.71480851657533
 30
0.0
 11
12.3522893424549
 21
4.71480851657533
 31
0.0
  0
LINE
  8
5
  6
CONTINUOUS
 62
5
 10
14.165289342473
 20
5.82737260921242
 30
0.0
 11
14.1652893424383
 21
2.10224442411783
 31
0.0
  0
ARC
  8
5
  6
CONTINUOUS
 62
5
 10
13.6652893419781
 20
5.82737260897305
 30
0.0
 40
0.50000000049485
 50
2.74287791563639E-8
 51
61.9314631091941
  0
ARC
  8
5
  6
CONTINUOUS
 62
5
 10
10.165289341706
 20
5.8273726096207
 30
0.0
 40
0.499999999251086
 50
118.068536975448
 51
180.000000057076
  0
LINE
  8
5
  6
CONTINUOUS
 62
5
 10
9.66528934243682
 20
2.10224442402804
 30
0.0
 11
9.66528934245489
 21
5.82737260912262
 31
0.0
  0
ARC
  8
5
  6
CONTINUOUS
 62
5
 10
10.1652893423751
 20
2.10224442384365
 30
0.0
 40
0.499999999938309
 50
179.99999997887
 51
241.931463060635
  0
ARC
  8
5
  6
CONTINUOUS
 62
5
 10
11.9152893423269
 20
5.38403928428275
 30
0.0
 40
4.21923076796491
 50
241.931463054309
 51
298.068536948757
  0
ARC
  8
5
  6
CONTINUOUS
 62
5
 10
13.6652893425049
 20
2.10224442395874
 30
0.0
 40
0.499999999933376
 50
298.068536936164
 51
1.82299852677444E-8
  0
ARC
  8
5
  6
CONTINUOUS
 62
5
 10
11.9349263062226
 20
3.99220125651647
 30
0.0
 40
3.90000000012829
 50
180.00000002009
 51
4.87311866075114E-10
  0
ARC
  8
5
  6
CONTINUOUS
 62
5
 10
11.9349263070091
 20
3.99220125631057
 30
0.0
 40
3.89999999934183
 50
3.51271272906748E-9
 51
85.9485766098042
  0
ARC
  8
5
  6
CONTINUOUS
 62
5
 10
11.9349263035415
 20
3.99220125845555
 30
0.0
 40
3.89999999744719
 50
85.9485765567621
 51
180.000000048579
  0
ARC
  8
5
  6
CONTINUOUS
 62
5
 10
11.9550380122272
 20
7.69214659589844
 30
0.0
 40
0.073000000003276
 50
180.000000018006
 51
2.57170745990032E-9
  0
ARC
  8
5
  6
CONTINUOUS
 62
5
 10
11.9550380122139
 20
7.69214659589963
 30
0.0
 40
0.0729999999899662
 50
72.0000000081887
 51
180.000000018941
  0
ARC
  8
5
  6
CONTINUOUS
 62
5
 10
9.57205374573638
 20
6.83945137889478
 30
0.0
 40
0.0729999999999995
 50
7.71787037894574E-9
 51
180.00000000257
  0
ARC
  8
5
  6
CONTINUOUS
 62
5
 10
8.29468381066869
 20
4.65449618567283
 30
0.0
 40
0.0729999999999951
 50
7.71703071250983E-9
 51
180.00000000257
  0
ARC
  8
5
  6
CONTINUOUS
 62
5
 10
8.72062379602615
 20
2.15964583419358
 30
0.0
 40
0.0729999999999995
 50
7.71748871238397E-9
 51
180.00000000257
  0
ARC
  8
5
  6
CONTINUOUS
 62
5
 10
10.6505716488644
 20
0.522268531090617
 30
0.0
 40
0.0729999999999995
 50
5.14524691929716E-9
 51
179.999999999997
  0
ARC
  8
5
  6
CONTINUOUS
 62
5
 10
13.2192809634397
 20
7.46213398061121
 30
0.0
 40
0.0730000000032724
 50
180.000000018005
 51
2.5725344041175E-9
  0
ARC
  8
5
  6
CONTINUOUS
 62
5
 10
13.2192809634415
 20
7.46213398060631
 30
0.0
 40
0.0730000000015081
 50
6.42413523449491E-9
 51
153.00000002568
  0
ARC
  8
5
  6
CONTINUOUS
 62
5
 10
15.149228816278
 20
5.82475667749513
 30
0.0
 40
0.0730000000032776
 50
180.000000010288
 51
270.000000010288
  0
ARC
  8
5
  6
CONTINUOUS
 62
5
 10
15.149228816278
 20
5.82475667749513
 30
0.0
 40
0.0730000000032785
 50
270.000000010288
 51
1.02885537002386E-8
  0
ARC
  8
5
  6
CONTINUOUS
 62
5
 10
15.1492288162834
 20
5.82475667750246
 30
0.0
 40
0.0729999999978583
 50
4.53642514217141E-9
 51
126.000000028949
  0
ARC
  8
5
  6
CONTINUOUS
 62
5
 10
14.3286117879275
 20
6.81359626795613
 30
0.0
 40
0.0730000000032775
 50
180.000000010289
 51
270.000000010289
  0
ARC
  8
5
  6
CONTINUOUS
 62
5
 10
14.3286117879275
 20
6.81359626795613
 30
0.0
 40
0.0730000000032784
 50
270.000000010289
 51
1.02900231165015E-8
  0
ARC
  8
5
  6
CONTINUOUS
 62
5
 10
14.3286117879293
 20
6.81359626796106
 30
0.0
 40
0.0730000000015116
 50
6.42328284584028E-9
 51
153.000000025681
  0
ARC
  8
5
  6
CONTINUOUS
 62
5
 10
11.9148146000785
 20
0.292255915813211
 30
0.0
 40
0.0730000000032769
 50
180.000000012859
 51
7.71682715701022E-9
  0
ARC
  8
5
  6
CONTINUOUS
 62
5
 10
11.9148146000778
 20
0.292255915813719
 30
0.0
 40
0.0730000000025718
 50
9.00000001720429
 51
180.000000013258
  0
ARC
  8
5
  6
CONTINUOUS
 62
5
 10
15.5821535238546
 20
4.61488385754606
 30
0.0
 40
0.0730000000032776
 50
180.000000010288
 51
270.000000010288
  0
ARC
  8
5
  6
CONTINUOUS
 62
5
 10
15.5821535238546
 20
4.61488385754606
 30
0.0
 40
0.0730000000032776
 50
270.000000010287
 51
1.02878539782087E-8
  0
ARC
  8
5
  6
CONTINUOUS
 62
5
 10
15.5821535238663
 20
4.61488385755821
 30
0.0
 40
0.0729999999915254
 50
7.47118655785143E-10
 51
108.000000033858
  0
ARC
  8
5
  6
CONTINUOUS
 62
5
 10
15.5751688016354
 20
3.32990632602572
 30
0.0
 40
0.0730000000032778
 50
180.000000018006
 51
2.57166929324414E-9
  0
ARC
  8
5
  6
CONTINUOUS
 62
5
 10
15.5751688016221
 20
3.32990632602691
 30
0.0
 40
0.0729999999899675
 50
72.0000000081886
 51
180.000000018942
  0
ARC
  8
5
  6
CONTINUOUS
 62
5
 10
15.1291171102036
 20
2.1248113374558
 30
0.0
 40
0.073000000003274
 50
180.000000010289
 51
270.000000010289
  0
ARC
  8
5
  6
CONTINUOUS
 62
5
 10
15.1291171102036
 20
2.1248113374558
 30
0.0
 40
0.0730000000032726
 50
270.000000010289
 51
1.02893233944715E-8
  0
ARC
  8
5
  6
CONTINUOUS
 62
5
 10
15.1291171101969
 20
2.12481133746245
 30
0.0
 40
0.0729999999965286
 50
54.000000012737
 51
180.00000001551
  0
ARC
  8
5
  6
CONTINUOUS
 62
5
 10
14.2977988665677
 20
1.14495113279395
 30
0.0
 40
0.0730000000032778
 50
180.000000010288
 51
1.02885473391293E-8
  0
ARC
  8
5
  6
CONTINUOUS
 62
5
 10
14.2977988665652
 20
1.1449511327987
 30
0.0
 40
0.0730000000007703
 50
27.0000000156172
 51
180.000000014015
  0
ARC
  8
5
  6
CONTINUOUS
 62
5
 10
13.1814833198608
 20
0.508511313912311
 30
0.0
 40
0.0730000000032778
 50
180.000000012861
 51
7.71818843441389E-9
  0
ARC
  8
5
  6
CONTINUOUS
 62
5
 10
13.1814833198601
 20
0.508511313912818
 30
0.0
 40
0.0730000000025728
 50
9.00000001720517
 51
180.000000013259
  0
ARC
  8
5
  6
CONTINUOUS
 62
5
 10
9.54124082437661
 20
1.1708062437326
 30
0.0
 40
0.0730000000000004
 50
7.71697982363493E-9
 51
180.00000000257
  0
ARC
  8
5
  6
CONTINUOUS
 62
5
 10
8.28769908844953
 20
3.36951865414266
 30
0.0
 40
0.0729999999999951
 50
7.71680171257277E-9
 51
180.00000000257
  0
ARC
  8
5
  6
CONTINUOUS
 62
5
 10
8.74073550210048
 20
5.85959117423292
 30
0.0
 40
0.0730000000000004
 50
7.71871004538165E-9
 51
180.00000000257
  0
ARC
  8
5
  6
CONTINUOUS
 62
5
 10
10.6883692924302
 20
7.47589119779116
 30
0.0
 40
0.0729999999967238
 50
269.999999999999
 51
359.999999999999
  0
ARC
  8
5
  6
CONTINUOUS
 62
5
 10
10.6883692924302
 20
7.47589119779116
 30
0.0
 40
0.0729999999967239
 50
5.02527639671236E-13
 51
90.0000000000005
  0
ARC
  8
5
  6
CONTINUOUS
 62
5
 10
10.68836929243
 20
7.47589119779551
 30
0.0
 40
0.0729999999923724
 50
89.9999999998612
 51
198.000000006687
  0
ARC
  8
5
  6
CONTINUOUS
 62
5
 10
11.9349263062153
 20
3.99220125644803
 30
0.0
 40
3.50000000011513
 50
180.00000002009
 51
4.87311866075114E-10
  0
ARC
  8
5
  6
CONTINUOUS
 62
5
 10
11.9349263054431
 20
3.9922012563556
 30
0.0
 40
3.49999999934296
 50
99.8971531653067
 51
180.000000018578
  0
ARC
  8
5
  6
CONTINUOUS
 62
5
 10
11.9349263125036
 20
3.99220125583031
 30
0.0
 40
3.62699999367717
 50
353.871972142521
 51
5.50515134258999
  0
ARC
  8
5
  6
CONTINUOUS
 62
5
 10
15.6148741785834
 20
4.3468738600562
 30
0.0
 40
0.0700000000006299
 50
96.9606478781121
 51
185.505151331875
  0
ARC
  8
5
  6
CONTINUOUS
 62
5
 10
15.6208254660849
 20
4.34766768906202
 30
0.0
 40
0.0699999996582164
 50
5.50854368036035
 51
98.2347621994077
  0
ARC
  8
5
  6
CONTINUOUS
 62
5
 10
11.9349263094779
 20
3.99220125572778
 30
0.0
 40
3.77299999667467
 50
353.868580063929
 51
5.50854343528574
  0
ARC
  8
5
  6
CONTINUOUS
 62
5
 10
15.6167433738823
 20
3.59668630080257
 30
0.0
 40
0.0700000000086278
 50
261.142361540606
 51
353.868580059653
  0
ARC
  8
5
  6
CONTINUOUS
 62
5
 10
15.5751688018999
 20
3.32990632924167
 30
0.0
 40
0.199999996772032
 50
81.1423615020514
 51
82.4164755605011
  0
ARC
  8
5
  6
CONTINUOUS
 62
5
 10
15.6108010680691
 20
3.59754477913454
 30
0.0
 40
0.0699999999935505
 50
173.871972162235
 51
262.416475615995
  0
ARC
  8
5
  6
CONTINUOUS
 62
5
 10
11.9349263012475
 20
3.99220125171936
 30
0.0
 40
3.62699999362207
 50
213.871972141941
 51
225.505151341998
  0
ARC
  8
5
  6
CONTINUOUS
 62
5
 10
9.3439018429609
 20
1.35508138157295
 30
0.0
 40
0.0700000000161078
 50
316.960647866217
 51
45.5051513302689
  0
ARC
  8
5
  6
CONTINUOUS
 62
5
 10
9.33985315570099
 20
1.35064785985502
 30
0.0
 40
0.0699999999639528
 50
225.508543388486
 51
318.234761907533
  0
ARC
  8
5
  6
CONTINUOUS
 62
5
 10
11.9349263009365
 20
3.9922012516965
 30
0.0
 40
3.77299999335741
 50
213.868580059259
 51
225.508543430604
  0
ARC
  8
5
  6
CONTINUOUS
 62
5
 10
8.86025868826881
 20
1.92855689706257
 30
0.0
 40
0.0700000000006349
 50
121.142361557997
 51
213.868580066754
  0
ARC
  8
5
  6
CONTINUOUS
 62
5
 10
8.72062379734303
 20
2.15964583245391
 30
0.0
 40
0.199999997821879
 50
301.142361495047
 51
302.416475553498
  0
ARC
  8
5
  6
CONTINUOUS
 62
5
 10
8.865362577868
 20
1.93171890505727
 30
0.0
 40
0.0699999999935467
 50
33.8719721622365
 51
122.416475626287
  0
ARC
  8
5
  6
CONTINUOUS
 62
5
 10
11.9349263121821
 20
3.99220125802382
 30
0.0
 40
3.62699999361893
 50
13.8719721426267
 51
25.5051513426834
  0
ARC
  8
5
  6
CONTINUOUS
 62
5
 10
15.271640991828
 20
5.58410078357769
 30
0.0
 40
0.070000000000624
 50
116.960647878123
 51
205.505151331881
  0
ARC
  8
5
  6
CONTINUOUS
 62
5
 10
15.276961867267
 20
5.58688219904082
 30
0.0
 40
0.0699999996582606
 50
25.5085436803292
 51
118.234762199377
  0
ARC
  8
5
  6
CONTINUOUS
 62
5
 10
11.9349263093741
 20
3.99220125689259
 30
0.0
 40
3.77299999661628
 50
13.8685800640309
 51
25.5085434353758
  0
ARC
  8
5
  6
CONTINUOUS
 62
5
 10
15.5299767173867
 20
4.87979437239011
 30
0.0
 40
0.0700000000148209
 50
281.142361545909
 51
13.868580064956
  0
ARC
  8
5
  6
CONTINUOUS
 62
5
 10
15.5821535229816
 20
4.61488386066423
 30
0.0
 40
0.199999996772128
 50
101.142361496729
 51
102.416475555178
  0
ARC
  8
5
  6
CONTINUOUS
 62
5
 10
15.524099159589
 20
4.87856868985344
 30
0.0
 40
0.0699999999935507
 50
193.871972151944
 51
282.416475615995
  0
ARC
  8
5
  6
CONTINUOUS
 62
5
 10
11.934926302929
 20
3.99220125030685
 30
0.0
 40
3.62699999362514
 50
233.871972142428
 51
245.505151342485
  0
ARC
  8
5
  6
CONTINUOUS
 62
5
 10
10.4021078551825
 20
0.627936611603261
 30
0.0
 40
0.070000000016123
 50
336.960647866224
 51
65.5051513302747
  0
ARC
  8
5
  6
CONTINUOUS
 62
5
 10
10.3998196873739
 20
0.622385731363924
 30
0.0
 40
0.0699999999639597
 50
245.508543388485
 51
338.234761907531
  0
ARC
  8
5
  6
CONTINUOUS
 62
5
 10
11.9349263026982
 20
3.99220125014785
 30
0.0
 40
3.7729999933544
 50
233.86858005879
 51
245.508543430135
  0
ARC
  8
5
  6
CONTINUOUS
 62
5
 10
9.75149177362259
 20
1.00141162062831
 30
0.0
 40
0.0699999999974866
 50
141.142361560453
 51
233.868580069211
  0
ARC
  8
5
  6
CONTINUOUS
 62
5
 10
9.54124082603784
 20
1.17080624232714
 30
0.0
 40
0.199999997818771
 50
321.142361575881
 51
322.416475634331
  0
ARC
  8
5
  6
CONTINUOUS
 62
5
 10
9.75520639058038
 20
1.00612856925443
 30
0.0
 40
0.0699999999935489
 50
53.8719721569628
 51
142.416475621012
  0
ARC
  8
5
  6
CONTINUOUS
 62
5
 10
11.934926300123
 20
3.99220125803094
 30
0.0
 40
3.62699999362233
 50
153.871972142141
 51
165.505151342196
  0
ARC
  8
5
  6
CONTINUOUS
 62
5
 10
8.35560127061284
 20
4.91753432565333
 30
0.0
 40
0.0700000000094707
 50
256.960647860917
 51
345.505151324965
  0
ARC
  8
5
  6
CONTINUOUS
 62
5
 10
8.3497373841395
 20
4.91882383059827
 30
0.0
 40
0.0699999996642612
 50
165.508543684162
 51
258.234762192919
  0
ARC
  8
5
  6
CONTINUOUS
 62
5
 10
11.934926302964
 20
3.99220125699206
 30
0.0
 40
3.77299999663681
 50
153.868580061945
 51
165.508543433289
  0
ARC
  8
5
  6
CONTINUOUS
 62
5
 10
8.61042405812429
 20
5.6231193417355
 30
0.0
 40
0.0700000000006327
 50
61.1423615580008
 51
153.868580077048
  0
ARC
  8
5
  6
CONTINUOUS
 62
5
 10
8.74073550124403
 20
5.85959117222749
 30
0.0
 40
0.199999997821931
 50
241.142361494978
 51
242.41647555343
  0
ARC
  8
5
  6
CONTINUOUS
 62
5
 10
8.61571438216568
 20
5.62028024767903
 30
0.0
 40
0.0700000000000039
 50
333.871972157085
 51
62.4164756211354
  0
ARC
  8
5
  6
CONTINUOUS
 62
5
 10
11.9349263110548
 20
3.99220125997917
 30
0.0
 40
3.62699999362214
 50
33.8719721421399
 51
45.5051513421965
  0
ARC
  8
5
  6
CONTINUOUS
 62
5
 10
14.5259507693158
 20
6.62932113012477
 30
0.0
 40
0.0699999999974798
 50
136.960647880754
 51
225.505151334513
  0
ARC
  8
5
  6
CONTINUOUS
 62
5
 10
14.5299994565867
 20
6.63375465228658
 30
0.0
 40
0.0699999996582418
 50
45.5085436803287
 51
138.234762199376
  0
ARC
  8
5
  6
CONTINUOUS
 62
5
 10
11.934926308823
 20
3.9922012579319
 30
0.0
 40
3.77299999661627
 50
33.8685800640322
 51
45.5085434353772
  0
ARC
  8
5
  6
CONTINUOUS
 62
5
 10
15.0095939240084
 20
6.05584561463684
 30
0.0
 40
0.0700000000148255
 50
301.142361545911
 51
33.8685800649581
  0
ARC
  8
5
  6
CONTINUOUS
 62
5
 10
15.1492288143907
 20
5.82475668012736
 30
0.0
 40
0.19999999677184
 50
121.142361496668
 51
122.416475555118
  0
ARC
  8
5
  6
CONTINUOUS
 62
5
 10
15.0044900344345
 20
6.0526836066413
 30
0.0
 40
0.0699999999935532
 50
213.871972151946
 51
302.416475615995
  0
ARC
  8
5
  6
CONTINUOUS
 62
5
 10
11.9349263110297
 20
3.99220125169013
 30
0.0
 40
3.62699999362228
 50
313.871972142915
 51
325.505151342971
  0
ARC
  8
5
  6
CONTINUOUS
 62
5
 10
14.9819090802749
 20
1.89847133673677
 30
0.0
 40
0.0700000000006319
 50
56.9606478781114
 51
145.505151342163
  0
ARC
  8
5
  6
CONTINUOUS
 62
5
 10
14.9869782939858
 20
1.8952540310715
 30
0.0
 40
0.0699999999813209
 50
325.508543403014
 51
58.2347619220603
  0
ARC
  8
5
  6
CONTINUOUS
 62
5
 10
11.9349263111668
 20
3.99220125145845
 30
0.0
 40
3.772999993354
 50
313.868580058788
 51
325.508543430133
  0
ARC
  8
5
  6
CONTINUOUS
 62
5
 10
14.5011296989175
 20
1.32259283009535
 30
0.0
 40
0.0700000000086282
 50
221.142361540603
 51
313.868580059651
  0
ARC
  8
5
  6
CONTINUOUS
 62
5
 10
14.2977988690313
 20
1.14495113488358
 30
0.0
 40
0.199999996768946
 50
41.1423615828676
 51
42.416475641317
  0
ARC
  8
5
  6
CONTINUOUS
 62
5
 10
14.4971294478046
 20
1.3270701031918
 30
0.0
 40
0.0699999999935561
 50
133.87197215696
 51
222.41647561072
  0
ARC
  8
5
  6
CONTINUOUS
 62
5
 10
11.934926312169
 20
3.99220125363849
 30
0.0
 40
3.62699999361884
 50
333.871972142426
 51
345.505151342483
  0
ARC
  8
5
  6
CONTINUOUS
 62
5
 10
15.5142513416771
 20
3.06686818605719
 30
0.0
 40
0.0700000000006358
 50
76.9606478781239
 51
165.505151342174
  0
ARC
  8
5
  6
CONTINUOUS
 62
5
 10
15.5201152277392
 20
3.06557868086469
 30
0.0
 40
0.0699999999813105
 50
345.508543403018
 51
78.2347619220638
  0
ARC
  8
5
  6
CONTINUOUS
 62
5
 10
11.934926312366
 20
3.99220125343869
 30
0.0
 40
3.7729999933541
 50
333.868580058789
 51
345.508543430133
  0
ARC
  8
5
  6
CONTINUOUS
 62
5
 10
15.2594285541692
 20
2.36128316997714
 30
0.0
 40
0.0700000000086298
 50
241.142361540608
 51
333.868580059653
  0
ARC
  8
5
  6
CONTINUOUS
 62
5
 10
15.1291171115547
 20
2.12481134039641
 30
0.0
 40
0.199999996771981
 50
61.1423615018368
 51
62.416475560287
  0
ARC
  8
5
  6
CONTINUOUS
 62
5
 10
15.2541382301282
 20
2.36412226401673
 30
0.0
 40
0.069999999993557
 50
153.871972162236
 51
242.416475615996
  0
ARC
  8
5
  6
CONTINUOUS
 62
5
 10
11.9349263050264
 20
3.99220126216102
 30
0.0
 40
3.62699999362199
 50
93.8719721421399
 51
105.505151342197
  0
ARC
  8
5
  6
CONTINUOUS
 62
5
 10
10.9466257337942
 20
7.55465419992917
 30
0.0
 40
0.0700000000094686
 50
196.960647860915
 51
285.505151324964
  0
ARC
  8
5
  6
CONTINUOUS
 62
5
 10
10.6883692955477
 20
7.47589119868631
 30
0.0
 40
0.19999999676927
 50
16.9606479028912
 51
18.2347619613419
  0
ARC
  8
5
  6
CONTINUOUS
 62
5
 10
10.9448105346196
 20
7.56037722704
 30
0.0
 40
0.0699999996820426
 50
105.508543698354
 51
198.234762207111
  0
ARC
  8
5
  6
CONTINUOUS
 62
5
 10
11.9349263055167
 20
3.99220125917591
 30
0.0
 40
3.77299999663342
 50
93.868580061476
 51
105.508543432821
  0
ARC
  8
5
  6
CONTINUOUS
 62
5
 10
11.6850916760099
 20
7.68676370051926
 30
0.0
 40
0.0699999999975006
 50
1.14236156044767
 51
93.8685800794949
  0
ARC
  8
5
  6
CONTINUOUS
 62
5
 10
11.6852781104599
 20
7.68076259847651
 30
0.0
 40
0.0699999999960548
 50
273.871972149842
 51
2.41647561389044
  0
ARC
  8
5
  6
CONTINUOUS
 62
5
 10
11.9349263050189
 20
3.99220124953904
 30
0.0
 40
3.62699999362513
 50
253.871972142429
 51
265.505151342486
  0
ARC
  8
5
  6
CONTINUOUS
 62
5
 10
11.6451943945819
 20
0.306571808987811
 30
0.0
 40
0.070000000016118
 50
356.96064786622
 51
85.5051513302696
  0
ARC
  8
5
  6
CONTINUOUS
 62
5
 10
11.6449427330321
 20
0.300573088306199
 30
0.0
 40
0.0699999999639661
 50
265.508543388478
 51
358.234761907526
  0
ARC
  8
5
  6
CONTINUOUS
 62
5
 10
11.9349263048563
 20
3.9922012493105
 30
0.0
 40
3.77299999335418
 50
253.868580058792
 51
265.508543430137
  0
ARC
  8
5
  6
CONTINUOUS
 62
5
 10
10.9060792876601
 20
0.434999713551498
 30
0.0
 40
0.0699999999974962
 50
161.142361560459
 51
253.868580069215
  0
ARC
  8
5
  6
CONTINUOUS
 62
5
 10
10.6505716509091
 20
0.522268530335691
 30
0.0
 40
0.199999997819237
 50
341.142361575842
 51
342.416475634293
  0
ARC
  8
5
  6
CONTINUOUS
 62
5
 10
10.9079565943592
 20
0.440702669192395
 30
0.0
 40
0.0699999999935468
 50
73.8719721569584
 51
162.416475621009
  0
ARC
  8
5
  6
CONTINUOUS
 62
5
 10
11.9349263001307
 20
3.99220125364561
 30
0.0
 40
3.62699999362205
 50
193.871972141942
 51
205.505151341998
  0
ARC
  8
5
  6
CONTINUOUS
 62
5
 10
8.59821162044854
 20
2.40030172812462
 30
0.0
 40
0.0700000000161126
 50
296.960647866219
 51
25.5051513302698
  0
ARC
  8
5
  6
CONTINUOUS
 62
5
 10
8.59289074517314
 20
2.39752031307912
 30
0.0
 40
0.0699999999639783
 50
205.508543388475
 51
298.234761907521
  0
ARC
  8
5
  6
CONTINUOUS
 62
5
 10
11.9349262998306
 20
3.99220125373037
 30
0.0
 40
3.77299999335727
 50
193.868580059258
 51
205.508543430603
  0
ARC
  8
5
  6
CONTINUOUS
 62
5
 10
8.33987589489229
 20
3.10460813931788
 30
0.0
 40
0.070000000000633
 50
101.142361557998
 51
193.868580066755
  0
ARC
  8
5
  6
CONTINUOUS
 62
5
 10
8.28769908908849
 20
3.36951865205791
 30
0.0
 40
0.199999997821722
 50
281.142361495093
 51
282.416475553543
  0
ARC
  8
5
  6
CONTINUOUS
 62
5
 10
8.34575345271349
 20
3.10583382184512
 30
0.0
 40
0.0699999999935517
 50
13.871972162235
 51
102.416475626283
  0
ARC
  8
5
  6
CONTINUOUS
 62
5
 10
12.9637733242032
 20
7.54940279794186
 30
0.0
 40
0.0700000003471307
 50
341.14236180616
 51
73.8685803252069
  0
ARC
  8
5
  6
CONTINUOUS
 62
5
 10
13.219280960302
 20
7.46213398140643
 30
0.0
 40
0.199999996771975
 50
161.142361496895
 51
162.416475555345
  0
ARC
  8
5
  6
CONTINUOUS
 62
5
 10
12.9618960177338
 20
7.54369984292328
 30
0.0
 40
0.0700000003128674
 50
253.871971872969
 51
342.416475337019
  0
ARC
  8
5
  6
CONTINUOUS
 62
5
 10
11.9349263082577
 20
3.99220126957216
 30
0.0
 40
3.62699998615895
 50
76.7852598754629
 51
85.5051513488491
  0
ARC
  8
5
  6
CONTINUOUS
 62
5
 10
12.2246582177014
 20
7.67783070269358
 30
0.0
 40
0.0699999999974997
 50
176.960647880756
 51
265.505151334514
  0
ARC
  8
5
  6
CONTINUOUS
 62
5
 10
11.9550380144011
 20
7.69214659571349
 30
0.0
 40
0.199999997818491
 50
356.960647895957
 51
358.234761954407
  0
ARC
  8
5
  6
CONTINUOUS
 62
5
 10
12.2249098789794
 20
7.68382942371521
 30
0.0
 40
0.0699999996648807
 50
85.5085436849649
 51
178.234762204013
  0
ARC
  8
5
  6
CONTINUOUS
 62
5
 10
11.9349263075942
 20
3.99220126236119
 30
0.0
 40
3.77299999336937
 50
73.8685800713549
 51
85.5085434426997
  0
ARC
  8
5
  6
CONTINUOUS
 62
5
 10
11.9349263093466
 20
3.99220126140727
 30
0.0
 40
3.62699999362213
 50
53.8719721421389
 51
65.5051513421954
  0
ARC
  8
5
  6
CONTINUOUS
 62
5
 10
13.4677447570961
 20
7.35646590008571
 30
0.0
 40
0.0699999999974947
 50
156.960647880758
 51
245.505151334517
  0
ARC
  8
5
  6
CONTINUOUS
 62
5
 10
13.4700329247632
 20
7.36201678074589
 30
0.0
 40
0.0699999996582588
 50
65.5085436803167
 51
158.234762199364
  0
ARC
  8
5
  6
CONTINUOUS
 62
5
 10
11.9349263079495
 20
3.99220125872011
 30
0.0
 40
3.77299999661628
 50
53.8685800640313
 51
65.5085434353762
  0
ARC
  8
5
  6
CONTINUOUS
 62
5
 10
14.1183608386553
 20
6.98299089106673
 30
0.0
 40
0.0700000000148179
 50
321.142361545908
 51
53.8685800649557
  0
ARC
  8
5
  6
CONTINUOUS
 62
5
 10
14.3286117852542
 20
6.81359626978444
 30
0.0
 40
0.199999996772426
 50
141.142361496709
 51
142.416475555158
  0
ARC
  8
5
  6
CONTINUOUS
 62
5
 10
14.1146462217132
 20
6.97827394244284
 30
0.0
 40
0.0699999999935536
 50
233.871972151946
 51
322.416475615995
  0
ARC
  8
5
  6
CONTINUOUS
 62
5
 10
11.9349263072454
 20
3.99220124953262
 30
0.0
 40
3.62699999362544
 50
273.871972142428
 51
285.505151342484
  0
ARC
  8
5
  6
CONTINUOUS
 62
5
 10
12.9232268785163
 20
0.429748311784027
 30
0.0
 40
0.0699999999974916
 50
16.9606478807636
 51
105.505151344811
  0
ARC
  8
5
  6
CONTINUOUS
 62
5
 10
12.9250420772884
 20
0.424025284895288
 30
0.0
 40
0.0699999999813417
 50
285.50854340299
 51
18.234761922039
  0
ARC
  8
5
  6
CONTINUOUS
 62
5
 10
11.934926307171
 20
3.99220124926155
 30
0.0
 40
3.77299999335378
 50
273.868580058788
 51
285.508543430133
  0
ARC
  8
5
  6
CONTINUOUS
 62
5
 10
12.1847609363035
 20
0.297638811191189
 30
0.0
 40
0.07000000000863
 50
181.142361540604
 51
273.86858005965
  0
ARC
  8
5
  6
CONTINUOUS
 62
5
 10
11.9148146033084
 20
0.292255915826218
 30
0.0
 40
0.199999996769089
 50
1.14236158282023
 51
2.41647564126988
  0
ARC
  8
5
  6
CONTINUOUS
 62
5
 10
12.184574501839
 20
0.303639913218007
 30
0.0
 40
0.069999999993547
 50
93.8719721569562
 51
182.416475610716
  0
ARC
  8
5
  6
CONTINUOUS
 62
5
 10
11.9349263028755
 20
3.99220125582055
 30
0.0
 40
3.62699999674136
 50
173.87197214716
 51
185.505151336978
  0
ARC
  8
5
  6
CONTINUOUS
 62
5
 10
8.254978433696
 20
3.63752865165474
 30
0.0
 40
0.0700000000161101
 50
276.960647866226
 51
5.50515133027511
  0
ARC
  8
5
  6
CONTINUOUS
 62
5
 10
8.24902714649105
 20
3.63673482298542
 30
0.0
 40
0.0699999999639405
 50
185.508543388495
 51
278.234761907543
  0
ARC
  8
5
  6
CONTINUOUS
 62
5
 10
11.9349263027493
 20
3.99220125600233
 30
0.0
 40
3.77299999660271
 50
173.868580064474
 51
185.508543425582
  0
ARC
  8
5
  6
CONTINUOUS
 62
5
 10
8.25310923840692
 20
4.38771621090615
 30
0.0
 40
0.0700000000006405
 50
81.1423615580011
 51
173.868580077049
  0
ARC
  8
5
  6
CONTINUOUS
 62
5
 10
8.29468381055356
 20
4.65449618349597
 30
0.0
 40
0.199999997821953
 50
261.142361494863
 51
262.416475553312
  0
ARC
  8
5
  6
CONTINUOUS
 62
5
 10
8.2590515442263
 20
4.38685773255844
 30
0.0
 40
0.0700000000000007
 50
353.871972157088
 51
82.4164756211397
  0
ARC
  8
5
  6
CONTINUOUS
 62
5
 10
11.9349262913643
 20
3.99220126750199
 30
0.0
 40
3.62699998121841
 50
137.950574960445
 51
145.505151352088
  0
ARC
  8
5
  6
CONTINUOUS
 62
5
 10
8.88794353201991
 20
6.08593117497731
 30
0.0
 40
0.0700000000094683
 50
236.96064786091
 51
325.505151324958
  0
ARC
  8
5
  6
CONTINUOUS
 62
5
 10
8.74073550366405
 20
5.85959117707643
 30
0.0
 40
0.199999996772364
 50
56.9606478220955
 51
58.2347618805456
  0
ARC
  8
5
  6
CONTINUOUS
 62
5
 10
8.88287431786143
 20
6.08914848055909
 30
0.0
 40
0.069999999678873
 50
145.50854370082
 51
238.234762209577
  0
ARC
  8
5
  6
CONTINUOUS
 62
5
 10
11.9349263035271
 20
3.99220125798963
 30
0.0
 40
3.77299999663368
 50
133.868580061477
 51
145.508543432822
  0
ARC
  8
5
  6
CONTINUOUS
 62
5
 10
9.3687229133857
 20
6.66180968161932
 30
0.0
 40
0.0699999999974997
 50
41.1423615604437
 51
133.868580079489
  0
ARC
  8
5
  6
CONTINUOUS
 62
5
 10
9.57205374424235
 20
6.83945137730411
 30
0.0
 40
0.199999997822161
 50
221.142361495042
 51
222.416475553491
  0
ARC
  8
5
  6
CONTINUOUS
 62
5
 10
9.37272316402211
 20
6.65733240851062
 30
0.0
 40
0.070000000335868
 50
313.871971891983
 51
42.416475356035
  0
ARC
  8
5
  6
CONTINUOUS
 62
5
 10
11.9349263093398
 20
3.99220125028785
 30
0.0
 40
3.6269999936255
 50
293.871972142428
 51
305.505151342483
  0
ARC
  8
5
  6
CONTINUOUS
 62
5
 10
14.0820557276413
 20
0.982609215823269
 30
0.0
 40
0.0699999999974981
 50
36.9606478807496
 51
125.505151344799
  0
ARC
  8
5
  6
CONTINUOUS
 62
5
 10
14.0857188470094
 20
0.97785216423155
 30
0.0
 40
0.0699999999813527
 50
305.508543402979
 51
38.2347619220271
  0
ARC
  8
5
  6
CONTINUOUS
 62
5
 10
11.9349263093627
 20
3.99220125000754
 30
0.0
 40
3.77299999335367
 50
293.868580058788
 51
305.508543430133
  0
ARC
  8
5
  6
CONTINUOUS
 62
5
 10
13.4333088413696
 20
0.605896665583694
 30
0.0
 40
0.0700000000086238
 50
201.142361540604
 51
293.868580059651
  0
ARC
  8
5
  6
CONTINUOUS
 62
5
 10
13.1814833228903
 20
0.508511315029369
 30
0.0
 40
0.199999996769105
 50
21.1423615828814
 51
22.4164756413311
  0
ARC
  8
5
  6
CONTINUOUS
 62
5
 10
13.4310811525038
 20
0.611472092532627
 30
0.0
 40
0.0699999999935506
 50
113.871972156963
 51
202.416475610723
  0
ARC
  8
5
  6
CONTINUOUS
 62
5
 10
11.9349263029355
 20
3.99220126139558
 30
0.0
 40
3.62699999362208
 50
113.871972142139
 51
125.505151342196
  0
ARC
  8
5
  6
CONTINUOUS
 62
5
 10
9.78779688466366
 20
7.00179329589181
 30
0.0
 40
0.0700000000094768
 50
216.960647860915
 51
305.505151324963
  0
ARC
  8
5
  6
CONTINUOUS
 62
5
 10
9.78413376481691
 20
7.00655034755892
 30
0.0
 40
0.0699999996642595
 50
125.508543684161
 51
218.234762192917
  0
ARC
  8
5
  6
CONTINUOUS
 62
5
 10
11.9349263044173
 20
3.99220125875802
 30
0.0
 40
3.77299999663369
 50
113.868580061476
 51
125.508543432821
  0
ARC
  8
5
  6
CONTINUOUS
 62
5
 10
10.436543770939
 20
7.37850584612975
 30
0.0
 40
0.0699999999974983
 50
21.1423615604551
 51
113.868580079502
  0
ARC
  8
5
  6
CONTINUOUS
 62
5
 10
10.6883692904919
 20
7.47589119679587
 30
0.0
 40
0.199999997821879
 50
201.14236149487
 51
202.416475553319
  0
ARC
  8
5
  6
CONTINUOUS
 62
5
 10
10.438771459787
 20
7.37293041916092
 30
0.0
 40
0.069999999999998
 50
293.871972157094
 51
22.4164756211438
  0
LINE
  8
9
  6
CONTINUOUS
 62
9
 10
12.2104681978582
 20
7.88245531758388
 30
0.0
 11
12.2144888091477
 21
8.03090463031022
 31
0.0
  0
LINE
  8
9
  6
CONTINUOUS
 62
9
 10
12.2104681978582
 20
7.88245531758388
 30
0.0
 11
12.2161444195535
 21
7.93188044284691
 31
0.0
  0
LINE
  8
9
  6
CONTINUOUS
 62
9
 10
11.9775962528027
 20
7.76157372157881
 30
0.0
 11
11.9582518689289
 21
7.69182012667786
 31
0.0
  0
LINE
  8
9
  6
CONTINUOUS
 62
9
 10
11.9775962528027
 20
7.76157372157881
 30
0.0
 11
11.9601734356029
 21
7.71497428015701
 31
0.0
  0
LINE
  8
9
  6
CONTINUOUS
 62
9
 10
11.7551344564158
 20
7.68593625172563
 30
0.0
 11
11.6070447344922
 21
7.67485482471241
 31
0.0
  0
LINE
  8
9
  6
CONTINUOUS
 62
9
 10
11.7551344564158
 20
7.68593625172563
 30
0.0
 11
11.7053883908131
 21
7.68656191700848
 31
0.0
  0
LINE
  8
9
  6
CONTINUOUS
 62
9
 10
11.333345769639
 20
7.44011379212885
 30
0.0
 11
11.3652275641319
 21
7.2950727119344
 31
0.0
  0
LINE
  8
9
  6
CONTINUOUS
 62
9
 10
11.333345769639
 20
7.44011379212885
 30
0.0
 11
11.339750899142
 21
7.39077783347749
 31
0.0
  0
LINE
  8
9
  6
CONTINUOUS
 62
9
 10
9.24163457396015
 20
6.42146218159093
 30
0.0
 11
9.18581930314726
 21
6.46755366380994
 31
0.0
  0
LINE
  8
9
  6
CONTINUOUS
 62
9
 10
9.24163457396015
 20
6.42146218159093
 30
0.0
 11
9.20618045747263
 21
6.45636301430433
 31
0.0
  0
LINE
  8
9
  6
CONTINUOUS
 62
9
 10
9.52914542232645
 20
6.78039313830985
 30
0.0
 11
9.56909807091115
 21
6.8407550059096
 31
0.0
  0
LINE
  8
9
  6
CONTINUOUS
 62
9
 10
9.52914542232645
 20
6.78039313830985
 30
0.0
 11
9.56011552548724
 21
6.81932789412275
 31
0.0
  0
LINE
  8
9
  6
CONTINUOUS
 62
9
 10
9.73051656237528
 20
6.96147406426624
 30
0.0
 11
9.84411409037181
 21
7.05712428850611
 31
0.0
  0
LINE
  8
9
  6
CONTINUOUS
 62
9
 10
9.73051656237528
 20
6.96147406426624
 30
0.0
 11
9.77122065666133
 21
6.99007894511465
 31
0.0
  0
LINE
  8
9
  6
CONTINUOUS
 62
9
 10
11.4375747615196
 20
6.73767710959336
 30
0.0
 11
11.4143407146901
 21
6.8843520659833
 31
0.0
  0
LINE
  8
9
  6
CONTINUOUS
 62
9
 10
11.4375747615196
 20
6.73767710959336
 30
0.0
 11
11.4341033814524
 21
6.78730585147173
 31
0.0
  0
LINE
  8
9
  6
CONTINUOUS
 62
9
 10
11.4282893424549
 20
6.46480851657533
 30
0.0
 11
11.4336928031298
 21
6.34104892050704
 31
0.0
  0
LINE
  8
9
  6
CONTINUOUS
 62
9
 10
11.4282893424549
 20
6.46480851657533
 30
0.0
 11
11.4261192779402
 21
6.41510586755134
 31
0.0
  0
LINE
  8
9
  6
CONTINUOUS
 62
9
 10
11.3532893424627
 20
5.62830851657533
 30
0.0
 11
11.3495459811402
 21
5.7140455861402
 31
0.0
  0
LINE
  8
9
  6
CONTINUOUS
 62
9
 10
11.3532893424627
 20
5.62830851657533
 30
0.0
 11
11.3554594069706
 21
5.67801116559961
 31
0.0
  0
LINE
  8
9
  6
CONTINUOUS
 62
9
 10
11.4082893424549
 20
5.21480851657533
 30
0.0
 11
11.4147669850711
 21
5.06644610924046
 31
0.0
  0
LINE
  8
9
  6
CONTINUOUS
 62
9
 10
11.4082893424549
 20
5.21480851657533
 30
0.0
 11
11.4061192779402
 21
5.16510586755134
 31
0.0
  0
LINE
  8
9
  6
CONTINUOUS
 62
9
 10
12.3522893424549
 20
5.15480851657533
 30
0.0
 11
12.4760489385224
 21
5.16021197726686
 31
0.0
  0
LINE
  8
9
  6
CONTINUOUS
 62
9
 10
12.3522893424549
 20
5.15480851657533
 30
0.0
 11
12.4019919914788
 21
5.15263845205843
 31
0.0
  0
LINE
  8
9
  6
CONTINUOUS
 62
9
 10
12.4772893424627
 20
5.62830851657533
 30
0.0
 11
12.4735459811402
 21
5.7140455861402
 31
0.0
  0
LINE
  8
9
  6
CONTINUOUS
 62
9
 10
12.4772893424627
 20
5.62830851657533
 30
0.0
 11
12.4794594069706
 21
5.67801116559961
 31
0.0
  0
LINE
  8
9
  6
CONTINUOUS
 62
9
 10
12.5322893424549
 20
6.21480851657533
 30
0.0
 11
12.5268858817689
 21
6.33856811264313
 31
0.0
  0
LINE
  8
9
  6
CONTINUOUS
 62
9
 10
12.5322893424549
 20
6.21480851657533
 30
0.0
 11
12.5344594069651
 21
6.26451116559952
 31
0.0
  0
LINE
  8
9
  6
CONTINUOUS
 62
9
 10
12.7640633262546
 20
7.52315874665743
 30
0.0
 11
12.7775213345227
 21
7.59428294227691
 31
0.0
  0
LINE
  8
9
  6
CONTINUOUS
 62
9
 10
12.7640633262546
 20
7.52315874665743
 30
0.0
 11
12.7775380194366
 21
7.57104919605654
 31
0.0
  0
LINE
  8
9
  6
CONTINUOUS
 62
9
 10
13.1542374871655
 20
7.49527528707051
 30
0.0
 11
13.2194271126198
 21
7.46556666318563
 31
0.0
  0
LINE
  8
9
  6
CONTINUOUS
 62
9
 10
13.1542374871655
 20
7.49527528707051
 30
0.0
 11
13.1975376830457
 21
7.4707772149681
 31
0.0
  0
LINE
  8
9
  6
CONTINUOUS
 62
9
 10
13.404187117105
 20
7.38591249848446
 30
0.0
 11
13.5438214051545
 21
7.33535926550201
 31
0.0
  0
LINE
  8
9
  6
CONTINUOUS
 62
9
 10
13.404187117105
 20
7.38591249848446
 30
0.0
 11
13.4493117177274
 21
7.36496415920266
 31
0.0
  0
LINE
  8
9
  6
CONTINUOUS
 62
9
 10
14.2635683116533
 20
6.84673757442526
 30
0.0
 11
14.328078878509
 21
6.81733841537252
 31
0.0
  0
LINE
  8
9
  6
CONTINUOUS
 62
9
 10
14.2635683116533
 20
6.84673757442526
 30
0.0
 11
14.3068685075335
 21
6.82223950232285
 31
0.0
  0
LINE
  8
9
  6
CONTINUOUS
 62
9
 10
14.4762974538265
 20
6.67872987448652
 30
0.0
 11
14.5902205399249
 21
6.58346763528404
 31
0.0
  0
LINE
  8
9
  6
CONTINUOUS
 62
9
 10
14.4762974538265
 20
6.67872987448652
 30
0.0
 11
14.5115359540436
 21
6.64361135227325
 31
0.0
  0
LINE
  8
9
  6
CONTINUOUS
 62
9
 10
15.106320492848
 20
5.88381491807612
 30
0.0
 11
15.1499883383376
 21
5.82891691240606
 31
0.0
  0
LINE
  8
9
  6
CONTINUOUS
 62
9
 10
15.106320492848
 20
5.88381491807612
 30
0.0
 11
15.1337793578795
 21
5.84232909843636
 31
0.0
  0
LINE
  8
9
  6
CONTINUOUS
 62
9
 10
15.2418809234947
 20
5.64751225014126
 30
0.0
 11
15.3163520021333
 21
5.51903103668786
 31
0.0
  0
LINE
  8
9
  6
CONTINUOUS
 62
9
 10
15.2418809234947
 20
5.64751225014126
 30
0.0
 11
15.2629830401157
 21
5.60245935706974
 31
0.0
  0
LINE
  8
9
  6
CONTINUOUS
 62
9
 10
15.559595283251
 20
4.68431098323042
 30
0.0
 11
15.5848180943875
 21
4.61684951048764
 31
0.0
  0
LINE
  8
9
  6
CONTINUOUS
 62
9
 10
15.559595283251
 20
4.68431098323042
 30
0.0
 11
15.572890392475
 21
4.63637036818721
 31
0.0
  0
LINE
  8
9
  6
CONTINUOUS
 62
9
 10
15.6085968608591
 20
4.41663969009595
 30
0.0
 11
15.6346336208775
 21
4.27043623291451
 31
0.0
  0
LINE
  8
9
  6
CONTINUOUS
 62
9
 10
15.6085968608591
 20
4.41663969009595
 30
0.0
 11
15.6130173671851
 21
4.36708646998039
 31
0.0
  0
LINE
  8
9
  6
CONTINUOUS
 62
9
 10
15.5977270422109
 20
3.39933345170609
 30
0.0
 11
15.5783826583371
 21
3.32957985680514
 31
0.0
  0
LINE
  8
9
  6
CONTINUOUS
 62
9
 10
15.5977270422109
 20
3.39933345170609
 30
0.0
 11
15.5803042250112
 21
3.35273401028429
 31
0.0
  0
LINE
  8
9
  6
CONTINUOUS
 62
9
 10
15.5322139117226
 20
3.13457359083635
 30
0.0
 11
15.5066759356012
 21
2.98828218459632
 31
0.0
  0
LINE
  8
9
  6
CONTINUOUS
 62
9
 10
15.5322139117226
 20
3.13457359083635
 30
0.0
 11
15.5194196294512
 21
3.08649689335036
 31
0.0
  0
LINE
  8
9
  6
CONTINUOUS
 62
9
 10
15.1720254336097
 20
2.18386957805085
 30
0.0
 11
15.1333084339548
 21
2.12537457233262
 31
0.0
  0
LINE
  8
9
  6
CONTINUOUS
 62
9
 10
15.1720254336097
 20
2.18386957805085
 30
0.0
 11
15.1410553304519
 21
2.14493482223554
 31
0.0
  0
LINE
  8
9
  6
CONTINUOUS
 62
9
 10
15.0219449870435
 20
1.9559500452136
 30
0.0
 11
14.947912531603
 21
1.8272155925387
 31
0.0
  0
LINE
  8
9
  6
CONTINUOUS
 62
9
 10
15.0219449870435
 20
1.9559500452136
 30
0.0
 11
14.99347909544
 21
1.91514862961047
 31
0.0
  0
LINE
  8
9
  6
CONTINUOUS
 62
9
 10
14.3628423428286
 20
1.17809243928608
 30
0.0
 11
14.3011395637229
 21
1.14318268649845
 31
0.0
  0
LINE
  8
9
  6
CONTINUOUS
 62
9
 10
14.3628423428286
 20
1.17809243928608
 30
0.0
 11
14.3175717696104
 21
1.15746145044655
 31
0.0
  0
LINE
  8
9
  6
CONTINUOUS
 62
9
 10
14.1393360499053
 20
1.02292844746077
 30
0.0
 11
14.0257385218744
 21
0.927278223261689
 31
0.0
  0
LINE
  8
9
  6
CONTINUOUS
 62
9
 10
14.1393360499053
 20
1.02292844746077
 30
0.0
 11
14.0986319556089
 21
0.994323566626969
 31
0.0
  0
LINE
  8
9
  6
CONTINUOUS
 62
9
 10
13.2535845687247
 20
0.51993102986986
 30
0.0
 11
13.1841140317019
 21
0.505797089342763
 31
0.0
  0
LINE
  8
9
  6
CONTINUOUS
 62
9
 10
13.2535845687247
 20
0.51993102986986
 30
0.0
 11
13.2041543689069
 21
0.514299169965922
 31
0.0
  0
LINE
  8
9
  6
CONTINUOUS
 62
9
 10
12.9908427640474
 20
0.448044972199098
 30
0.0
 11
12.8513817018275
 21
0.39701580516155
 31
0.0
  0
LINE
  8
9
  6
CONTINUOUS
 62
9
 10
12.9908427640474
 20
0.448044972199098
 30
0.0
 11
12.9428099815588
 21
0.435086796926387
 31
0.0
  0
LINE
  8
9
  6
CONTINUOUS
 62
9
 10
11.9869158489424
 20
0.303675631770758
 30
0.0
 11
11.9174453119196
 21
0.289541691243662
 31
0.0
  0
LINE
  8
9
  6
CONTINUOUS
 62
9
 10
11.9869158489424
 20
0.303675631770758
 30
0.0
 11
11.9374856491247
 21
0.298043771866822
 31
0.0
  0
LINE
  8
9
  6
CONTINUOUS
 62
9
 10
11.7149903696986
 20
0.300639050885729
 30
0.0
 11
11.5664868356196
 21
0.300385811637713
 31
0.0
  0
LINE
  8
9
  6
CONTINUOUS
 62
9
 10
11.7149903696986
 20
0.300639050885729
 30
0.0
 11
11.6654223614734
 21
0.304890528345264
 31
0.0
  0
LINE
  8
9
  6
CONTINUOUS
 62
9
 10
10.7096298894545
 20
0.479360207680883
 30
0.0
 11
10.6492680218591
 21
0.519312856272079
 31
0.0
  0
LINE
  8
9
  6
CONTINUOUS
 62
9
 10
10.7096298894545
 20
0.479360207680883
 30
0.0
 11
10.670695133645
 21
0.510330310845865
 31
0.0
  0
LINE
  8
9
  6
CONTINUOUS
 62
9
 10
10.4656654951838
 20
0.598490013180874
 30
0.0
 11
10.3260312071252
 21
0.649043246138223
 31
0.0
  0
LINE
  8
9
  6
CONTINUOUS
 62
9
 10
10.4656654951838
 20
0.598490013180874
 30
0.0
 11
10.4205408945576
 21
0.619438352454561
 31
0.0
  0
LINE
  8
9
  6
CONTINUOUS
 62
9
 10
9.58414914779714
 20
1.11174800315537
 30
0.0
 11
9.53908764766768
 21
1.16839807283886
 31
0.0
  0
LINE
  8
9
  6
CONTINUOUS
 62
9
 10
9.58414914779714
 20
1.11174800315537
 30
0.0
 11
9.55669028276813
 21
1.15323382279677
 31
0.0
  0
LINE
  8
9
  6
CONTINUOUS
 62
9
 10
9.39355515845179
 20
1.3056726371855
 30
0.0
 11
9.27963207233622
 21
1.4009348763675
 31
0.0
  0
LINE
  8
9
  6
CONTINUOUS
 62
9
 10
9.39355515845179
 20
1.3056726371855
 30
0.0
 11
9.35831665822829
 21
1.34079115939244
 31
0.0
  0
LINE
  8
9
  6
CONTINUOUS
 62
9
 10
8.74318203662051
 20
2.09021870851549
 30
0.0
 11
8.71783183755185
 21
2.15802089576813
 31
0.0
  0
LINE
  8
9
  6
CONTINUOUS
 62
9
 10
8.74318203662051
 20
2.09021870851549
 30
0.0
 11
8.7298869273985
 21
2.13815932355926
 31
0.0
  0
LINE
  8
9
  6
CONTINUOUS
 62
9
 10
8.62797168877595
 20
2.33689026154065
 30
0.0
 11
8.55350061011427
 21
2.46537147498069
 31
0.0
  0
LINE
  8
9
  6
CONTINUOUS
 62
9
 10
8.62797168877595
 20
2.33689026154065
 30
0.0
 11
8.60686957214688
 21
2.38194315460838
 31
0.0
  0
LINE
  8
9
  6
CONTINUOUS
 62
9
 10
8.31025732904389
 20
3.30009152846457
 30
0.0
 11
8.28490712997523
 21
3.36789371571721
 31
0.0
  0
LINE
  8
9
  6
CONTINUOUS
 62
9
 10
8.31025732904389
 20
3.30009152846457
 30
0.0
 11
8.29696221982188
 21
3.34803214350834
 31
0.0
  0
LINE
  8
9
  6
CONTINUOUS
 62
9
 10
8.26125575140781
 20
3.56776282159785
 30
0.0
 11
8.23521899136316
 21
3.71396627877462
 31
0.0
  0
LINE
  8
9
  6
CONTINUOUS
 62
9
 10
8.26125575140781
 20
3.56776282159785
 30
0.0
 11
8.25683524507287
 21
3.61731604171262
 31
0.0
  0
LINE
  8
9
  6
CONTINUOUS
 62
9
 10
8.29468381067524
 20
4.58149618568267
 30
0.0
 11
8.29152636677718
 21
4.6538135400113
 31
0.0
  0
LINE
  8
9
  6
CONTINUOUS
 62
9
 10
8.29468381067524
 20
4.58149618568267
 30
0.0
 11
8.29685387518322
 21
4.63119883470695
 31
0.0
  0
LINE
  8
9
  6
CONTINUOUS
 62
9
 10
8.33763870054477
 20
4.84982892086991
 30
0.0
 11
8.36317667661358
 21
4.99612032711912
 31
0.0
  0
LINE
  8
9
  6
CONTINUOUS
 62
9
 10
8.33763870054477
 20
4.84982892086991
 30
0.0
 11
8.35043298279892
 21
4.8979056183605
 31
0.0
  0
LINE
  8
9
  6
CONTINUOUS
 62
9
 10
8.71817726151859
 20
5.79016404855078
 30
0.0
 11
8.73752164539903
 21
5.85991764344989
 31
0.0
  0
LINE
  8
9
  6
CONTINUOUS
 62
9
 10
8.71817726151859
 20
5.79016404855078
 30
0.0
 11
8.7356000787228
 21
5.83676348997092
 31
0.0
  0
LINE
  8
9
  6
CONTINUOUS
 62
9
 10
10.6189421667504
 20
7.45333295720039
 30
0.0
 11
10.6867443540031
 21
7.47868315626874
 31
0.0
  0
LINE
  8
9
  6
CONTINUOUS
 62
9
 10
10.6189421667504
 20
7.45333295720039
 30
0.0
 11
10.6668827817942
 21
7.46662806642218
 31
0.0
  0
LINE
  8
9
  6
CONTINUOUS
 62
9
 10
11.2882893424549
 20
3.21480851657533
 30
0.0
 11
11.2947669850711
 21
3.06644610924046
 31
0.0
  0
LINE
  8
9
  6
CONTINUOUS
 62
9
 10
11.2882893424549
 20
3.21480851657533
 30
0.0
 11
11.2861192779402
 21
3.16510586755134
 31
0.0
  0
LINE
  8
9
  6
CONTINUOUS
 62
9
 10
11.3532893424627
 20
2.12830851657533
 30
0.0
 11
11.3495459811402
 21
2.2140455861402
 31
0.0
  0
LINE
  8
9
  6
CONTINUOUS
 62
9
 10
11.3532893424627
 20
2.12830851657533
 30
0.0
 11
11.3554594069706
 21
2.17801116559961
 31
0.0
  0
LINE
  8
9
  6
CONTINUOUS
 62
9
 10
11.4082893424549
 20
1.71480851657533
 30
0.0
 11
11.4136928031298
 21
1.59104892050705
 31
0.0
  0
LINE
  8
9
  6
CONTINUOUS
 62
9
 10
11.4082893424549
 20
1.71480851657533
 30
0.0
 11
11.4061192779402
 21
1.66510586755134
 31
0.0
  0
LINE
  8
9
  6
CONTINUOUS
 62
9
 10
12.3522893424549
 20
1.59480851657533
 30
0.0
 11
12.4760489385224
 21
1.60021197726686
 31
0.0
  0
LINE
  8
9
  6
CONTINUOUS
 62
9
 10
12.3522893424549
 20
1.59480851657533
 30
0.0
 11
12.4019919914788
 21
1.59263845205843
 31
0.0
  0
LINE
  8
9
  6
CONTINUOUS
 62
9
 10
12.4772893424627
 20
2.12830851657533
 30
0.0
 11
12.4735459811402
 21
2.21404558614021
 31
0.0
  0
LINE
  8
9
  6
CONTINUOUS
 62
9
 10
12.4772893424627
 20
2.12830851657533
 30
0.0
 11
12.4794594069706
 21
2.17801116559961
 31
0.0
  0
LINE
  8
9
  6
CONTINUOUS
 62
9
 10
12.4822893424549
 20
2.71480851657533
 30
0.0
 11
12.4758116998253
 21
2.86317092390962
 31
0.0
  0
LINE
  8
9
  6
CONTINUOUS
 62
9
 10
12.4822893424549
 20
2.71480851657533
 30
0.0
 11
12.4844594069651
 21
2.76451116559952
 31
0.0
  0
LINE
  8
0
  6
CONTINUOUS
 62
0
 10
12.4758116998253
 20
2.86317092390962
 30
0.0
 11
8.03492630593022
 21
8.03090463031022
 31
0.0
  0
LINE
  8
0
  6
CONTINUOUS
 62
0
 10
12.4735459811402
 20
2.21404558614021
 30
0.0
 11
12.4844594069651
 21
2.76451116559952
 31
0.0
  0
LINE
  8
0
  6
CONTINUOUS
 62
0
 10
12.4760489385224
 20
1.60021197726686
 30
0.0
 11
12.4794594069706
 21
2.17801116559961
 31
0.0
  0
LINE
  8
0
  6
CONTINUOUS
 62
0
 10
11.4136928031298
 20
1.59104892050705
 30
0.0
 11
12.4019919914788
 21
1.59263845205843
 31
0.0
  0
LINE
  8
0
  6
CONTINUOUS
 62
0
 10
11.3495459811402
 20
2.2140455861402
 30
0.0
 11
11.4061192779402
 21
1.66510586755134
 31
0.0
  0
LINE
  8
0
  6
CONTINUOUS
 62
0
 10
11.2947669850711
 20
3.06644610924046
 30
0.0
 11
11.3554594069706
 21
2.17801116559961
 31
0.0
  0
LINE
  8
0
  6
CONTINUOUS
 62
0
 10
10.6867443540031
 20
7.47868315626874
 30
0.0
 11
11.2861192779402
 21
3.16510586755134
 31
0.0
  0
LINE
  8
0
  6
CONTINUOUS
 62
0
 10
8.73752164539903
 20
5.85991764344989
 30
0.0
 11
10.6668827817942
 21
7.46662806642218
 31
0.0
  0
LINE
  8
0
  6
CONTINUOUS
 62
0
 10
8.36317667661358
 20
4.99612032711912
 30
0.0
 11
8.7356000787228
 21
5.83676348997092
 31
0.0
  0
LINE
  8
0
  6
CONTINUOUS
 62
0
 10
8.29152636677718
 20
4.6538135400113
 30
0.0
 11
8.35043298279892
 21
4.8979056183605
 31
0.0
  0
LINE
  8
0
  6
CONTINUOUS
 62
0
 10
8.23521899136316
 20
3.71396627877462
 30
0.0
 11
8.29685387518322
 21
4.63119883470695
 31
0.0
  0
LINE
  8
0
  6
CONTINUOUS
 62
0
 10
8.28490712997523
 20
3.36789371571721
 30
0.0
 11
8.25683524507287
 21
3.61731604171262
 31
0.0
  0
LINE
  8
0
  6
CONTINUOUS
 62
0
 10
8.55350061011427
 20
2.46537147498069
 30
0.0
 11
8.29696221982188
 21
3.34803214350834
 31
0.0
  0
LINE
  8
0
  6
CONTINUOUS
 62
0
 10
8.71783183755185
 20
2.15802089576813
 30
0.0
 11
8.60686957214688
 21
2.38194315460838
 31
0.0
  0
LINE
  8
0
  6
CONTINUOUS
 62
0
 10
9.27963207233622
 20
1.4009348763675
 30
0.0
 11
8.7298869273985
 21
2.13815932355926
 31
0.0
  0
LINE
  8
0
  6
CONTINUOUS
 62
0
 10
9.53908764766768
 20
1.16839807283886
 30
0.0
 11
9.35831665822829
 21
1.34079115939244
 31
0.0
  0
LINE
  8
0
  6
CONTINUOUS
 62
0
 10
10.3260312071252
 20
0.649043246138223
 30
0.0
 11
9.55669028276813
 21
1.15323382279677
 31
0.0
  0
LINE
  8
0
  6
CONTINUOUS
 62
0
 10
10.6492680218591
 20
0.519312856272079
 30
0.0
 11
10.4205408945576
 21
0.619438352454561
 31
0.0
  0
LINE
  8
0
  6
CONTINUOUS
 62
0
 10
11.5664868356196
 20
0.300385811637713
 30
0.0
 11
10.670695133645
 21
0.510330310845865
 31
0.0
  0
LINE
  8
0
  6
CONTINUOUS
 62
0
 10
11.9174453119196
 20
0.289541691243662
 30
0.0
 11
11.6654223614734
 21
0.304890528345264
 31
0.0
  0
LINE
  8
0
  6
CONTINUOUS
 62
0
 10
12.8513817018275
 20
0.39701580516155
 30
0.0
 11
11.9374856491247
 21
0.298043771866822
 31
0.0
  0
LINE
  8
0
  6
CONTINUOUS
 62
0
 10
13.1841140317019
 20
0.505797089342763
 30
0.0
 11
12.9428099815588
 21
0.435086796926387
 31
0.0
  0
LINE
  8
0
  6
CONTINUOUS
 62
0
 10
14.0257385218744
 20
0.927278223261689
 30
0.0
 11
13.2041543689069
 21
0.514299169965922
 31
0.0
  0
LINE
  8
0
  6
CONTINUOUS
 62
0
 10
14.3011395637229
 20
1.14318268649845
 30
0.0
 11
14.0986319556089
 21
0.994323566626969
 31
0.0
  0
LINE
  8
0
  6
CONTINUOUS
 62
0
 10
14.947912531603
 20
1.8272155925387
 30
0.0
 11
14.3175717696104
 21
1.15746145044655
 31
0.0
  0
LINE
  8
0
  6
CONTINUOUS
 62
0
 10
15.1333084339548
 20
2.12537457233262
 30
0.0
 11
14.99347909544
 21
1.91514862961047
 31
0.0
  0
LINE
  8
0
  6
CONTINUOUS
 62
0
 10
15.5066759356012
 20
2.98828218459632
 30
0.0
 11
15.1410553304519
 21
2.14493482223554
 31
0.0
  0
LINE
  8
0
  6
CONTINUOUS
 62
0
 10
15.5783826583371
 20
3.32957985680514
 30
0.0
 11
15.5194196294512
 21
3.08649689335036
 31
0.0
  0
LINE
  8
0
  6
CONTINUOUS
 62
0
 10
15.6346336208775
 20
4.27043623291451
 30
0.0
 11
15.5803042250112
 21
3.35273401028429
 31
0.0
  0
LINE
  8
0
  6
CONTINUOUS
 62
0
 10
15.5848180943875
 20
4.61684951048764
 30
0.0
 11
15.6130173671851
 21
4.36708646998039
 31
0.0
  0
LINE
  8
0
  6
CONTINUOUS
 62
0
 10
15.3163520021333
 20
5.51903103668786
 30
0.0
 11
15.572890392475
 21
4.63637036818721
 31
0.0
  0
LINE
  8
0
  6
CONTINUOUS
 62
0
 10
15.1499883383376
 20
5.82891691240606
 30
0.0
 11
15.2629830401157
 21
5.60245935706974
 31
0.0
  0
LINE
  8
0
  6
CONTINUOUS
 62
0
 10
14.5902205399249
 20
6.58346763528404
 30
0.0
 11
15.1337793578795
 21
5.84232909843636
 31
0.0
  0
LINE
  8
0
  6
CONTINUOUS
 62
0
 10
14.328078878509
 20
6.81733841537252
 30
0.0
 11
14.5115359540436
 21
6.64361135227325
 31
0.0
  0
LINE
  8
0
  6
CONTINUOUS
 62
0
 10
13.5438214051545
 20
7.33535926550201
 30
0.0
 11
14.3068685075335
 21
6.82223950232285
 31
0.0
  0
LINE
  8
0
  6
CONTINUOUS
 62
0
 10
13.2194271126198
 20
7.46556666318563
 30
0.0
 11
13.4493117177274
 21
7.36496415920266
 31
0.0
  0
LINE
  8
0
  6
CONTINUOUS
 62
0
 10
12.7775213345227
 20
7.59428294227691
 30
0.0
 11
13.1975376830457
 21
7.4707772149681
 31
0.0
  0
LINE
  8
0
  6
CONTINUOUS
 62
0
 10
12.5268858817689
 20
6.33856811264313
 30
0.0
 11
12.7775380194366
 21
7.57104919605654
 31
0.0
  0
LINE
  8
0
  6
CONTINUOUS
 62
0
 10
12.4735459811402
 20
5.7140455861402
 30
0.0
 11
12.5344594069651
 21
6.26451116559952
 31
0.0
  0
LINE
  8
0
  6
CONTINUOUS
 62
0
 10
12.4760489385224
 20
5.16021197726686
 30
0.0
 11
12.4794594069706
 21
5.67801116559961
 31
0.0
  0
LINE
  8
0
  6
CONTINUOUS
 62
0
 10
11.4147669850711
 20
5.06644610924046
 30
0.0
 11
12.4019919914788
 21
5.15263845205843
 31
0.0
  0
LINE
  8
0
  6
CONTINUOUS
 62
0
 10
11.3495459811402
 20
5.7140455861402
 30
0.0
 11
11.4061192779402
 21
5.16510586755134
 31
0.0
  0
LINE
  8
0
  6
CONTINUOUS
 62
0
 10
11.4336928031298
 20
6.34104892050704
 30
0.0
 11
11.3554594069706
 21
5.67801116559961
 31
0.0
  0
LINE
  8
0
  6
CONTINUOUS
 62
0
 10
11.4143407146901
 20
6.8843520659833
 30
0.0
 11
11.4261192779402
 21
6.41510586755134
 31
0.0
  0
LINE
  8
0
  6
CONTINUOUS
 62
0
 10
9.84411409037181
 20
7.05712428850611
 30
0.0
 11
11.4341033814524
 21
6.78730585147173
 31
0.0
  0
LINE
  8
0
  6
CONTINUOUS
 62
0
 10
9.56909807091115
 20
6.8407550059096
 30
0.0
 11
9.77122065666133
 21
6.99007894511465
 31
0.0
  0
LINE
  8
0
  6
CONTINUOUS
 62
0
 10
9.18581930314726
 20
6.46755366380994
 30
0.0
 11
9.56011552548724
 21
6.81932789412275
 31
0.0
  0
LINE
  8
0
  6
CONTINUOUS
 62
0
 10
11.3652275641319
 20
7.2950727119344
 30
0.0
 11
9.20618045747263
 21
6.45636301430433
 31
0.0
  0
LINE
  8
0
  6
CONTINUOUS
 62
0
 10
11.6070447344922
 20
7.67485482471241
 30
0.0
 11
11.339750899142
 21
7.39077783347749
 31
0.0
  0
LINE
  8
0
  6
CONTINUOUS
 62
0
 10
11.9582518689289
 20
7.69182012667786
 30
0.0
 11
11.7053883908131
 21
7.68656191700848
 31
0.0
  0
LINE
  8
0
  6
CONTINUOUS
 62
0
 10
12.2144888091477
 20
8.03090463031022
 30
0.0
 11
11.9601734356029
 21
7.71497428015701
 31
0.0
  0
ARC
  8
5
  6
CONTINUOUS
 62
5
 10
11.9550380122395
 20
7.69214659589025
 30
0.0
 40
0.0729999999909767
 50
9.00261727586675E-9
 51
72.0000000295822
  0
ARC
  8
5
  6
CONTINUOUS
 62
5
 10
11.9550380089963
 20
7.69214659579726
 30
0.0
 40
0.199999996769438
 50
181.779418585384
 51
182.416475619755
  0
ARC
  8
5
  6
CONTINUOUS
 62
5
 10
11.9550380089952
 20
7.6921465958331
 30
0.0
 40
0.199999996769444
 50
181.142361561286
 51
181.779418595656
  0
ARC
  8
5
  6
CONTINUOUS
 62
5
 10
11.9349263069682
 20
3.99220125660219
 30
0.0
 40
3.49999999936224
 50
359.999999997964
 51
99.8971531905943
  0
ARC
  8
5
  6
CONTINUOUS
 62
5
 10
11.934926299466
 20
3.99220126209866
 30
0.0
 40
3.62699999085341
 50
133.871972155713
 51
137.950574982781
  0
ARC
  8
5
  6
CONTINUOUS
 62
5
 10
9.57205374573972
 20
6.83945137889806
 30
0.0
 40
0.0729999999966593
 50
234.000000002057
 51
5.14444541951743E-9
  0
ARC
  8
5
  6
CONTINUOUS
 62
5
 10
9.57205374572352
 20
6.83945137889805
 30
0.0
 40
0.0729999999871355
 50
180.000000005144
 51
234.000000012347
  0
ARC
  8
5
  6
CONTINUOUS
 62
5
 10
9.57205374830172
 20
6.83945138086835
 30
0.0
 40
0.199999996769332
 50
37.5977049262153
 51
38.2347619502956
  0
ARC
  8
5
  6
CONTINUOUS
 62
5
 10
9.57205374832369
 20
6.83945138084011
 30
0.0
 40
0.199999996769151
 50
36.9606478918025
 51
37.5977049364623
  0
ARC
  8
5
  6
CONTINUOUS
 62
5
 10
11.9152893416749
 20
2.54557774923163
 30
0.0
 40
4.21923076724159
 50
96.5011494191969
 51
118.068536950492
  0
ARC
  8
5
  6
CONTINUOUS
 62
5
 10
11.9152893435867
 20
2.5455777518081
 30
0.0
 40
4.21923076489819
 50
61.9314630578409
 51
96.5011494489531
  0
LINE
  8
5
  6
CONTINUOUS
 62
5
 10
11.4282893424549
 20
6.46480851657533
 30
0.0
 11
11.4782893424549
 21
6.46480851657533
 31
0.0
  0
LINE
  8
5
  6
CONTINUOUS
 62
5
 10
11.2282893424549
 20
6.46480851657533
 30
0.0
 11
11.4282893424549
 21
6.46480851657533
 31
0.0
  0
ARC
  8
5
  6
CONTINUOUS
 62
5
 10
11.3532893424627
 20
5.71480851656756
 30
0.0
 40
0.0864999999922323
 50
269.999999999999
 51
5.14436272509571E-9
  0
ARC
  8
5
  6
CONTINUOUS
 62
5
 10
11.3532893424471
 20
5.71480851656756
 30
0.0
 40
0.0864999999922323
 50
180.000000005142
 51
270.000000010287
  0
LINE
  8
5
  6
CONTINUOUS
 62
5
 10
11.4082893424549
 20
5.21480851657533
 30
0.0
 11
11.4782893424549
 21
5.21480851657533
 31
0.0
  0
LINE
  8
5
  6
CONTINUOUS
 62
5
 10
11.2282893424549
 20
5.21480851657533
 30
0.0
 11
11.4082893424549
 21
5.21480851657533
 31
0.0
  0
LINE
  8
5
  6
CONTINUOUS
 62
5
 10
12.3522893424549
 20
5.15480851657533
 30
0.0
 11
12.3522893424549
 21
5.21480851657533
 31
0.0
  0
LINE
  8
5
  6
CONTINUOUS
 62
5
 10
12.3522893424549
 20
5.15480851657533
 30
0.0
 11
12.3522893424549
 21
4.71480851657533
 31
0.0
  0
ARC
  8
5
  6
CONTINUOUS
 62
5
 10
12.4772893424627
 20
5.71480851656756
 30
0.0
 40
0.0864999999922332
 50
269.999999999998
 51
5.14377114192496E-9
  0
ARC
  8
5
  6
CONTINUOUS
 62
5
 10
12.4772893424471
 20
5.71480851656756
 30
0.0
 40
0.0864999999922323
 50
180.000000005142
 51
270.000000010287
  0
LINE
  8
5
  6
CONTINUOUS
 62
5
 10
12.5322893424549
 20
6.21480851657533
 30
0.0
 11
12.3522893424549
 21
6.21480851657533
 31
0.0
  0
LINE
  8
5
  6
CONTINUOUS
 62
5
 10
12.6022893424549
 20
6.21480851657533
 30
0.0
 11
12.5322893424549
 21
6.21480851657533
 31
0.0
  0
ARC
  8
5
  6
CONTINUOUS
 62
5
 10
11.9349263098711
 20
3.99220126813201
 30
0.0
 40
3.62699998719214
 50
73.8719721659763
 51
76.7852599054758
  0
ARC
  8
5
  6
CONTINUOUS
 62
5
 10
13.2192809634092
 20
7.4621339806063
 30
0.0
 40
0.072999999972693
 50
153.000000014147
 51
180.000000014147
  0
ARC
  8
5
  6
CONTINUOUS
 62
5
 10
13.2192809664217
 20
7.46213397936188
 30
0.0
 40
0.199999996769167
 50
337.59770490553
 51
338.2347619399
  0
ARC
  8
5
  6
CONTINUOUS
 62
5
 10
13.2192809664079
 20
7.46213397932845
 30
0.0
 40
0.19999999676916
 50
336.960647881517
 51
337.597704915887
  0
ARC
  8
5
  6
CONTINUOUS
 62
5
 10
14.3286117878969
 20
6.81359626796105
 30
0.0
 40
0.0729999999726941
 50
153.000000014147
 51
180.000000014148
  0
ARC
  8
5
  6
CONTINUOUS
 62
5
 10
14.3286117903053
 20
6.81359626577129
 30
0.0
 40
0.19999999676964
 50
317.597704905505
 51
318.234761939875
  0
ARC
  8
5
  6
CONTINUOUS
 62
5
 10
14.3286117902811
 20
6.81359626574466
 30
0.0
 40
0.199999996769559
 50
316.960647881443
 51
317.597704915813
  0
ARC
  8
5
  6
CONTINUOUS
 62
5
 10
15.1492288162618
 20
5.82475667750005
 30
0.0
 40
0.0729999999871354
 50
126.000000014147
 51
180.000000014147
  0
ARC
  8
5
  6
CONTINUOUS
 62
5
 10
15.1492288177646
 20
5.82475667462776
 30
0.0
 40
0.199999996769432
 50
297.597704905685
 51
298.234761940055
  0
ARC
  8
5
  6
CONTINUOUS
 62
5
 10
15.1492288177328
 20
5.82475667461142
 30
0.0
 40
0.199999996769667
 50
296.960647881546
 51
297.597704915917
  0
ARC
  8
5
  6
CONTINUOUS
 62
5
 10
15.5821535238423
 20
4.61488385755098
 30
0.0
 40
0.0729999999909775
 50
108.000000014148
 51
180.000000014147
  0
ARC
  8
5
  6
CONTINUOUS
 62
5
 10
15.5821535242713
 20
4.61488385434262
 30
0.0
 40
0.199999996769389
 50
277.597704905534
 51
278.234761939904
  0
ARC
  8
5
  6
CONTINUOUS
 62
5
 10
15.5821535242357
 20
4.61488385433782
 30
0.0
 40
0.19999999676934
 50
276.960647881454
 51
277.597704915823
  0
ARC
  8
5
  6
CONTINUOUS
 62
5
 10
15.5751688016477
 20
3.32990632601753
 30
0.0
 40
0.0729999999909778
 50
9.0008234430264E-9
 51
72.0000000295815
  0
ARC
  8
5
  6
CONTINUOUS
 62
5
 10
15.5751688009312
 20
3.32990632286277
 30
0.0
 40
0.199999996769567
 50
257.597704905563
 51
258.234761939932
  0
ARC
  8
5
  6
CONTINUOUS
 62
5
 10
15.5751688008961
 20
3.32990632287072
 30
0.0
 40
0.199999996769801
 50
256.96064788149
 51
257.597704915859
  0
ARC
  8
5
  6
CONTINUOUS
 62
5
 10
15.1291171102198
 20
2.12481133745744
 30
0.0
 40
0.0729999999871303
 50
9.00221016486752E-9
 51
54.0000000295824
  0
ARC
  8
5
  6
CONTINUOUS
 62
5
 10
15.1291171084632
 20
2.124811334733
 30
0.0
 40
0.199999996769387
 50
237.597704905573
 51
238.234761939943
  0
ARC
  8
5
  6
CONTINUOUS
 62
5
 10
15.1291171084329
 20
2.12481133475247
 30
0.0
 40
0.1999999967696
 50
236.960647881516
 51
237.597704915886
  0
ARC
  8
5
  6
CONTINUOUS
 62
5
 10
14.2977988665983
 20
1.14495113279559
 30
0.0
 40
0.0729999999726958
 50
9.00040838064047E-9
 51
27.0000000295805
  0
ARC
  8
5
  6
CONTINUOUS
 62
5
 10
14.2977988640007
 20
1.14495113083018
 30
0.0
 40
0.199999996769308
 50
217.597704905634
 51
218.234761940004
  0
ARC
  8
5
  6
CONTINUOUS
 62
5
 10
14.2977988639788
 20
1.14495113085866
 30
0.0
 40
0.199999996769347
 50
216.960647881555
 51
217.597704915925
  0
ARC
  8
5
  6
CONTINUOUS
 62
5
 10
13.1814833199474
 20
0.508511313910674
 30
0.0
 40
0.0729999999167095
 50
9.0037105915385E-9
 51
9.00000002958307
  0
ARC
  8
5
  6
CONTINUOUS
 62
5
 10
13.1814833167774
 20
0.508511312940925
 30
0.0
 40
0.199999996769788
 50
197.597704905534
 51
198.234761939904
  0
ARC
  8
5
  6
CONTINUOUS
 62
5
 10
13.1814833167666
 20
0.508511312975089
 30
0.0
 40
0.19999999676983
 50
196.960647881427
 51
197.597704915798
  0
ARC
  8
5
  6
CONTINUOUS
 62
5
 10
11.9148146001651
 20
0.292255915811572
 30
0.0
 40
0.0729999999167199
 50
9.00297111257506E-9
 51
9.00000002958244
  0
ARC
  8
5
  6
CONTINUOUS
 62
5
 10
11.9148145968481
 20
0.292255915918554
 30
0.0
 40
0.199999996769481
 50
177.597704915881
 51
178.23476193996
  0
ARC
  8
5
  6
CONTINUOUS
 62
5
 10
11.9148145968494
 20
0.292255915954233
 30
0.0
 40
0.199999996769264
 50
176.960647881449
 51
177.597704926108
  0
ARC
  8
5
  6
CONTINUOUS
 62
5
 10
10.6505716488845
 20
0.522268531090622
 30
0.0
 40
0.0729999999798262
 50
323.999999995881
 51
5.14302053102014E-9
  0
ARC
  8
5
  6
CONTINUOUS
 62
5
 10
10.6505716488622
 20
0.52226853109062
 30
0.0
 40
0.0729999999978702
 50
180
 51
324.000000006172
  0
ARC
  8
5
  6
CONTINUOUS
 62
5
 10
10.6505716458672
 20
0.52226853230355
 30
0.0
 40
0.199999996769251
 50
157.597704915857
 51
158.234761939938
  0
ARC
  8
5
  6
CONTINUOUS
 62
5
 10
10.6505716458808
 20
0.522268532336916
 30
0.0
 40
0.199999996769142
 50
156.960647881523
 51
157.597704926183
  0
ARC
  8
5
  6
CONTINUOUS
 62
5
 10
9.54124082438947
 20
1.17080624373587
 30
0.0
 40
0.0729999999871353
 50
305.999999997941
 51
5.14438498897848E-9
  0
ARC
  8
5
  6
CONTINUOUS
 62
5
 10
9.54124082437327
 20
1.17080624373587
 30
0.0
 40
0.0729999999966613
 50
180.000000005143
 51
306.000000008231
  0
ARC
  8
5
  6
CONTINUOUS
 62
5
 10
9.5412408219729
 20
1.17080624590074
 30
0.0
 40
0.199999996769613
 50
137.597704915789
 51
138.23476193987
  0
ARC
  8
5
  6
CONTINUOUS
 62
5
 10
9.54124082199725
 20
1.17080624592725
 30
0.0
 40
0.199999996769718
 50
136.960647881443
 51
137.597704926103
  0
ARC
  8
5
  6
CONTINUOUS
 62
5
 10
8.72062379603517
 20
2.15964583419687
 30
0.0
 40
0.0729999999909779
 50
287.999999998969
 51
5.14289330883288E-9
  0
ARC
  8
5
  6
CONTINUOUS
 62
5
 10
8.72062379602139
 20
2.15964583419687
 30
0.0
 40
0.0729999999952373
 50
180.000000005144
 51
288.00000000926
  0
ARC
  8
5
  6
CONTINUOUS
 62
5
 10
8.72062379450597
 20
2.15964583705401
 30
0.0
 40
0.199999996769513
 50
117.597704915931
 51
118.234761940011
  0
ARC
  8
5
  6
CONTINUOUS
 62
5
 10
8.72062379453779
 20
2.15964583707066
 30
0.0
 40
0.199999996769492
 50
116.960647881562
 51
117.597704926222
  0
ARC
  8
5
  6
CONTINUOUS
 62
5
 10
8.28769908845855
 20
3.36951865414594
 30
0.0
 40
0.0729999999909725
 50
287.999999998969
 51
5.14372661415942E-9
  0
ARC
  8
5
  6
CONTINUOUS
 62
5
 10
8.28769908844477
 20
3.36951865414593
 30
0.0
 40
0.0729999999952328
 50
180.000000005143
 51
288.000000009259
  0
ARC
  8
5
  6
CONTINUOUS
 62
5
 10
8.28769908799568
 20
3.36951865735076
 30
0.0
 40
0.199999996769815
 50
97.597704915828
 51
98.2347619399082
  0
ARC
  8
5
  6
CONTINUOUS
 62
5
 10
8.28769908803126
 20
3.36951865735559
 30
0.0
 40
0.199999996769739
 50
96.9606478814542
 51
97.597704926114
  0
ARC
  8
5
  6
CONTINUOUS
 62
5
 10
8.29468381067525
 20
4.65449618567611
 30
0.0
 40
0.0729999999934398
 50
269.999999999999
 51
5.14485253051666E-9
  0
ARC
  8
5
  6
CONTINUOUS
 62
5
 10
8.29468381066214
 20
4.65449618567611
 30
0.0
 40
0.072999999993441
 50
180.000000005144
 51
270.000000010289
  0
ARC
  8
5
  6
CONTINUOUS
 62
5
 10
8.29468381137124
 20
4.65449618883564
 30
0.0
 40
0.199999996769706
 50
77.5977049261363
 51
78.2347619502162
  0
ARC
  8
5
  6
CONTINUOUS
 62
5
 10
8.29468381140638
 20
4.65449618882798
 30
0.0
 40
0.199999996769643
 50
76.9606478917805
 51
77.5977049364399
  0
ARC
  8
5
  6
CONTINUOUS
 62
5
 10
8.74073550210524
 20
5.8595911742362
 30
0.0
 40
0.0729999999952371
 50
252.000000001027
 51
5.14389836411222E-9
  0
ARC
  8
5
  6
CONTINUOUS
 62
5
 10
8.74073550209146
 20
5.8595911742362
 30
0.0
 40
0.0729999999909771
 50
180.000000005143
 51
252.000000011317
  0
ARC
  8
5
  6
CONTINUOUS
 62
5
 10
10.6883692924318
 20
7.47589119778541
 30
0.0
 40
0.0729999999909778
 50
197.999999998711
 51
270.000000009001
  0
LINE
  8
5
  6
CONTINUOUS
 62
5
 10
11.2882893424549
 20
3.21480851657533
 30
0.0
 11
11.4782893424549
 21
3.21480851657533
 31
0.0
  0
LINE
  8
5
  6
CONTINUOUS
 62
5
 10
11.2282893424549
 20
3.21480851657533
 30
0.0
 11
11.2882893424549
 21
3.21480851657533
 31
0.0
  0
ARC
  8
5
  6
CONTINUOUS
 62
5
 10
11.3532893424627
 20
2.21480851656756
 30
0.0
 40
0.0864999999922334
 50
269.999999999999
 51
5.14391744744031E-9
  0
ARC
  8
5
  6
CONTINUOUS
 62
5
 10
11.3532893424471
 20
2.21480851656756
 30
0.0
 40
0.0864999999922336
 50
180.000000005143
 51
270.000000010288
  0
LINE
  8
5
  6
CONTINUOUS
 62
5
 10
11.4082893424549
 20
1.71480851657533
 30
0.0
 11
11.4782893424549
 21
1.71480851657533
 31
0.0
  0
LINE
  8
5
  6
CONTINUOUS
 62
5
 10
11.2282893424549
 20
1.71480851657533
 30
0.0
 11
11.4082893424549
 21
1.71480851657533
 31
0.0
  0
LINE
  8
5
  6
CONTINUOUS
 62
5
 10
12.3522893424549
 20
1.59480851657533
 30
0.0
 11
12.3522893424549
 21
1.71480851657533
 31
0.0
  0
LINE
  8
5
  6
CONTINUOUS
 62
5
 10
12.3522893424549
 20
1.46480851657533
 30
0.0
 11
12.3522893424549
 21
1.59480851657533
 31
0.0
  0
ARC
  8
5
  6
CONTINUOUS
 62
5
 10
12.4772893424627
 20
2.21480851656756
 30
0.0
 40
0.086499999992233
 50
269.999999999998
 51
5.14362483640961E-9
  0
ARC
  8
5
  6
CONTINUOUS
 62
5
 10
12.4772893424471
 20
2.21480851656756
 30
0.0
 40
0.0864999999922323
 50
180.000000005142
 51
270.000000010287
  0
LINE
  8
5
  6
CONTINUOUS
 62
5
 10
12.4822893424549
 20
2.71480851657533
 30
0.0
 11
12.3522893424549
 21
2.71480851657533
 31
0.0
  0
LINE
  8
5
  6
CONTINUOUS
 62
5
 10
12.6022893424549
 20
2.71480851657533
 30
0.0
 11
12.4822893424549
 21
2.71480851657533
 31
0.0
  0
LINE
  8
0
  6
CONTINUOUS
 62
0
 10
8.03492630593022
 20
8.03090463031022
 30
0.0
 11
6.40956626553183
 21
12.4963887427168
 31
0.0
  0
LINE
  8
0
  6
CONTINUOUS
 62
0
 10
4.31237483385554
 20
7.97554767812701
 30
0.0
 11
6.40956626553183
 21
12.4963887427168
 31
0.0
  0
ENDSEC
  0
EOF
