999
DXF file: L:\cnc stuff\cnc jobs\wheelstand\parts to cut\wheelstand_assmbly1.dxf
999
Pro/ENGINEER 2015380 by Parametric Technology Corporation
  0
SECTION
  2
HEADER
  9
$ACADVER
  1
AC1024
  9
$DWGCODEPAGE
  3
ANSI_1252
  9
$EXTMAX
 10
22.0
 20
17.0
 30
0.0
  9
$EXTMIN
 10
0.0
 20
0.0
 30
0.0
  9
$LIMMIN
 10
0.0
 20
0.0
  9
$LIMMAX
 10
22.0
 20
17.0
  9
$VIEWCTR
 10
11.0
 20
8.5
  9
$VIEWSIZE
 40
17.0
  9
$CLAYER
  8
0
  9
$LTSCALE
 40
1.21
  9
$CELTYPE
  6
BYLAYER
  9
$DIMSCALE
 40
1.0
  9
$DIMASZ
 40
0.1875
  9
$DIMEXO
 40
0.0625
  9
$DIMDLI
 40
0.836
  9
$DIMEXE
 40
0.125
  9
$DIMCEN
 40
0.198
  9
$DIMLFAC
 40
1.0
  9
$DIMBLK
  1
_CLOSED
  9
$DIMALT
 70
0
  9
$DIMALTF
 40
25.4
  9
$DIMTXT
 40
0.15625
  9
$DIMTOL
 70
0
  9
$DIMLIM
 70
0
  9
$DIMTFAC
 40
1.0
  9
$DIMGAP
 40
0.09
  9
$DIMDSEP
 70
46
  9
$AUNITS
 70
0
  9
$PDMODE
 70
3
  9
$PDSIZE
 40
0.3125
  9
$HANDSEED
  5
36B
  9
$TILEMODE
 70
1
  9
$MEASUREMENT
 70
0
  9
$INSUNITS
 70
1
  0
ENDSEC
  0
SECTION
  2
CLASSES
  0
CLASS
  1
ACDBDICTIONARYWDFLT
  2
AcDbDictionaryWithDefault
  3
AutoCAD 2000
 90
0
 91
1
280
0
281
0
  0
CLASS
  1
ACDBPLACEHOLDER
  2
AcDbPlaceHolder
  3
AutoCAD 2000
 90
0
 91
1
280
0
281
0
  0
CLASS
  1
LAYOUT
  2
AcDbLayout
  3
AutoCAD 2000
 90
0
 91
0
280
0
281
0
  0
ENDSEC
  0
SECTION
  2
TABLES
  0
TABLE
  2
VPORT
  5
8
100
AcDbSymbolTable
 70
2
  0
VPORT
  5
1F4
100
AcDbSymbolTableRecord
100
AcDbViewportTableRecord
  2
*ACTIVE
 70
0
 10
0.0
 20
0.0
 11
1.0
 21
1.0
 12
11.0
 22
8.5
 13
0.0
 23
0.0
 14
1.0
 24
1.0
 15
0.0
 25
0.0
 16
0.0
 26
0.0
 36
1.0
 17
0.0
 27
0.0
 37
0.0
 40
17.0
 41
1.2941176471
 42
50.0
 43
0.0
 44
0.0
 50
0.0
 51
0.0
 71
0
 72
100
 73
1
 74
1
 75
0
 76
0
 77
0
 78
0
  0
ENDTAB
  0
TABLE
  2
LTYPE
  5
5
100
AcDbSymbolTable
 70
6
  0
LTYPE
  5
14
100
AcDbSymbolTableRecord
100
AcDbLinetypeTableRecord
  2
BYBLOCK
 70
0
  3

 72
65
 73
0
 40
0.0
  0
LTYPE
  5
15
100
AcDbSymbolTableRecord
100
AcDbLinetypeTableRecord
  2
BYLAYER
 70
0
  3

 72
65
 73
0
 40
0.0
  0
LTYPE
  5
16
100
AcDbSymbolTableRecord
100
AcDbLinetypeTableRecord
  2
CONTINUOUS
 70
64
  3
Solid line
 72
65
 73
0
 40
0.0
  0
LTYPE
  5
1F5
100
AcDbSymbolTableRecord
100
AcDbLinetypeTableRecord
  2
CENTER
 70
64
  3
____ _ ____ _ ____ _ ____ _ ____ _ ____ _ ____
 72
65
 73
4
 40
0.6
 49
0.375
 74
0
 49
-0.075
 74
0
 49
0.075
 74
0
 49
-0.075
 74
0
  0
LTYPE
  5
1F6
100
AcDbSymbolTableRecord
100
AcDbLinetypeTableRecord
  2
HIDDEN
 70
64
  3
- - - - - - - - - - - - - - - - - - - -
 72
65
 73
2
 40
0.2
 49
0.1
 74
0
 49
-0.1
 74
0
  0
LTYPE
  5
1F7
100
AcDbSymbolTableRecord
100
AcDbLinetypeTableRecord
  2
PHANTOM
 70
64
  3
_____ _ _ _____ _ _ _____ _ _ _____
 72
65
 73
6
 40
0.8
 49
0.45
 74
0
 49
-0.05
 74
0
 49
0.1
 74
0
 49
-0.05
 74
0
 49
0.1
 74
0
 49
-0.05
 74
0
  0
LTYPE
  5
1F8
100
AcDbSymbolTableRecord
100
AcDbLinetypeTableRecord
  2
DOT
 70
64
  3
. . . . . . . . . . . . . . . . . . . .
 72
65
 73
2
 40
0.2
 49
0.1
 74
0
 49
-0.1
 74
0
  0
LTYPE
  5
1F9
100
AcDbSymbolTableRecord
100
AcDbLinetypeTableRecord
  2
DASHED
 70
64
  3
- - - - - - - - - - - - - - - - - - - -
 72
65
 73
2
 40
0.2
 49
0.1
 74
0
 49
-0.1
 74
0
  0
ENDTAB
  0
TABLE
  2
LAYER
  5
2
100
AcDbSymbolTable
 70
36
  0
LAYER
  5
10
100
AcDbSymbolTableRecord
100
AcDbLayerTableRecord
  2
0
 70
0
 62
7
  6
CONTINUOUS
370
-3
390
F
  0
LAYER
  5
1FA
100
AcDbSymbolTableRecord
100
AcDbLayerTableRecord
  2
DEFAULT_1
 70
0
 62
7
  6
CENTER
370
-3
390
F
  0
LAYER
  5
1FB
100
AcDbSymbolTableRecord
100
AcDbLayerTableRecord
  2
DEFAULT_2
 70
0
 62
8
  6
HIDDEN
370
-3
390
F
  0
LAYER
  5
1FC
100
AcDbSymbolTableRecord
100
AcDbLayerTableRecord
  2
DEFAULT_3
 70
0
 62
7
  6
PHANTOM
370
-3
390
F
  0
LAYER
  5
1FD
100
AcDbSymbolTableRecord
100
AcDbLayerTableRecord
  2
01___PRT_ALL_DTM_PLN
 70
0
 62
7
  6
CONTINUOUS
370
-3
390
F
  0
LAYER
  5
1FE
100
AcDbSymbolTableRecord
100
AcDbLayerTableRecord
  2
01___PRT_DEF_DTM_PLN
 70
0
 62
7
  6
CONTINUOUS
370
-3
390
F
  0
LAYER
  5
1FF
100
AcDbSymbolTableRecord
100
AcDbLayerTableRecord
  2
02___PRT_ALL_AXES
 70
0
 62
7
  6
CONTINUOUS
370
-3
390
F
  0
LAYER
  5
200
100
AcDbSymbolTableRecord
100
AcDbLayerTableRecord
  2
03___PRT_ALL_CURVES
 70
0
 62
7
  6
CONTINUOUS
370
-3
390
F
  0
LAYER
  5
201
100
AcDbSymbolTableRecord
100
AcDbLayerTableRecord
  2
04___PRT_ALL_DTM_PNT
 70
0
 62
7
  6
CONTINUOUS
370
-3
390
F
  0
LAYER
  5
202
100
AcDbSymbolTableRecord
100
AcDbLayerTableRecord
  2
05___PRT_ALL_DTM_CSYS
 70
0
 62
7
  6
CONTINUOUS
370
-3
390
F
  0
LAYER
  5
203
100
AcDbSymbolTableRecord
100
AcDbLayerTableRecord
  2
05___PRT_DEF_DTM_CSYS
 70
0
 62
7
  6
CONTINUOUS
370
-3
390
F
  0
LAYER
  5
204
100
AcDbSymbolTableRecord
100
AcDbLayerTableRecord
  2
06___PRT_ALL_SURFS
 70
0
 62
7
  6
CONTINUOUS
370
-3
390
F
  0
LAYER
  5
205
100
AcDbSymbolTableRecord
100
AcDbLayerTableRecord
  2
3_ALL_SYMBOLS
 70
0
 62
7
  6
CONTINUOUS
370
-3
390
F
  0
ENDTAB
  0
TABLE
  2
STYLE
  5
3
100
AcDbSymbolTable
 70
1
  0
STYLE
  5
11
100
AcDbSymbolTableRecord
100
AcDbTextStyleTableRecord
  2
STANDARD
 70
0
 40
0.0
 41
0.8
 50
0.0
 71
0
 42
0.2
  3
txt
  4

  0
STYLE
  5
206
100
AcDbSymbolTableRecord
100
AcDbTextStyleTableRecord
  2
TEXTSTYLE_1
 70
0
 40
0.0
 41
0.8
 50
0.0
 71
0
 42
0.2
  3
gdt
  4

  0
ENDTAB
  0
TABLE
  2
VIEW
  5
6
100
AcDbSymbolTable
 70
0
  0
ENDTAB
  0
TABLE
  2
UCS
  5
7
100
AcDbSymbolTable
 70
0
  0
ENDTAB
  0
TABLE
  2
APPID
  5
9
100
AcDbSymbolTable
 70
1
  0
APPID
  5
207
100
AcDbSymbolTableRecord
100
AcDbRegAppTableRecord
  2
ACAD
 70
0
  0
ENDTAB
  0
TABLE
  2
BLOCK_RECORD
  5
1
100
AcDbSymbolTable
 70
0
  0
BLOCK_RECORD
  5
208
100
AcDbSymbolTableRecord
100
AcDbBlockTableRecord
  2
*Model_Space
  0
BLOCK_RECORD
  5
209
100
AcDbSymbolTableRecord
100
AcDbBlockTableRecord
  2
*Paper_Space
  0
ENDTAB
  0
TABLE
  2
DIMSTYLE
  5
A
100
AcDbSymbolTable
 70
1
100
AcDbDimStyleTable
 71
0
  0
DIMSTYLE
105
20A
100
AcDbSymbolTableRecord
100
AcDbDimStyleTableRecord
  2
STANDARD
 70
0
  3

  4

 40
1.0
 41
0.1875
 42
0.0625
 43
0.38
 44
0.125
 45
0.0
 46
0.0
 47
0.01
 48
0.01
140
0.15625
141
0.09
142
0.0
143
25.4
144
1.0
145
0.0
146
1.0
147
0.09
 71
0.0
 72
0.0
 73
1
 74
1
 75
0
 76
0
 77
0
 78
4
170
0
171
2
172
0
173
0
174
0
175
0
176
0
177
0
178
0
270
2
271
2
272
2
273
2
274
2
275
0
280
0
281
0
282
0
283
1
284
4
285
0
286
0
287
3
288
0
340
11
278
46
  0
ENDTAB
  0
ENDSEC
  0
SECTION
  2
BLOCKS
  0
BLOCK
  5
20
100
AcDbEntity
  8
0
100
AcDbBlockBegin
  2
*Model_Space
 70
0
 10
0.0
 20
0.0
 30
0.0
  3
*Model_Space
  1

  0
ENDBLK
  5
21
100
AcDbEntity
  8
0
100
AcDbBlockEnd
  0
BLOCK
  5
1C
100
AcDbEntity
  8
0
100
AcDbBlockBegin
  2
*Paper_Space
 70
0
 10
0.0
 20
0.0
 30
0.0
  3
*Paper_Space
  1

  0
ENDBLK
  5
1D
100
AcDbEntity
  8
0
100
AcDbBlockEnd
  0
ENDSEC
  0
SECTION
  2
ENTITIES
  0
MTEXT
  5
20B
100
AcDbEntity
  8
0
100
AcDbMText
 62
2
  6
CONTINUOUS
  7
STANDARD
 71
3
 72
1
 10
4.7913822526
 20
0.4060942833
 30
0.0
 11
1.0
 21
0.0
 31
0.0
 44
0.9
  1
SCALE  0.300
 40
0.15625
 41
1.5
  0
LINE
  5
20C
100
AcDbEntity
  8
0
100
AcDbLine
 62
7
  6
CONTINUOUS
 10
0.0
 20
0.0
 11
0.0
 21
17.0
  0
LINE
  5
20D
100
AcDbEntity
  8
0
100
AcDbLine
 62
7
  6
CONTINUOUS
 10
0.0
 20
0.0
 11
22.0
 21
0.0
  0
LINE
  5
20E
100
AcDbEntity
  8
0
100
AcDbLine
 62
7
  6
CONTINUOUS
 10
0.0
 20
17.0
 11
22.0
 21
17.0
  0
LINE
  5
20F
100
AcDbEntity
  8
0
100
AcDbLine
 62
7
  6
CONTINUOUS
 10
22.0
 20
0.0
 11
22.0
 21
17.0
  0
LINE
  5
210
100
AcDbEntity
  8
DEFAULT_2
100
AcDbLine
 62
8
  6
HIDDEN
 10
8.2788822526
 20
0.6692192833
 11
8.3538822526
 21
0.6692192833
  0
LINE
  5
211
100
AcDbEntity
  8
02___PRT_ALL_AXES
100
AcDbLine
 62
7
  6
CONTINUOUS
 10
8.2788822526
 20
0.6692192833
 11
8.3538822526
 21
0.6692192833
  0
LINE
  5
212
100
AcDbEntity
  8
0
100
AcDbLine
 62
7
  6
CONTINUOUS
 10
8.3538822526
 20
0.6692192833
 11
8.5038822526
 21
0.6692192833
  0
LINE
  5
213
100
AcDbEntity
  8
DEFAULT_2
100
AcDbLine
 62
8
  6
HIDDEN
 10
8.3538822526
 20
1.1942192833
 11
7.6788822526
 21
1.1942192833
  0
LINE
  5
214
100
AcDbEntity
  8
02___PRT_ALL_AXES
100
AcDbLine
 62
7
  6
CONTINUOUS
 10
1.1538822526
 20
7.7828399513
 11
1.1538822526
 21
4.7828399513
  0
LINE
  5
215
100
AcDbEntity
  8
DEFAULT_2
100
AcDbLine
 62
8
  6
HIDDEN
 10
1.1538822526
 20
4.7828399513
 11
1.1538822526
 21
7.7828399513
  0
LINE
  5
216
100
AcDbEntity
  8
DEFAULT_2
100
AcDbLine
 62
8
  6
HIDDEN
 10
1.3038822526
 20
5.1938399513
 11
1.3038822526
 21
5.4968399513
  0
LINE
  5
217
100
AcDbEntity
  8
DEFAULT_2
100
AcDbLine
 62
8
  6
HIDDEN
 10
1.3038822526
 20
6.6188399513
 11
1.3038822526
 21
6.9218399513
  0
LINE
  5
218
100
AcDbEntity
  8
DEFAULT_2
100
AcDbLine
 62
8
  6
HIDDEN
 10
8.3538822526
 20
1.4192192833
 11
7.6788822526
 21
1.4192192833
  0
LINE
  5
219
100
AcDbEntity
  8
DEFAULT_2
100
AcDbLine
 62
8
  6
HIDDEN
 10
8.2788822526
 20
1.4304692833
 11
8.5038822526
 21
1.4304692833
  0
LINE
  5
21A
100
AcDbEntity
  8
DEFAULT_2
100
AcDbLine
 62
8
  6
HIDDEN
 10
8.2788822526
 20
1.5204692833
 11
8.5038822526
 21
1.5204692833
  0
LINE
  5
21B
100
AcDbEntity
  8
DEFAULT_2
100
AcDbLine
 62
8
  6
HIDDEN
 10
1.3788822526
 20
7.6529361407
 11
1.3788822526
 21
4.6529361407
  0
LINE
  5
21C
100
AcDbEntity
  8
0
100
AcDbLine
 62
7
  6
CONTINUOUS
 10
1.3788822526
 20
7.6529361407
 11
1.3788822526
 21
7.7828399513
  0
LINE
  5
21D
100
AcDbEntity
  8
DEFAULT_2
100
AcDbLine
 62
8
  6
HIDDEN
 10
8.2788822526
 20
1.8804692833
 11
8.5038822526
 21
1.8804692833
  0
LINE
  5
21E
100
AcDbEntity
  8
DEFAULT_2
100
AcDbLine
 62
8
  6
HIDDEN
 10
8.2788822526
 20
1.9704692833
 11
8.5038822526
 21
1.9704692833
  0
LINE
  5
21F
100
AcDbEntity
  8
DEFAULT_2
100
AcDbLine
 62
8
  6
HIDDEN
 10
1.9788822526
 20
6.8828399513
 11
1.9788822526
 21
6.6578399513
  0
LINE
  5
220
100
AcDbEntity
  8
DEFAULT_2
100
AcDbLine
 62
8
  6
HIDDEN
 10
1.9788822526
 20
5.4578399513
 11
1.9788822526
 21
5.2328399513
  0
LINE
  5
221
100
AcDbEntity
  8
DEFAULT_2
100
AcDbLine
 62
8
  6
HIDDEN
 10
8.2788822526
 20
2.3304692833
 11
8.5038822526
 21
2.3304692833
  0
LINE
  5
222
100
AcDbEntity
  8
DEFAULT_2
100
AcDbLine
 62
8
  6
HIDDEN
 10
8.2788822526
 20
2.4204692833
 11
8.5038822526
 21
2.4204692833
  0
LINE
  5
223
100
AcDbEntity
  8
DEFAULT_2
100
AcDbLine
 62
8
  6
HIDDEN
 10
8.3538822526
 20
2.9192192833
 11
7.6788822526
 21
2.9192192833
  0
LINE
  5
224
100
AcDbEntity
  8
DEFAULT_2
100
AcDbLine
 62
8
  6
HIDDEN
 10
8.3538822526
 20
3.1442192833
 11
7.6788822526
 21
3.1442192833
  0
LINE
  5
225
100
AcDbEntity
  8
0
100
AcDbLine
 62
7
  6
CONTINUOUS
 10
1.1538822526
 20
4.7828399513
 11
8.2788822526
 21
0.6692192833
  0
LINE
  5
226
100
AcDbEntity
  8
DEFAULT_2
100
AcDbLine
 62
8
  6
HIDDEN
 10
8.2788822526
 20
3.6242192833
 11
8.5038822526
 21
3.6242192833
  0
LINE
  5
227
100
AcDbEntity
  8
DEFAULT_2
100
AcDbLine
 62
8
  6
HIDDEN
 10
8.2788822526
 20
3.7142192833
 11
8.5038822526
 21
3.7142192833
  0
LINE
  5
228
100
AcDbEntity
  8
0
100
AcDbLine
 62
7
  6
CONTINUOUS
 10
3.8538822526
 20
5.7043789822
 11
3.8538822526
 21
3.3971993052
  0
LINE
  5
229
100
AcDbEntity
  8
DEFAULT_2
100
AcDbLine
 62
8
  6
HIDDEN
 10
8.2788822526
 20
4.0742192833
 11
8.5038822526
 21
4.0742192833
  0
LINE
  5
22A
100
AcDbEntity
  8
DEFAULT_2
100
AcDbLine
 62
8
  6
HIDDEN
 10
8.2788822526
 20
4.1642192833
 11
8.5038822526
 21
4.1642192833
  0
LINE
  5
22B
100
AcDbEntity
  8
DEFAULT_2
100
AcDbLine
 62
8
  6
HIDDEN
 10
8.2788822526
 20
4.5242192833
 11
8.5038822526
 21
4.5242192833
  0
LINE
  5
22C
100
AcDbEntity
  8
DEFAULT_2
100
AcDbLine
 62
8
  6
HIDDEN
 10
8.2788822526
 20
4.6142192833
 11
8.5038822526
 21
4.6142192833
  0
LINE
  5
22D
100
AcDbEntity
  8
DEFAULT_2
100
AcDbLine
 62
8
  6
HIDDEN
 10
8.3538822526
 20
4.6442192833
 11
7.6788822526
 21
4.6442192833
  0
LINE
  5
22E
100
AcDbEntity
  8
DEFAULT_2
100
AcDbLine
 62
8
  6
HIDDEN
 10
1.3788822526
 20
4.7828399513
 11
1.1538822526
 21
4.7828399513
  0
LINE
  5
22F
100
AcDbEntity
  8
DEFAULT_2
100
AcDbLine
 62
8
  6
HIDDEN
 10
8.3538822526
 20
4.8692192833
 11
7.6788822526
 21
4.8692192833
  0
LINE
  5
230
100
AcDbEntity
  8
DEFAULT_2
100
AcDbLine
 62
8
  6
HIDDEN
 10
4.9038822526
 20
5.444571361
 11
4.9038822526
 21
3.1373916841
  0
LINE
  5
231
100
AcDbEntity
  8
DEFAULT_2
100
AcDbLine
 62
8
  6
HIDDEN
 10
1.3788822526
 20
5.1938399513
 11
1.3038822526
 21
5.1938399513
  0
LINE
  5
232
100
AcDbEntity
  8
DEFAULT_2
100
AcDbLine
 62
8
  6
HIDDEN
 10
1.9788822526
 20
5.2328399513
 11
1.3038822526
 21
5.2328399513
  0
LINE
  5
233
100
AcDbEntity
  8
DEFAULT_2
100
AcDbLine
 62
8
  6
HIDDEN
 10
1.9788822526
 20
5.4578399513
 11
1.3038822526
 21
5.4578399513
  0
LINE
  5
234
100
AcDbEntity
  8
DEFAULT_2
100
AcDbLine
 62
8
  6
HIDDEN
 10
1.3788822526
 20
5.4968399513
 11
1.3038822526
 21
5.4968399513
  0
LINE
  5
235
100
AcDbEntity
  8
0
100
AcDbLine
 62
7
  6
CONTINUOUS
 10
6.041095478
 20
4.96120608
 11
1.1538822526
 21
7.7828399513
  0
LINE
  5
236
100
AcDbEntity
  8
0
100
AcDbLine
 62
7
  6
CONTINUOUS
 10
8.3538822526
 20
6.0692192833
 11
8.2788822526
 21
6.0692192833
  0
LINE
  5
237
100
AcDbEntity
  8
DEFAULT_2
100
AcDbLine
 62
8
  6
HIDDEN
 10
1.3788822526
 20
6.6188399513
 11
1.3038822526
 21
6.6188399513
  0
LINE
  5
238
100
AcDbEntity
  8
DEFAULT_2
100
AcDbLine
 62
8
  6
HIDDEN
 10
1.9788822526
 20
6.6578399513
 11
1.3038822526
 21
6.6578399513
  0
LINE
  5
239
100
AcDbEntity
  8
DEFAULT_2
100
AcDbLine
 62
8
  6
HIDDEN
 10
1.9788822526
 20
6.8828399513
 11
1.3038822526
 21
6.8828399513
  0
LINE
  5
23A
100
AcDbEntity
  8
DEFAULT_2
100
AcDbLine
 62
8
  6
HIDDEN
 10
1.3788822526
 20
6.9218399513
 11
1.3038822526
 21
6.9218399513
  0
LINE
  5
23B
100
AcDbEntity
  8
0
100
AcDbLine
 62
7
  6
CONTINUOUS
 10
1.3788822526
 20
7.7828399513
 11
1.1538822526
 21
7.7828399513
  0
LINE
  5
23C
100
AcDbEntity
  8
DEFAULT_2
100
AcDbLine
 62
8
  6
HIDDEN
 10
7.6788822526
 20
4.8692192833
 11
7.6788822526
 21
4.6442192833
  0
LINE
  5
23D
100
AcDbEntity
  8
DEFAULT_2
100
AcDbLine
 62
8
  6
HIDDEN
 10
7.6788822526
 20
3.1442192833
 11
7.6788822526
 21
2.9192192833
  0
LINE
  5
23E
100
AcDbEntity
  8
DEFAULT_2
100
AcDbLine
 62
8
  6
HIDDEN
 10
7.6788822526
 20
1.4192192833
 11
7.6788822526
 21
1.1942192833
  0
LINE
  5
23F
100
AcDbEntity
  8
DEFAULT_2
100
AcDbLine
 62
8
  6
HIDDEN
 10
8.2788822526
 20
0.6692192833
 11
8.2788822526
 21
6.0692192833
  0
LINE
  5
240
100
AcDbEntity
  8
0
100
AcDbLine
 62
7
  6
CONTINUOUS
 10
8.2788822526
 20
6.0692192833
 11
8.2788822526
 21
9.6692192833
  0
LINE
  5
241
100
AcDbEntity
  8
0
100
AcDbLine
 62
7
  6
CONTINUOUS
 10
8.3538822526
 20
0.6692192833
 11
8.3538822526
 21
6.0692192833
  0
LINE
  5
242
100
AcDbEntity
  8
02___PRT_ALL_AXES
100
AcDbLine
 62
7
  6
CONTINUOUS
 10
8.3538822526
 20
0.6692192833
 11
8.3538822526
 21
6.0692192833
  0
LINE
  5
243
100
AcDbEntity
  8
0
100
AcDbLine
 62
7
  6
CONTINUOUS
 10
8.5038822526
 20
9.6692192833
 11
8.5038822526
 21
0.6692192833
  0
LINE
  5
244
100
AcDbEntity
  8
0
100
AcDbLine
 62
7
  6
CONTINUOUS
 10
8.5038822526
 20
9.0692192833
 11
8.2788822526
 21
9.0692192833
  0
LINE
  5
245
100
AcDbEntity
  8
0
100
AcDbLine
 62
7
  6
CONTINUOUS
 10
8.5038822526
 20
9.6692192833
 11
8.2788822526
 21
9.6692192833
  0
LINE
  5
246
100
AcDbEntity
  8
0
100
AcDbLine
 62
7
  6
CONTINUOUS
 10
1.1538822526
 20
10.7703007519
 11
1.1538822526
 21
15.7203007519
  0
LINE
  5
247
100
AcDbEntity
  8
DEFAULT_2
100
AcDbLine
 62
8
  6
HIDDEN
 10
1.3038822526
 20
11.5953007519
 11
1.3038822526
 21
10.9203007519
  0
LINE
  5
248
100
AcDbEntity
  8
DEFAULT_2
100
AcDbLine
 62
8
  6
HIDDEN
 10
1.3038822526
 20
14.8953007519
 11
1.3038822526
 21
15.5703007519
  0
LINE
  5
249
100
AcDbEntity
  8
0
100
AcDbLine
 62
7
  6
CONTINUOUS
 10
1.3788822526
 20
10.9203007519
 11
1.3788822526
 21
15.5703007519
  0
LINE
  5
24A
100
AcDbEntity
  8
DEFAULT_2
100
AcDbLine
 62
8
  6
HIDDEN
 10
1.9788822526
 20
15.5703007519
 11
1.9788822526
 21
15.4953007519
  0
LINE
  5
24B
100
AcDbEntity
  8
DEFAULT_2
100
AcDbLine
 62
8
  6
HIDDEN
 10
1.9788822526
 20
10.9953007519
 11
1.9788822526
 21
10.9203007519
  0
LINE
  5
24C
100
AcDbEntity
  8
02___PRT_ALL_AXES
100
AcDbLine
 62
8
  6
HIDDEN
 10
6.0007572526
 20
10.5453007519
 11
5.9070072526
 21
10.5453007519
  0
LINE
  5
24D
100
AcDbEntity
  8
02___PRT_ALL_AXES
100
AcDbLine
 62
8
  6
HIDDEN
 10
5.5507572526
 20
10.5453007519
 11
5.4570072526
 21
10.5453007519
  0
LINE
  5
24E
100
AcDbEntity
  8
02___PRT_ALL_AXES
100
AcDbLine
 62
8
  6
HIDDEN
 10
5.1007572526
 20
10.5453007519
 11
5.0070072526
 21
10.5453007519
  0
LINE
  5
24F
100
AcDbEntity
  8
02___PRT_ALL_AXES
100
AcDbLine
 62
8
  6
HIDDEN
 10
4.6507572526
 20
10.5453007519
 11
4.5570072526
 21
10.5453007519
  0
LINE
  5
250
100
AcDbEntity
  8
02___PRT_ALL_AXES
100
AcDbLine
 62
8
  6
HIDDEN
 10
4.2007572526
 20
10.5453007519
 11
4.1070072526
 21
10.5453007519
  0
LINE
  5
251
100
AcDbEntity
  8
0
100
AcDbLine
 62
7
  6
CONTINUOUS
 10
8.5038822526
 20
10.5453007519
 11
3.8538822526
 21
10.5453007519
  0
LINE
  5
252
100
AcDbEntity
  8
DEFAULT_2
100
AcDbLine
 62
8
  6
HIDDEN
 10
8.3538822526
 20
10.6953007519
 11
7.6788822526
 21
10.6953007519
  0
LINE
  5
253
100
AcDbEntity
  8
02___PRT_ALL_AXES
100
AcDbLine
 62
8
  6
HIDDEN
 10
6.0007572526
 20
10.7703007519
 11
5.9070072526
 21
10.7703007519
  0
LINE
  5
254
100
AcDbEntity
  8
02___PRT_ALL_AXES
100
AcDbLine
 62
8
  6
HIDDEN
 10
5.5507572526
 20
10.7703007519
 11
5.4570072526
 21
10.7703007519
  0
LINE
  5
255
100
AcDbEntity
  8
02___PRT_ALL_AXES
100
AcDbLine
 62
8
  6
HIDDEN
 10
5.1007572526
 20
10.7703007519
 11
5.0070072526
 21
10.7703007519
  0
LINE
  5
256
100
AcDbEntity
  8
02___PRT_ALL_AXES
100
AcDbLine
 62
8
  6
HIDDEN
 10
4.6507572526
 20
10.7703007519
 11
4.5570072526
 21
10.7703007519
  0
LINE
  5
257
100
AcDbEntity
  8
02___PRT_ALL_AXES
100
AcDbLine
 62
8
  6
HIDDEN
 10
4.2007572526
 20
10.7703007519
 11
4.1070072526
 21
10.7703007519
  0
LINE
  5
258
100
AcDbEntity
  8
DEFAULT_2
100
AcDbLine
 62
8
  6
HIDDEN
 10
8.2788822526
 20
10.7703007519
 11
8.3538822526
 21
10.7703007519
  0
LINE
  5
259
100
AcDbEntity
  8
0
100
AcDbLine
 62
7
  6
CONTINUOUS
 10
1.1538822526
 20
10.7703007519
 11
8.2788822526
 21
10.7703007519
  0
LINE
  5
25A
100
AcDbEntity
  8
0
100
AcDbLine
 62
7
  6
CONTINUOUS
 10
1.3788822526
 20
10.9203007519
 11
1.1538822526
 21
10.9203007519
  0
LINE
  5
25B
100
AcDbEntity
  8
DEFAULT_2
100
AcDbLine
 62
8
  6
HIDDEN
 10
1.3788822526
 20
10.9203007519
 11
1.9788822526
 21
10.9203007519
  0
LINE
  5
25C
100
AcDbEntity
  8
02___PRT_ALL_AXES
100
AcDbLine
 62
8
  6
HIDDEN
 10
4.6507572526
 20
10.9953007519
 11
4.5570072526
 21
10.9953007519
  0
LINE
  5
25D
100
AcDbEntity
  8
0
100
AcDbLine
 62
7
  6
CONTINUOUS
 10
1.3788822526
 20
10.9953007519
 11
4.9038822526
 21
10.9953007519
  0
LINE
  5
25E
100
AcDbEntity
  8
0
100
AcDbLine
 62
7
  6
CONTINUOUS
 10
8.5038822526
 20
11.1453007519
 11
8.2788822526
 21
11.1453007519
  0
LINE
  5
25F
100
AcDbEntity
  8
DEFAULT_2
100
AcDbLine
 62
8
  6
HIDDEN
 10
8.3538822526
 20
11.3703007519
 11
8.2788822526
 21
11.3703007519
  0
LINE
  5
260
100
AcDbEntity
  8
DEFAULT_2
100
AcDbLine
 62
8
  6
HIDDEN
 10
1.3788822526
 20
11.5173007519
 11
1.3038822526
 21
11.5173007519
  0
LINE
  5
261
100
AcDbEntity
  8
DEFAULT_2
100
AcDbLine
 62
8
  6
HIDDEN
 10
1.3788822526
 20
11.5953007519
 11
1.3038822526
 21
11.5953007519
  0
LINE
  5
262
100
AcDbEntity
  8
DEFAULT_2
100
AcDbLine
 62
8
  6
HIDDEN
 10
8.2788822526
 20
12.0003007519
 11
8.5038822526
 21
12.0003007519
  0
LINE
  5
263
100
AcDbEntity
  8
0
100
AcDbLine
 62
7
  6
CONTINUOUS
 10
3.8538822526
 20
15.9453007519
 11
3.8538822526
 21
15.7203007519
  0
LINE
  5
264
100
AcDbEntity
  8
0
100
AcDbLine
 62
7
  6
CONTINUOUS
 10
3.8538822526
 20
10.7703007519
 11
3.8538822526
 21
10.5453007519
  0
LINE
  5
265
100
AcDbEntity
  8
DEFAULT_2
100
AcDbLine
 62
8
  6
HIDDEN
 10
8.2788822526
 20
12.0903007519
 11
8.5038822526
 21
12.0903007519
  0
LINE
  5
266
100
AcDbEntity
  8
DEFAULT_2
100
AcDbLine
 62
8
  6
HIDDEN
 10
4.0038822526
 20
15.9453007519
 11
4.0038822526
 21
15.7203007519
  0
LINE
  5
267
100
AcDbEntity
  8
DEFAULT_2
100
AcDbLine
 62
8
  6
HIDDEN
 10
4.0038822526
 20
10.7703007519
 11
4.0038822526
 21
10.5453007519
  0
LINE
  5
268
100
AcDbEntity
  8
02___PRT_ALL_AXES
100
AcDbLine
 62
8
  6
HIDDEN
 10
4.1070072526
 20
10.5453007519
 11
4.1070072526
 21
10.7703007519
  0
LINE
  5
269
100
AcDbEntity
  8
02___PRT_ALL_AXES
100
AcDbLine
 62
8
  6
HIDDEN
 10
4.1070072526
 20
15.7203007519
 11
4.1070072526
 21
15.9453007519
  0
LINE
  5
26A
100
AcDbEntity
  8
02___PRT_ALL_AXES
100
AcDbLine
 62
8
  6
HIDDEN
 10
4.2007572526
 20
10.5453007519
 11
4.2007572526
 21
10.7703007519
  0
LINE
  5
26B
100
AcDbEntity
  8
02___PRT_ALL_AXES
100
AcDbLine
 62
8
  6
HIDDEN
 10
4.2007572526
 20
15.7203007519
 11
4.2007572526
 21
15.9453007519
  0
LINE
  5
26C
100
AcDbEntity
  8
0
100
AcDbLine
 62
7
  6
CONTINUOUS
 10
4.3038822526
 20
15.9453007519
 11
4.3038822526
 21
15.7203007519
  0
LINE
  5
26D
100
AcDbEntity
  8
0
100
AcDbLine
 62
7
  6
CONTINUOUS
 10
4.3038822526
 20
10.7703007519
 11
4.3038822526
 21
10.5453007519
  0
LINE
  5
26E
100
AcDbEntity
  8
DEFAULT_2
100
AcDbLine
 62
8
  6
HIDDEN
 10
4.4538822526
 20
15.7203007519
 11
4.4538822526
 21
15.4953007519
  0
LINE
  5
26F
100
AcDbEntity
  8
DEFAULT_2
100
AcDbLine
 62
8
  6
HIDDEN
 10
4.4538822526
 20
10.9953007519
 11
4.4538822526
 21
10.7703007519
  0
LINE
  5
270
100
AcDbEntity
  8
02___PRT_ALL_AXES
100
AcDbLine
 62
8
  6
HIDDEN
 10
4.5570072526
 20
10.5453007519
 11
4.5570072526
 21
10.9953007519
  0
LINE
  5
271
100
AcDbEntity
  8
02___PRT_ALL_AXES
100
AcDbLine
 62
8
  6
HIDDEN
 10
4.5570072526
 20
15.4953007519
 11
4.5570072526
 21
15.9453007519
  0
LINE
  5
272
100
AcDbEntity
  8
02___PRT_ALL_AXES
100
AcDbLine
 62
8
  6
HIDDEN
 10
4.6507572526
 20
10.5453007519
 11
4.6507572526
 21
10.9953007519
  0
LINE
  5
273
100
AcDbEntity
  8
02___PRT_ALL_AXES
100
AcDbLine
 62
8
  6
HIDDEN
 10
4.6507572526
 20
15.4953007519
 11
4.6507572526
 21
15.9453007519
  0
LINE
  5
274
100
AcDbEntity
  8
0
100
AcDbLine
 62
7
  6
CONTINUOUS
 10
4.7538822526
 20
15.7203007519
 11
4.7538822526
 21
15.4953007519
  0
LINE
  5
275
100
AcDbEntity
  8
0
100
AcDbLine
 62
7
  6
CONTINUOUS
 10
4.7538822526
 20
10.9953007519
 11
4.7538822526
 21
10.7703007519
  0
LINE
  5
276
100
AcDbEntity
  8
DEFAULT_2
100
AcDbLine
 62
8
  6
HIDDEN
 10
8.2788822526
 20
13.0878007519
 11
8.5038822526
 21
13.0878007519
  0
LINE
  5
277
100
AcDbEntity
  8
DEFAULT_2
100
AcDbLine
 62
8
  6
HIDDEN
 10
8.2788822526
 20
13.1778007519
 11
8.5038822526
 21
13.1778007519
  0
LINE
  5
278
100
AcDbEntity
  8
0
100
AcDbLine
 62
7
  6
CONTINUOUS
 10
4.9038822526
 20
15.7203007519
 11
4.9038822526
 21
15.4953007519
  0
LINE
  5
279
100
AcDbEntity
  8
0
100
AcDbLine
 62
7
  6
CONTINUOUS
 10
4.9038822526
 20
10.9953007519
 11
4.9038822526
 21
10.7703007519
  0
LINE
  5
27A
100
AcDbEntity
  8
02___PRT_ALL_AXES
100
AcDbLine
 62
8
  6
HIDDEN
 10
5.0070072526
 20
10.5453007519
 11
5.0070072526
 21
10.7703007519
  0
LINE
  5
27B
100
AcDbEntity
  8
02___PRT_ALL_AXES
100
AcDbLine
 62
8
  6
HIDDEN
 10
5.0070072526
 20
15.7203007519
 11
5.0070072526
 21
15.9453007519
  0
LINE
  5
27C
100
AcDbEntity
  8
02___PRT_ALL_AXES
100
AcDbLine
 62
8
  6
HIDDEN
 10
5.1007572526
 20
10.5453007519
 11
5.1007572526
 21
10.7703007519
  0
LINE
  5
27D
100
AcDbEntity
  8
02___PRT_ALL_AXES
100
AcDbLine
 62
8
  6
HIDDEN
 10
5.1007572526
 20
15.7203007519
 11
5.1007572526
 21
15.9453007519
  0
LINE
  5
27E
100
AcDbEntity
  8
02___PRT_ALL_AXES
100
AcDbLine
 62
8
  6
HIDDEN
 10
5.4570072526
 20
10.5453007519
 11
5.4570072526
 21
10.7703007519
  0
LINE
  5
27F
100
AcDbEntity
  8
02___PRT_ALL_AXES
100
AcDbLine
 62
8
  6
HIDDEN
 10
5.4570072526
 20
15.7203007519
 11
5.4570072526
 21
15.9453007519
  0
LINE
  5
280
100
AcDbEntity
  8
02___PRT_ALL_AXES
100
AcDbLine
 62
8
  6
HIDDEN
 10
5.5507572526
 20
10.5453007519
 11
5.5507572526
 21
10.7703007519
  0
LINE
  5
281
100
AcDbEntity
  8
02___PRT_ALL_AXES
100
AcDbLine
 62
8
  6
HIDDEN
 10
5.5507572526
 20
15.7203007519
 11
5.5507572526
 21
15.9453007519
  0
LINE
  5
282
100
AcDbEntity
  8
02___PRT_ALL_AXES
100
AcDbLine
 62
8
  6
HIDDEN
 10
5.9070072526
 20
10.5453007519
 11
5.9070072526
 21
10.7703007519
  0
LINE
  5
283
100
AcDbEntity
  8
02___PRT_ALL_AXES
100
AcDbLine
 62
8
  6
HIDDEN
 10
5.9070072526
 20
15.7203007519
 11
5.9070072526
 21
15.9453007519
  0
LINE
  5
284
100
AcDbEntity
  8
02___PRT_ALL_AXES
100
AcDbLine
 62
8
  6
HIDDEN
 10
6.0007572526
 20
10.5453007519
 11
6.0007572526
 21
10.7703007519
  0
LINE
  5
285
100
AcDbEntity
  8
02___PRT_ALL_AXES
100
AcDbLine
 62
8
  6
HIDDEN
 10
6.0007572526
 20
15.7203007519
 11
6.0007572526
 21
15.9453007519
  0
LINE
  5
286
100
AcDbEntity
  8
0
100
AcDbLine
 62
7
  6
CONTINUOUS
 10
6.041095478
 20
10.5453007519
 11
6.041095478
 21
10.7703007519
  0
LINE
  5
287
100
AcDbEntity
  8
0
100
AcDbLine
 62
7
  6
CONTINUOUS
 10
6.041095478
 20
15.7203007519
 11
6.041095478
 21
15.9453007519
  0
LINE
  5
288
100
AcDbEntity
  8
DEFAULT_2
100
AcDbLine
 62
8
  6
HIDDEN
 10
8.2788822526
 20
14.4003007519
 11
8.5038822526
 21
14.4003007519
  0
LINE
  5
289
100
AcDbEntity
  8
DEFAULT_2
100
AcDbLine
 62
8
  6
HIDDEN
 10
8.2788822526
 20
14.4903007519
 11
8.5038822526
 21
14.4903007519
  0
LINE
  5
28A
100
AcDbEntity
  8
DEFAULT_2
100
AcDbLine
 62
8
  6
HIDDEN
 10
1.3788822526
 20
14.8953007519
 11
1.3038822526
 21
14.8953007519
  0
LINE
  5
28B
100
AcDbEntity
  8
DEFAULT_2
100
AcDbLine
 62
8
  6
HIDDEN
 10
1.3788822526
 20
14.9733007519
 11
1.3038822526
 21
14.9733007519
  0
LINE
  5
28C
100
AcDbEntity
  8
DEFAULT_2
100
AcDbLine
 62
8
  6
HIDDEN
 10
8.2788822526
 20
15.1203007519
 11
8.3538822526
 21
15.1203007519
  0
LINE
  5
28D
100
AcDbEntity
  8
0
100
AcDbLine
 62
7
  6
CONTINUOUS
 10
8.5038822526
 20
15.3453007519
 11
8.2788822526
 21
15.3453007519
  0
LINE
  5
28E
100
AcDbEntity
  8
0
100
AcDbLine
 62
7
  6
CONTINUOUS
 10
1.3788822526
 20
15.4953007519
 11
4.9038822526
 21
15.4953007519
  0
LINE
  5
28F
100
AcDbEntity
  8
02___PRT_ALL_AXES
100
AcDbLine
 62
8
  6
HIDDEN
 10
4.5570072526
 20
15.4953007519
 11
4.6507572526
 21
15.4953007519
  0
LINE
  5
290
100
AcDbEntity
  8
0
100
AcDbLine
 62
7
  6
CONTINUOUS
 10
1.3788822526
 20
15.5703007519
 11
1.1538822526
 21
15.5703007519
  0
LINE
  5
291
100
AcDbEntity
  8
DEFAULT_2
100
AcDbLine
 62
8
  6
HIDDEN
 10
1.3788822526
 20
15.5703007519
 11
1.9788822526
 21
15.5703007519
  0
LINE
  5
292
100
AcDbEntity
  8
DEFAULT_2
100
AcDbLine
 62
8
  6
HIDDEN
 10
8.3538822526
 20
15.7203007519
 11
8.2788822526
 21
15.7203007519
  0
LINE
  5
293
100
AcDbEntity
  8
02___PRT_ALL_AXES
100
AcDbLine
 62
8
  6
HIDDEN
 10
4.1070072526
 20
15.7203007519
 11
4.2007572526
 21
15.7203007519
  0
LINE
  5
294
100
AcDbEntity
  8
02___PRT_ALL_AXES
100
AcDbLine
 62
8
  6
HIDDEN
 10
4.5570072526
 20
15.7203007519
 11
4.6507572526
 21
15.7203007519
  0
LINE
  5
295
100
AcDbEntity
  8
0
100
AcDbLine
 62
7
  6
CONTINUOUS
 10
1.1538822526
 20
15.7203007519
 11
8.2788822526
 21
15.7203007519
  0
LINE
  5
296
100
AcDbEntity
  8
02___PRT_ALL_AXES
100
AcDbLine
 62
8
  6
HIDDEN
 10
5.0070072526
 20
15.7203007519
 11
5.1007572526
 21
15.7203007519
  0
LINE
  5
297
100
AcDbEntity
  8
02___PRT_ALL_AXES
100
AcDbLine
 62
8
  6
HIDDEN
 10
5.4570072526
 20
15.7203007519
 11
5.5507572526
 21
15.7203007519
  0
LINE
  5
298
100
AcDbEntity
  8
02___PRT_ALL_AXES
100
AcDbLine
 62
8
  6
HIDDEN
 10
5.9070072526
 20
15.7203007519
 11
6.0007572526
 21
15.7203007519
  0
LINE
  5
299
100
AcDbEntity
  8
DEFAULT_2
100
AcDbLine
 62
8
  6
HIDDEN
 10
8.3538822526
 20
15.7953007519
 11
7.6788822526
 21
15.7953007519
  0
LINE
  5
29A
100
AcDbEntity
  8
02___PRT_ALL_AXES
100
AcDbLine
 62
8
  6
HIDDEN
 10
4.1070072526
 20
15.9453007519
 11
4.2007572526
 21
15.9453007519
  0
LINE
  5
29B
100
AcDbEntity
  8
02___PRT_ALL_AXES
100
AcDbLine
 62
8
  6
HIDDEN
 10
4.5570072526
 20
15.9453007519
 11
4.6507572526
 21
15.9453007519
  0
LINE
  5
29C
100
AcDbEntity
  8
02___PRT_ALL_AXES
100
AcDbLine
 62
8
  6
HIDDEN
 10
5.0070072526
 20
15.9453007519
 11
5.1007572526
 21
15.9453007519
  0
LINE
  5
29D
100
AcDbEntity
  8
02___PRT_ALL_AXES
100
AcDbLine
 62
8
  6
HIDDEN
 10
5.4570072526
 20
15.9453007519
 11
5.5507572526
 21
15.9453007519
  0
LINE
  5
29E
100
AcDbEntity
  8
02___PRT_ALL_AXES
100
AcDbLine
 62
8
  6
HIDDEN
 10
5.9070072526
 20
15.9453007519
 11
6.0007572526
 21
15.9453007519
  0
LINE
  5
29F
100
AcDbEntity
  8
0
100
AcDbLine
 62
7
  6
CONTINUOUS
 10
3.8538822526
 20
15.9453007519
 11
8.5038822526
 21
15.9453007519
  0
LINE
  5
2A0
100
AcDbEntity
  8
DEFAULT_2
100
AcDbLine
 62
8
  6
HIDDEN
 10
7.6788822526
 20
15.7953007519
 11
7.6788822526
 21
15.7203007519
  0
LINE
  5
2A1
100
AcDbEntity
  8
DEFAULT_2
100
AcDbLine
 62
8
  6
HIDDEN
 10
7.6788822526
 20
10.7703007519
 11
7.6788822526
 21
10.6953007519
  0
LINE
  5
2A2
100
AcDbEntity
  8
02___PRT_ALL_AXES
100
AcDbLine
 62
8
  6
HIDDEN
 10
8.2788822526
 20
10.5453007519
 11
8.2788822526
 21
10.7703007519
  0
LINE
  5
2A3
100
AcDbEntity
  8
02___PRT_ALL_AXES
100
AcDbLine
 62
8
  6
HIDDEN
 10
8.2788822526
 20
15.7203007519
 11
8.2788822526
 21
15.9453007519
  0
LINE
  5
2A4
100
AcDbEntity
  8
0
100
AcDbLine
 62
7
  6
CONTINUOUS
 10
8.2788822526
 20
10.5453007519
 11
8.2788822526
 21
15.9453007519
  0
LINE
  5
2A5
100
AcDbEntity
  8
DEFAULT_2
100
AcDbLine
 62
8
  6
HIDDEN
 10
8.3538822526
 20
15.9453007519
 11
8.3538822526
 21
15.1203007519
  0
LINE
  5
2A6
100
AcDbEntity
  8
DEFAULT_2
100
AcDbLine
 62
8
  6
HIDDEN
 10
8.3538822526
 20
11.3703007519
 11
8.3538822526
 21
10.5453007519
  0
LINE
  5
2A7
100
AcDbEntity
  8
02___PRT_ALL_AXES
100
AcDbLine
 62
8
  6
HIDDEN
 10
8.3538822526
 20
10.5453007519
 11
8.3538822526
 21
10.7703007519
  0
LINE
  5
2A8
100
AcDbEntity
  8
02___PRT_ALL_AXES
100
AcDbLine
 62
8
  6
HIDDEN
 10
8.3538822526
 20
15.7203007519
 11
8.3538822526
 21
15.9453007519
  0
LINE
  5
2A9
100
AcDbEntity
  8
0
100
AcDbLine
 62
7
  6
CONTINUOUS
 10
8.5038822526
 20
15.9453007519
 11
8.5038822526
 21
10.5453007519
  0
LINE
  5
2AA
100
AcDbEntity
  8
02___PRT_ALL_AXES
100
AcDbLine
 62
8
  6
HIDDEN
 10
12.9247866894
 20
0.6692192833
 11
13.1497866894
 21
0.6692192833
  0
LINE
  5
2AB
100
AcDbEntity
  8
0
100
AcDbLine
 62
7
  6
CONTINUOUS
 10
12.9247866894
 20
0.6692192833
 11
18.3247866894
 21
0.6692192833
  0
LINE
  5
2AC
100
AcDbEntity
  8
02___PRT_ALL_AXES
100
AcDbLine
 62
8
  6
HIDDEN
 10
18.0997866894
 20
0.6692192833
 11
18.3247866894
 21
0.6692192833
  0
LINE
  5
2AD
100
AcDbEntity
  8
DEFAULT_2
100
AcDbLine
 62
8
  6
HIDDEN
 10
13.0747866894
 20
1.1942192833
 11
13.7497866894
 21
1.1942192833
  0
LINE
  5
2AE
100
AcDbEntity
  8
DEFAULT_2
100
AcDbLine
 62
8
  6
HIDDEN
 10
17.4997866894
 20
1.1942192833
 11
18.1747866894
 21
1.1942192833
  0
LINE
  5
2AF
100
AcDbEntity
  8
DEFAULT_2
100
AcDbLine
 62
8
  6
HIDDEN
 10
13.0747866894
 20
1.4192192833
 11
13.7497866894
 21
1.4192192833
  0
LINE
  5
2B0
100
AcDbEntity
  8
DEFAULT_2
100
AcDbLine
 62
8
  6
HIDDEN
 10
17.4997866894
 20
1.4192192833
 11
18.1747866894
 21
1.4192192833
  0
LINE
  5
2B1
100
AcDbEntity
  8
0
100
AcDbLine
 62
7
  6
CONTINUOUS
 10
12.9247866894
 20
9.0692192833
 11
12.9247866894
 21
0.6692192833
  0
LINE
  5
2B2
100
AcDbEntity
  8
02___PRT_ALL_AXES
100
AcDbLine
 62
8
  6
HIDDEN
 10
12.9247866894
 20
0.6692192833
 11
12.9247866894
 21
6.0692192833
  0
LINE
  5
2B3
100
AcDbEntity
  8
DEFAULT_2
100
AcDbLine
 62
8
  6
HIDDEN
 10
13.0747866894
 20
4.8692192833
 11
13.0747866894
 21
4.6442192833
  0
LINE
  5
2B4
100
AcDbEntity
  8
DEFAULT_2
100
AcDbLine
 62
8
  6
HIDDEN
 10
13.0747866894
 20
1.1942192833
 11
13.0747866894
 21
1.4192192833
  0
LINE
  5
2B5
100
AcDbEntity
  8
DEFAULT_2
100
AcDbLine
 62
8
  6
HIDDEN
 10
13.0747866894
 20
2.9192192833
 11
13.0747866894
 21
3.1442192833
  0
LINE
  5
2B6
100
AcDbEntity
  8
02___PRT_ALL_AXES
100
AcDbLine
 62
8
  6
HIDDEN
 10
13.1497866894
 20
2.5646836591
 11
13.1497866894
 21
2.6584336591
  0
LINE
  5
2B7
100
AcDbEntity
  8
02___PRT_ALL_AXES
100
AcDbLine
 62
8
  6
HIDDEN
 10
13.1497866894
 20
2.8244912803
 11
13.1497866894
 21
2.9182412803
  0
LINE
  5
2B8
100
AcDbEntity
  8
02___PRT_ALL_AXES
100
AcDbLine
 62
8
  6
HIDDEN
 10
13.1497866894
 20
3.0842989014
 11
13.1497866894
 21
3.1780489014
  0
LINE
  5
2B9
100
AcDbEntity
  8
02___PRT_ALL_AXES
100
AcDbLine
 62
8
  6
HIDDEN
 10
13.1497866894
 20
3.3441065225
 11
13.1497866894
 21
3.4378565225
  0
LINE
  5
2BA
100
AcDbEntity
  8
02___PRT_ALL_AXES
100
AcDbLine
 62
8
  6
HIDDEN
 10
13.1497866894
 20
3.6039141437
 11
13.1497866894
 21
3.6976641437
  0
LINE
  5
2BB
100
AcDbEntity
  8
02___PRT_ALL_AXES
100
AcDbLine
 62
8
  6
HIDDEN
 10
13.1497866894
 20
4.3646836591
 11
13.1497866894
 21
4.4584336591
  0
LINE
  5
2BC
100
AcDbEntity
  8
02___PRT_ALL_AXES
100
AcDbLine
 62
8
  6
HIDDEN
 10
13.1497866894
 20
4.6244912803
 11
13.1497866894
 21
4.7182412803
  0
LINE
  5
2BD
100
AcDbEntity
  8
02___PRT_ALL_AXES
100
AcDbLine
 62
8
  6
HIDDEN
 10
13.1497866894
 20
4.8842989014
 11
13.1497866894
 21
4.9780489014
  0
LINE
  5
2BE
100
AcDbEntity
  8
02___PRT_ALL_AXES
100
AcDbLine
 62
8
  6
HIDDEN
 10
13.1497866894
 20
5.1441065225
 11
13.1497866894
 21
5.2378565225
  0
LINE
  5
2BF
100
AcDbEntity
  8
02___PRT_ALL_AXES
100
AcDbLine
 62
8
  6
HIDDEN
 10
13.1497866894
 20
5.4039141437
 11
13.1497866894
 21
5.4976641437
  0
LINE
  5
2C0
100
AcDbEntity
  8
DEFAULT_2
100
AcDbLine
 62
8
  6
HIDDEN
 10
13.1497866894
 20
0.6692192833
 11
13.1497866894
 21
7.7828399513
  0
LINE
  5
2C1
100
AcDbEntity
  8
02___PRT_ALL_AXES
100
AcDbLine
 62
8
  6
HIDDEN
 10
12.9247866894
 20
2.5646836591
 11
13.1497866894
 21
2.5646836591
  0
LINE
  5
2C2
100
AcDbEntity
  8
02___PRT_ALL_AXES
100
AcDbLine
 62
8
  6
HIDDEN
 10
18.0997866894
 20
2.5646836591
 11
18.3247866894
 21
2.5646836591
  0
LINE
  5
2C3
100
AcDbEntity
  8
02___PRT_ALL_AXES
100
AcDbLine
 62
8
  6
HIDDEN
 10
12.9247866894
 20
2.6584336591
 11
13.1497866894
 21
2.6584336591
  0
LINE
  5
2C4
100
AcDbEntity
  8
02___PRT_ALL_AXES
100
AcDbLine
 62
8
  6
HIDDEN
 10
18.0997866894
 20
2.6584336591
 11
18.3247866894
 21
2.6584336591
  0
LINE
  5
2C5
100
AcDbEntity
  8
DEFAULT_2
100
AcDbLine
 62
8
  6
HIDDEN
 10
13.2997866894
 20
4.6529361407
 11
13.2997866894
 21
7.7828399513
  0
LINE
  5
2C6
100
AcDbEntity
  8
02___PRT_ALL_AXES
100
AcDbLine
 62
8
  6
HIDDEN
 10
13.3747866894
 20
3.3441065225
 11
13.3747866894
 21
3.4378565225
  0
LINE
  5
2C7
100
AcDbEntity
  8
02___PRT_ALL_AXES
100
AcDbLine
 62
8
  6
HIDDEN
 10
13.3747866894
 20
5.1441065225
 11
13.3747866894
 21
5.2378565225
  0
LINE
  5
2C8
100
AcDbEntity
  8
DEFAULT_2
100
AcDbLine
 62
8
  6
HIDDEN
 10
13.3747866894
 20
2.8374051637
 11
13.3747866894
 21
7.6529361407
  0
LINE
  5
2C9
100
AcDbEntity
  8
02___PRT_ALL_AXES
100
AcDbLine
 62
8
  6
HIDDEN
 10
12.9247866894
 20
2.8244912803
 11
13.1497866894
 21
2.8244912803
  0
LINE
  5
2CA
100
AcDbEntity
  8
02___PRT_ALL_AXES
100
AcDbLine
 62
8
  6
HIDDEN
 10
18.0997866894
 20
2.8244912803
 11
18.3247866894
 21
2.8244912803
  0
LINE
  5
2CB
100
AcDbEntity
  8
DEFAULT_2
100
AcDbLine
 62
8
  6
HIDDEN
 10
18.0997866894
 20
2.8373916841
 11
17.8747866894
 21
2.8373916841
  0
LINE
  5
2CC
100
AcDbEntity
  8
DEFAULT_2
100
AcDbLine
 62
8
  6
HIDDEN
 10
13.3747866894
 20
2.8373916841
 11
13.1497866894
 21
2.8373916841
  0
LINE
  5
2CD
100
AcDbEntity
  8
DEFAULT_2
100
AcDbLine
 62
8
  6
HIDDEN
 10
18.0997866894
 20
2.8775840629
 11
17.8747866894
 21
2.8775840629
  0
LINE
  5
2CE
100
AcDbEntity
  8
DEFAULT_2
100
AcDbLine
 62
8
  6
HIDDEN
 10
13.3747866894
 20
2.8775840629
 11
13.1497866894
 21
2.8775840629
  0
LINE
  5
2CF
100
AcDbEntity
  8
02___PRT_ALL_AXES
100
AcDbLine
 62
8
  6
HIDDEN
 10
12.9247866894
 20
2.9182412803
 11
13.1497866894
 21
2.9182412803
  0
LINE
  5
2D0
100
AcDbEntity
  8
02___PRT_ALL_AXES
100
AcDbLine
 62
8
  6
HIDDEN
 10
18.0997866894
 20
2.9182412803
 11
18.3247866894
 21
2.9182412803
  0
LINE
  5
2D1
100
AcDbEntity
  8
DEFAULT_2
100
AcDbLine
 62
8
  6
HIDDEN
 10
13.0747866894
 20
2.9192192833
 11
13.7497866894
 21
2.9192192833
  0
LINE
  5
2D2
100
AcDbEntity
  8
DEFAULT_2
100
AcDbLine
 62
8
  6
HIDDEN
 10
17.4997866894
 20
2.9192192833
 11
18.1747866894
 21
2.9192192833
  0
LINE
  5
2D3
100
AcDbEntity
  8
DEFAULT_2
100
AcDbLine
 62
8
  6
HIDDEN
 10
13.7497866894
 20
4.8692192833
 11
13.7497866894
 21
4.6442192833
  0
LINE
  5
2D4
100
AcDbEntity
  8
DEFAULT_2
100
AcDbLine
 62
8
  6
HIDDEN
 10
13.7497866894
 20
1.1942192833
 11
13.7497866894
 21
1.4192192833
  0
LINE
  5
2D5
100
AcDbEntity
  8
DEFAULT_2
100
AcDbLine
 62
8
  6
HIDDEN
 10
13.7497866894
 20
2.9192192833
 11
13.7497866894
 21
3.1442192833
  0
LINE
  5
2D6
100
AcDbEntity
  8
02___PRT_ALL_AXES
100
AcDbLine
 62
8
  6
HIDDEN
 10
12.9247866894
 20
3.0842989014
 11
13.1497866894
 21
3.0842989014
  0
LINE
  5
2D7
100
AcDbEntity
  8
02___PRT_ALL_AXES
100
AcDbLine
 62
8
  6
HIDDEN
 10
18.0997866894
 20
3.0842989014
 11
18.3247866894
 21
3.0842989014
  0
LINE
  5
2D8
100
AcDbEntity
  8
DEFAULT_2
100
AcDbLine
 62
8
  6
HIDDEN
 10
18.3247866894
 20
3.1373916841
 11
17.8747866894
 21
3.1373916841
  0
LINE
  5
2D9
100
AcDbEntity
  8
DEFAULT_2
100
AcDbLine
 62
8
  6
HIDDEN
 10
13.3747866894
 20
3.1373916841
 11
12.9247866894
 21
3.1373916841
  0
LINE
  5
2DA
100
AcDbEntity
  8
DEFAULT_2
100
AcDbLine
 62
8
  6
HIDDEN
 10
13.0747866894
 20
3.1442192833
 11
13.7497866894
 21
3.1442192833
  0
LINE
  5
2DB
100
AcDbEntity
  8
DEFAULT_2
100
AcDbLine
 62
8
  6
HIDDEN
 10
17.4997866894
 20
3.1442192833
 11
18.1747866894
 21
3.1442192833
  0
LINE
  5
2DC
100
AcDbEntity
  8
02___PRT_ALL_AXES
100
AcDbLine
 62
8
  6
HIDDEN
 10
12.9247866894
 20
3.1780489014
 11
13.1497866894
 21
3.1780489014
  0
LINE
  5
2DD
100
AcDbEntity
  8
02___PRT_ALL_AXES
100
AcDbLine
 62
8
  6
HIDDEN
 10
18.0997866894
 20
3.1780489014
 11
18.3247866894
 21
3.1780489014
  0
LINE
  5
2DE
100
AcDbEntity
  8
02___PRT_ALL_AXES
100
AcDbLine
 62
8
  6
HIDDEN
 10
12.9247866894
 20
3.3441065225
 11
13.3747866894
 21
3.3441065225
  0
LINE
  5
2DF
100
AcDbEntity
  8
02___PRT_ALL_AXES
100
AcDbLine
 62
8
  6
HIDDEN
 10
17.8747866894
 20
3.3441065225
 11
18.3247866894
 21
3.3441065225
  0
LINE
  5
2E0
100
AcDbEntity
  8
DEFAULT_2
100
AcDbLine
 62
8
  6
HIDDEN
 10
18.3247866894
 20
3.3971993052
 11
18.0997866894
 21
3.3971993052
  0
LINE
  5
2E1
100
AcDbEntity
  8
DEFAULT_2
100
AcDbLine
 62
8
  6
HIDDEN
 10
13.1497866894
 20
3.3971993052
 11
12.9247866894
 21
3.3971993052
  0
LINE
  5
2E2
100
AcDbEntity
  8
DEFAULT_2
100
AcDbLine
 62
8
  6
HIDDEN
 10
13.9747866894
 20
6.8828399513
 11
13.9747866894
 21
6.6578399513
  0
LINE
  5
2E3
100
AcDbEntity
  8
DEFAULT_2
100
AcDbLine
 62
8
  6
HIDDEN
 10
13.9747866894
 20
5.4578399513
 11
13.9747866894
 21
5.2328399513
  0
LINE
  5
2E4
100
AcDbEntity
  8
02___PRT_ALL_AXES
100
AcDbLine
 62
8
  6
HIDDEN
 10
12.9247866894
 20
3.4378565225
 11
13.3747866894
 21
3.4378565225
  0
LINE
  5
2E5
100
AcDbEntity
  8
02___PRT_ALL_AXES
100
AcDbLine
 62
8
  6
HIDDEN
 10
17.8747866894
 20
3.4378565225
 11
18.3247866894
 21
3.4378565225
  0
LINE
  5
2E6
100
AcDbEntity
  8
02___PRT_ALL_AXES
100
AcDbLine
 62
8
  6
HIDDEN
 10
12.9247866894
 20
3.6039141437
 11
13.1497866894
 21
3.6039141437
  0
LINE
  5
2E7
100
AcDbEntity
  8
02___PRT_ALL_AXES
100
AcDbLine
 62
8
  6
HIDDEN
 10
18.0997866894
 20
3.6039141437
 11
18.3247866894
 21
3.6039141437
  0
LINE
  5
2E8
100
AcDbEntity
  8
02___PRT_ALL_AXES
100
AcDbLine
 62
8
  6
HIDDEN
 10
12.9247866894
 20
3.6976641437
 11
13.1497866894
 21
3.6976641437
  0
LINE
  5
2E9
100
AcDbEntity
  8
02___PRT_ALL_AXES
100
AcDbLine
 62
8
  6
HIDDEN
 10
18.0997866894
 20
3.6976641437
 11
18.3247866894
 21
3.6976641437
  0
LINE
  5
2EA
100
AcDbEntity
  8
02___PRT_ALL_AXES
100
AcDbLine
 62
8
  6
HIDDEN
 10
12.9247866894
 20
4.3646836591
 11
13.1497866894
 21
4.3646836591
  0
LINE
  5
2EB
100
AcDbEntity
  8
02___PRT_ALL_AXES
100
AcDbLine
 62
8
  6
HIDDEN
 10
18.0997866894
 20
4.3646836591
 11
18.3247866894
 21
4.3646836591
  0
LINE
  5
2EC
100
AcDbEntity
  8
02___PRT_ALL_AXES
100
AcDbLine
 62
8
  6
HIDDEN
 10
12.9247866894
 20
4.4584336591
 11
13.1497866894
 21
4.4584336591
  0
LINE
  5
2ED
100
AcDbEntity
  8
02___PRT_ALL_AXES
100
AcDbLine
 62
8
  6
HIDDEN
 10
18.0997866894
 20
4.4584336591
 11
18.3247866894
 21
4.4584336591
  0
LINE
  5
2EE
100
AcDbEntity
  8
02___PRT_ALL_AXES
100
AcDbLine
 62
8
  6
HIDDEN
 10
12.9247866894
 20
4.6244912803
 11
13.1497866894
 21
4.6244912803
  0
LINE
  5
2EF
100
AcDbEntity
  8
02___PRT_ALL_AXES
100
AcDbLine
 62
8
  6
HIDDEN
 10
18.0997866894
 20
4.6244912803
 11
18.3247866894
 21
4.6244912803
  0
LINE
  5
2F0
100
AcDbEntity
  8
DEFAULT_2
100
AcDbLine
 62
8
  6
HIDDEN
 10
13.7497866894
 20
4.6442192833
 11
13.0747866894
 21
4.6442192833
  0
LINE
  5
2F1
100
AcDbEntity
  8
DEFAULT_2
100
AcDbLine
 62
8
  6
HIDDEN
 10
17.4997866894
 20
4.6442192833
 11
18.1747866894
 21
4.6442192833
  0
LINE
  5
2F2
100
AcDbEntity
  8
DEFAULT_2
100
AcDbLine
 62
8
  6
HIDDEN
 10
13.2997866894
 20
4.6529361407
 11
13.3747866894
 21
4.6529361407
  0
LINE
  5
2F3
100
AcDbEntity
  8
DEFAULT_2
100
AcDbLine
 62
8
  6
HIDDEN
 10
17.8747866894
 20
4.6529361407
 11
17.9497866894
 21
4.6529361407
  0
LINE
  5
2F4
100
AcDbEntity
  8
02___PRT_ALL_AXES
100
AcDbLine
 62
8
  6
HIDDEN
 10
12.9247866894
 20
4.7182412803
 11
13.1497866894
 21
4.7182412803
  0
LINE
  5
2F5
100
AcDbEntity
  8
02___PRT_ALL_AXES
100
AcDbLine
 62
8
  6
HIDDEN
 10
18.0997866894
 20
4.7182412803
 11
18.3247866894
 21
4.7182412803
  0
LINE
  5
2F6
100
AcDbEntity
  8
DEFAULT_2
100
AcDbLine
 62
8
  6
HIDDEN
 10
12.9247866894
 20
4.7602441857
 11
13.1497866894
 21
4.7602441857
  0
LINE
  5
2F7
100
AcDbEntity
  8
DEFAULT_2
100
AcDbLine
 62
8
  6
HIDDEN
 10
18.0997866894
 20
4.7602441857
 11
18.3247866894
 21
4.7602441857
  0
LINE
  5
2F8
100
AcDbEntity
  8
DEFAULT_2
100
AcDbLine
 62
8
  6
HIDDEN
 10
13.1497866894
 20
4.7828399513
 11
18.0997866894
 21
4.7828399513
  0
LINE
  5
2F9
100
AcDbEntity
  8
DEFAULT_2
100
AcDbLine
 62
8
  6
HIDDEN
 10
13.7497866894
 20
4.8692192833
 11
13.0747866894
 21
4.8692192833
  0
LINE
  5
2FA
100
AcDbEntity
  8
DEFAULT_2
100
AcDbLine
 62
8
  6
HIDDEN
 10
17.4997866894
 20
4.8692192833
 11
18.1747866894
 21
4.8692192833
  0
LINE
  5
2FB
100
AcDbEntity
  8
02___PRT_ALL_AXES
100
AcDbLine
 62
8
  6
HIDDEN
 10
12.9247866894
 20
4.8842989014
 11
13.1497866894
 21
4.8842989014
  0
LINE
  5
2FC
100
AcDbEntity
  8
02___PRT_ALL_AXES
100
AcDbLine
 62
8
  6
HIDDEN
 10
18.0997866894
 20
4.8842989014
 11
18.3247866894
 21
4.8842989014
  0
LINE
  5
2FD
100
AcDbEntity
  8
DEFAULT_2
100
AcDbLine
 62
8
  6
HIDDEN
 10
12.9247866894
 20
4.96120608
 11
13.1497866894
 21
4.96120608
  0
LINE
  5
2FE
100
AcDbEntity
  8
DEFAULT_2
100
AcDbLine
 62
8
  6
HIDDEN
 10
18.0997866894
 20
4.96120608
 11
18.3247866894
 21
4.96120608
  0
LINE
  5
2FF
100
AcDbEntity
  8
02___PRT_ALL_AXES
100
AcDbLine
 62
8
  6
HIDDEN
 10
12.9247866894
 20
4.9780489014
 11
13.1497866894
 21
4.9780489014
  0
LINE
  5
300
100
AcDbEntity
  8
02___PRT_ALL_AXES
100
AcDbLine
 62
8
  6
HIDDEN
 10
18.0997866894
 20
4.9780489014
 11
18.3247866894
 21
4.9780489014
  0
LINE
  5
301
100
AcDbEntity
  8
02___PRT_ALL_AXES
100
AcDbLine
 62
8
  6
HIDDEN
 10
12.9247866894
 20
5.1441065225
 11
13.3747866894
 21
5.1441065225
  0
LINE
  5
302
100
AcDbEntity
  8
02___PRT_ALL_AXES
100
AcDbLine
 62
8
  6
HIDDEN
 10
17.8747866894
 20
5.1441065225
 11
18.3247866894
 21
5.1441065225
  0
LINE
  5
303
100
AcDbEntity
  8
DEFAULT_2
100
AcDbLine
 62
8
  6
HIDDEN
 10
17.9497866894
 20
5.2328399513
 11
17.2747866894
 21
5.2328399513
  0
LINE
  5
304
100
AcDbEntity
  8
DEFAULT_2
100
AcDbLine
 62
8
  6
HIDDEN
 10
13.9747866894
 20
5.2328399513
 11
13.2997866894
 21
5.2328399513
  0
LINE
  5
305
100
AcDbEntity
  8
02___PRT_ALL_AXES
100
AcDbLine
 62
8
  6
HIDDEN
 10
12.9247866894
 20
5.2378565225
 11
13.3747866894
 21
5.2378565225
  0
LINE
  5
306
100
AcDbEntity
  8
02___PRT_ALL_AXES
100
AcDbLine
 62
8
  6
HIDDEN
 10
17.8747866894
 20
5.2378565225
 11
18.3247866894
 21
5.2378565225
  0
LINE
  5
307
100
AcDbEntity
  8
02___PRT_ALL_AXES
100
AcDbLine
 62
8
  6
HIDDEN
 10
12.9247866894
 20
5.4039141437
 11
13.1497866894
 21
5.4039141437
  0
LINE
  5
308
100
AcDbEntity
  8
02___PRT_ALL_AXES
100
AcDbLine
 62
8
  6
HIDDEN
 10
18.0997866894
 20
5.4039141437
 11
18.3247866894
 21
5.4039141437
  0
LINE
  5
309
100
AcDbEntity
  8
DEFAULT_2
100
AcDbLine
 62
8
  6
HIDDEN
 10
18.0997866894
 20
5.444571361
 11
17.8747866894
 21
5.444571361
  0
LINE
  5
30A
100
AcDbEntity
  8
DEFAULT_2
100
AcDbLine
 62
8
  6
HIDDEN
 10
13.3747866894
 20
5.444571361
 11
13.1497866894
 21
5.444571361
  0
LINE
  5
30B
100
AcDbEntity
  8
DEFAULT_2
100
AcDbLine
 62
8
  6
HIDDEN
 10
13.2997866894
 20
5.4578399513
 11
13.9747866894
 21
5.4578399513
  0
LINE
  5
30C
100
AcDbEntity
  8
DEFAULT_2
100
AcDbLine
 62
8
  6
HIDDEN
 10
17.2747866894
 20
5.4578399513
 11
17.9497866894
 21
5.4578399513
  0
LINE
  5
30D
100
AcDbEntity
  8
02___PRT_ALL_AXES
100
AcDbLine
 62
8
  6
HIDDEN
 10
12.9247866894
 20
5.4976641437
 11
13.1497866894
 21
5.4976641437
  0
LINE
  5
30E
100
AcDbEntity
  8
02___PRT_ALL_AXES
100
AcDbLine
 62
8
  6
HIDDEN
 10
18.0997866894
 20
5.4976641437
 11
18.3247866894
 21
5.4976641437
  0
LINE
  5
30F
100
AcDbEntity
  8
DEFAULT_2
100
AcDbLine
 62
8
  6
HIDDEN
 10
18.3247866894
 20
5.7043789822
 11
17.8747866894
 21
5.7043789822
  0
LINE
  5
310
100
AcDbEntity
  8
DEFAULT_2
100
AcDbLine
 62
8
  6
HIDDEN
 10
13.3747866894
 20
5.7043789822
 11
12.9247866894
 21
5.7043789822
  0
LINE
  5
311
100
AcDbEntity
  8
DEFAULT_2
100
AcDbLine
 62
8
  6
HIDDEN
 10
18.3247866894
 20
5.9641866033
 11
18.0997866894
 21
5.9641866033
  0
LINE
  5
312
100
AcDbEntity
  8
DEFAULT_2
100
AcDbLine
 62
8
  6
HIDDEN
 10
13.1497866894
 20
5.9641866033
 11
12.9247866894
 21
5.9641866033
  0
LINE
  5
313
100
AcDbEntity
  8
DEFAULT_2
100
AcDbLine
 62
8
  6
HIDDEN
 10
18.3247866894
 20
6.0043789822
 11
18.0997866894
 21
6.0043789822
  0
LINE
  5
314
100
AcDbEntity
  8
DEFAULT_2
100
AcDbLine
 62
8
  6
HIDDEN
 10
13.1497866894
 20
6.0043789822
 11
12.9247866894
 21
6.0043789822
  0
LINE
  5
315
100
AcDbEntity
  8
DEFAULT_2
100
AcDbLine
 62
8
  6
HIDDEN
 10
18.3247866894
 20
6.0692192833
 11
18.0997866894
 21
6.0692192833
  0
LINE
  5
316
100
AcDbEntity
  8
DEFAULT_2
100
AcDbLine
 62
8
  6
HIDDEN
 10
13.1497866894
 20
6.0692192833
 11
12.9247866894
 21
6.0692192833
  0
LINE
  5
317
100
AcDbEntity
  8
02___PRT_ALL_AXES
100
AcDbLine
 62
8
  6
HIDDEN
 10
12.9247866894
 20
6.0692192833
 11
13.1497866894
 21
6.0692192833
  0
LINE
  5
318
100
AcDbEntity
  8
02___PRT_ALL_AXES
100
AcDbLine
 62
8
  6
HIDDEN
 10
18.0997866894
 20
6.0692192833
 11
18.3247866894
 21
6.0692192833
  0
LINE
  5
319
100
AcDbEntity
  8
DEFAULT_2
100
AcDbLine
 62
8
  6
HIDDEN
 10
17.2747866894
 20
5.4578399513
 11
17.2747866894
 21
5.2328399513
  0
LINE
  5
31A
100
AcDbEntity
  8
DEFAULT_2
100
AcDbLine
 62
8
  6
HIDDEN
 10
17.2747866894
 20
6.6578399513
 11
17.2747866894
 21
6.8828399513
  0
LINE
  5
31B
100
AcDbEntity
  8
DEFAULT_2
100
AcDbLine
 62
8
  6
HIDDEN
 10
17.9497866894
 20
6.6578399513
 11
17.3527866894
 21
6.6578399513
  0
LINE
  5
31C
100
AcDbEntity
  8
DEFAULT_2
100
AcDbLine
 62
8
  6
HIDDEN
 10
13.2997866894
 20
6.6578399513
 11
13.9747866894
 21
6.6578399513
  0
LINE
  5
31D
100
AcDbEntity
  8
DEFAULT_2
100
AcDbLine
 62
8
  6
HIDDEN
 10
17.9497866894
 20
6.8828399513
 11
17.3527866894
 21
6.8828399513
  0
LINE
  5
31E
100
AcDbEntity
  8
DEFAULT_2
100
AcDbLine
 62
8
  6
HIDDEN
 10
13.2997866894
 20
6.8828399513
 11
13.9747866894
 21
6.8828399513
  0
LINE
  5
31F
100
AcDbEntity
  8
DEFAULT_2
100
AcDbLine
 62
8
  6
HIDDEN
 10
17.4997866894
 20
4.8692192833
 11
17.4997866894
 21
4.6442192833
  0
LINE
  5
320
100
AcDbEntity
  8
DEFAULT_2
100
AcDbLine
 62
8
  6
HIDDEN
 10
17.4997866894
 20
3.1442192833
 11
17.4997866894
 21
2.9192192833
  0
LINE
  5
321
100
AcDbEntity
  8
DEFAULT_2
100
AcDbLine
 62
8
  6
HIDDEN
 10
17.4997866894
 20
1.4192192833
 11
17.4997866894
 21
1.1942192833
  0
LINE
  5
322
100
AcDbEntity
  8
02___PRT_ALL_AXES
100
AcDbLine
 62
8
  6
HIDDEN
 10
17.8747866894
 20
5.2378565225
 11
17.8747866894
 21
5.1441065225
  0
LINE
  5
323
100
AcDbEntity
  8
02___PRT_ALL_AXES
100
AcDbLine
 62
8
  6
HIDDEN
 10
17.8747866894
 20
3.4378565225
 11
17.8747866894
 21
3.3441065225
  0
LINE
  5
324
100
AcDbEntity
  8
DEFAULT_2
100
AcDbLine
 62
8
  6
HIDDEN
 10
17.8747866894
 20
2.8374051637
 11
17.8747866894
 21
7.6529361407
  0
LINE
  5
325
100
AcDbEntity
  8
DEFAULT_2
100
AcDbLine
 62
8
  6
HIDDEN
 10
17.9497866894
 20
7.7828399513
 11
17.9497866894
 21
4.6529361407
  0
LINE
  5
326
100
AcDbEntity
  8
02___PRT_ALL_AXES
100
AcDbLine
 62
8
  6
HIDDEN
 10
18.0997866894
 20
5.4976641437
 11
18.0997866894
 21
5.4039141437
  0
LINE
  5
327
100
AcDbEntity
  8
02___PRT_ALL_AXES
100
AcDbLine
 62
8
  6
HIDDEN
 10
18.0997866894
 20
5.2378565225
 11
18.0997866894
 21
5.1441065225
  0
LINE
  5
328
100
AcDbEntity
  8
02___PRT_ALL_AXES
100
AcDbLine
 62
8
  6
HIDDEN
 10
18.0997866894
 20
4.9780489014
 11
18.0997866894
 21
4.8842989014
  0
LINE
  5
329
100
AcDbEntity
  8
02___PRT_ALL_AXES
100
AcDbLine
 62
8
  6
HIDDEN
 10
18.0997866894
 20
4.7182412803
 11
18.0997866894
 21
4.6244912803
  0
LINE
  5
32A
100
AcDbEntity
  8
02___PRT_ALL_AXES
100
AcDbLine
 62
8
  6
HIDDEN
 10
18.0997866894
 20
4.4584336591
 11
18.0997866894
 21
4.3646836591
  0
LINE
  5
32B
100
AcDbEntity
  8
02___PRT_ALL_AXES
100
AcDbLine
 62
8
  6
HIDDEN
 10
18.0997866894
 20
3.6976641437
 11
18.0997866894
 21
3.6039141437
  0
LINE
  5
32C
100
AcDbEntity
  8
02___PRT_ALL_AXES
100
AcDbLine
 62
8
  6
HIDDEN
 10
18.0997866894
 20
3.4378565225
 11
18.0997866894
 21
3.3441065225
  0
LINE
  5
32D
100
AcDbEntity
  8
02___PRT_ALL_AXES
100
AcDbLine
 62
8
  6
HIDDEN
 10
18.0997866894
 20
3.1780489014
 11
18.0997866894
 21
3.0842989014
  0
LINE
  5
32E
100
AcDbEntity
  8
02___PRT_ALL_AXES
100
AcDbLine
 62
8
  6
HIDDEN
 10
18.0997866894
 20
2.9182412803
 11
18.0997866894
 21
2.8244912803
  0
LINE
  5
32F
100
AcDbEntity
  8
02___PRT_ALL_AXES
100
AcDbLine
 62
8
  6
HIDDEN
 10
18.0997866894
 20
2.6584336591
 11
18.0997866894
 21
2.5646836591
  0
LINE
  5
330
100
AcDbEntity
  8
DEFAULT_2
100
AcDbLine
 62
8
  6
HIDDEN
 10
18.0997866894
 20
0.6692192833
 11
18.0997866894
 21
7.7828399513
  0
LINE
  5
331
100
AcDbEntity
  8
DEFAULT_2
100
AcDbLine
 62
8
  6
HIDDEN
 10
13.2997866894
 20
7.6529361407
 11
13.3747866894
 21
7.6529361407
  0
LINE
  5
332
100
AcDbEntity
  8
DEFAULT_2
100
AcDbLine
 62
8
  6
HIDDEN
 10
17.8747866894
 20
7.6529361407
 11
17.9497866894
 21
7.6529361407
  0
LINE
  5
333
100
AcDbEntity
  8
DEFAULT_2
100
AcDbLine
 62
8
  6
HIDDEN
 10
18.1747866894
 20
4.8692192833
 11
18.1747866894
 21
4.6442192833
  0
LINE
  5
334
100
AcDbEntity
  8
DEFAULT_2
100
AcDbLine
 62
8
  6
HIDDEN
 10
18.1747866894
 20
3.1442192833
 11
18.1747866894
 21
2.9192192833
  0
LINE
  5
335
100
AcDbEntity
  8
DEFAULT_2
100
AcDbLine
 62
8
  6
HIDDEN
 10
18.1747866894
 20
1.4192192833
 11
18.1747866894
 21
1.1942192833
  0
LINE
  5
336
100
AcDbEntity
  8
02___PRT_ALL_AXES
100
AcDbLine
 62
8
  6
HIDDEN
 10
18.3247866894
 20
6.0692192833
 11
18.3247866894
 21
0.6692192833
  0
LINE
  5
337
100
AcDbEntity
  8
0
100
AcDbLine
 62
7
  6
CONTINUOUS
 10
18.3247866894
 20
0.6692192833
 11
18.3247866894
 21
9.0692192833
  0
LINE
  5
338
100
AcDbEntity
  8
DEFAULT_2
100
AcDbLine
 62
8
  6
HIDDEN
 10
13.1497866894
 20
7.7828399513
 11
18.0997866894
 21
7.7828399513
  0
LINE
  5
339
100
AcDbEntity
  8
0
100
AcDbLine
 62
7
  6
CONTINUOUS
 10
17.7247866894
 20
9.6692192833
 11
13.5247866894
 21
9.6692192833
  0
ARC
  5
33A
100
AcDbEntity
  8
DEFAULT_2
100
AcDbCircle
 62
8
  6
HIDDEN
 10
4.6038822526
 20
3.1373916841
 40
0.3
100
AcDbArc
 50
240.0
 51
360.0
  0
ARC
  5
33B
100
AcDbEntity
  8
0
100
AcDbCircle
 62
7
  6
CONTINUOUS
 10
4.1538822526
 20
3.3971993052
 40
0.3
100
AcDbArc
 50
180.0
 51
240.0
  0
CIRCLE
  5
33C
100
AcDbEntity
  8
02___PRT_ALL_AXES
100
AcDbCircle
 62
7
  6
CONTINUOUS
 10
4.1538822526
 20
3.6507891437
 40
0.046875
  0
CIRCLE
  5
33D
100
AcDbEntity
  8
02___PRT_ALL_AXES
100
AcDbCircle
 62
7
  6
CONTINUOUS
 10
4.6038822526
 20
3.3909815225
 40
0.046875
  0
CIRCLE
  5
33E
100
AcDbEntity
  8
02___PRT_ALL_AXES
100
AcDbCircle
 62
7
  6
CONTINUOUS
 10
5.0538822526
 20
3.1311739014
 40
0.046875
  0
ARC
  5
33F
100
AcDbEntity
  8
DEFAULT_2
100
AcDbCircle
 62
8
  6
HIDDEN
 10
4.6038822526
 20
5.444571361
 40
0.3
100
AcDbArc
 50
0.0
 51
60.0
  0
ARC
  5
340
100
AcDbEntity
  8
0
100
AcDbCircle
 62
7
  6
CONTINUOUS
 10
4.1538822526
 20
5.7043789822
 40
0.3
100
AcDbArc
 50
60.0
 51
180.0
  0
CIRCLE
  5
341
100
AcDbEntity
  8
02___PRT_ALL_AXES
100
AcDbCircle
 62
7
  6
CONTINUOUS
 10
4.1538822526
 20
5.4507891437
 40
0.046875
  0
CIRCLE
  5
342
100
AcDbEntity
  8
02___PRT_ALL_AXES
100
AcDbCircle
 62
7
  6
CONTINUOUS
 10
4.6038822526
 20
5.1909815225
 40
0.046875
  0
CIRCLE
  5
343
100
AcDbEntity
  8
02___PRT_ALL_AXES
100
AcDbCircle
 62
7
  6
CONTINUOUS
 10
5.0538822526
 20
4.9311739014
 40
0.046875
  0
CIRCLE
  5
344
100
AcDbEntity
  8
02___PRT_ALL_AXES
100
AcDbCircle
 62
7
  6
CONTINUOUS
 10
5.5038822526
 20
2.8713662803
 40
0.046875
  0
CIRCLE
  5
345
100
AcDbEntity
  8
02___PRT_ALL_AXES
100
AcDbCircle
 62
7
  6
CONTINUOUS
 10
5.9538822526
 20
2.6115586591
 40
0.046875
  0
CIRCLE
  5
346
100
AcDbEntity
  8
02___PRT_ALL_AXES
100
AcDbCircle
 62
7
  6
CONTINUOUS
 10
5.9538822526
 20
4.4115586591
 40
0.046875
  0
ARC
  5
347
100
AcDbEntity
  8
0
100
AcDbCircle
 62
7
  6
CONTINUOUS
 10
6.791095478
 20
6.2602441857
 40
1.5
100
AcDbArc
 50
240.0
 51
352.6835181098
  0
CIRCLE
  5
348
100
AcDbEntity
  8
02___PRT_ALL_AXES
100
AcDbCircle
 62
7
  6
CONTINUOUS
 10
5.5038822526
 20
4.6713662803
 40
0.046875
  0
ARC
  5
349
100
AcDbEntity
  8
0
100
AcDbCircle
 62
7
  6
CONTINUOUS
 10
7.6788822526
 20
11.3703007519
 40
0.6
100
AcDbArc
 50
270.0
 51
360.0
  0
ARC
  5
34A
100
AcDbEntity
  8
0
100
AcDbCircle
 62
7
  6
CONTINUOUS
 10
7.6788822526
 20
15.1203007519
 40
0.6
100
AcDbArc
 50
0.0
 51
90.0
  0
ARC
  5
34B
100
AcDbEntity
  8
0
100
AcDbCircle
 62
7
  6
CONTINUOUS
 10
1.9788822526
 20
14.8953007519
 40
0.6
100
AcDbArc
 50
90.0
 51
180.0
  0
ARC
  5
34C
100
AcDbEntity
  8
0
100
AcDbCircle
 62
7
  6
CONTINUOUS
 10
1.9788822526
 20
11.5953007519
 40
0.6
100
AcDbArc
 50
180.0
 51
270.0
  0
CIRCLE
  5
34D
100
AcDbEntity
  8
0
100
AcDbCircle
 62
7
  6
CONTINUOUS
 10
15.5122866894
 20
3.6692192833
 40
0.045
  0
CIRCLE
  5
34E
100
AcDbEntity
  8
0
100
AcDbCircle
 62
7
  6
CONTINUOUS
 10
15.5122866894
 20
1.4754692833
 40
0.045
  0
CIRCLE
  5
34F
100
AcDbEntity
  8
0
100
AcDbCircle
 62
7
  6
CONTINUOUS
 10
14.4247866894
 20
1.4754692833
 40
0.045
  0
CIRCLE
  5
350
100
AcDbEntity
  8
0
100
AcDbCircle
 62
7
  6
CONTINUOUS
 10
14.4247866894
 20
3.6692192833
 40
0.045
  0
CIRCLE
  5
351
100
AcDbEntity
  8
0
100
AcDbCircle
 62
7
  6
CONTINUOUS
 10
15.5122866894
 20
4.1192192833
 40
0.045
  0
CIRCLE
  5
352
100
AcDbEntity
  8
0
100
AcDbCircle
 62
7
  6
CONTINUOUS
 10
15.5122866894
 20
1.9254692833
 40
0.045
  0
CIRCLE
  5
353
100
AcDbEntity
  8
0
100
AcDbCircle
 62
7
  6
CONTINUOUS
 10
14.4247866894
 20
1.9254692833
 40
0.045
  0
CIRCLE
  5
354
100
AcDbEntity
  8
0
100
AcDbCircle
 62
7
  6
CONTINUOUS
 10
14.4247866894
 20
4.1192192833
 40
0.045
  0
CIRCLE
  5
355
100
AcDbEntity
  8
0
100
AcDbCircle
 62
7
  6
CONTINUOUS
 10
15.5122866894
 20
4.5692192833
 40
0.045
  0
CIRCLE
  5
356
100
AcDbEntity
  8
0
100
AcDbCircle
 62
7
  6
CONTINUOUS
 10
15.5122866894
 20
2.3754692833
 40
0.045
  0
CIRCLE
  5
357
100
AcDbEntity
  8
0
100
AcDbCircle
 62
7
  6
CONTINUOUS
 10
14.4247866894
 20
2.3754692833
 40
0.045
  0
CIRCLE
  5
358
100
AcDbEntity
  8
0
100
AcDbCircle
 62
7
  6
CONTINUOUS
 10
14.4247866894
 20
4.5692192833
 40
0.045
  0
ARC
  5
359
100
AcDbEntity
  8
DEFAULT_2
100
AcDbCircle
 62
8
  6
HIDDEN
 10
13.9357866894
 20
5.2328399513
 40
0.039
100
AcDbArc
 50
180.0
 51
360.0
  0
ARC
  5
35A
100
AcDbEntity
  8
0
100
AcDbCircle
 62
7
  6
CONTINUOUS
 10
13.5247866894
 20
9.0692192833
 40
0.6
100
AcDbArc
 50
90.0
 51
180.0
  0
ARC
  5
35B
100
AcDbEntity
  8
DEFAULT_2
100
AcDbCircle
 62
8
  6
HIDDEN
 10
13.9357866894
 20
5.4578399513
 40
0.039
100
AcDbArc
 50
0.0
 51
180.0
  0
ARC
  5
35C
100
AcDbEntity
  8
DEFAULT_2
100
AcDbCircle
 62
8
  6
HIDDEN
 10
13.9357866894
 20
6.6578399513
 40
0.039
100
AcDbArc
 50
180.0
 51
360.0
  0
ARC
  5
35D
100
AcDbEntity
  8
DEFAULT_2
100
AcDbCircle
 62
8
  6
HIDDEN
 10
13.9357866894
 20
6.8828399513
 40
0.039
100
AcDbArc
 50
0.0
 51
180.0
  0
CIRCLE
  5
35E
100
AcDbEntity
  8
0
100
AcDbCircle
 62
7
  6
CONTINUOUS
 10
16.8247866894
 20
1.4754692833
 40
0.045
  0
CIRCLE
  5
35F
100
AcDbEntity
  8
0
100
AcDbCircle
 62
7
  6
CONTINUOUS
 10
16.8247866894
 20
3.6692192833
 40
0.045
  0
CIRCLE
  5
360
100
AcDbEntity
  8
0
100
AcDbCircle
 62
7
  6
CONTINUOUS
 10
16.8247866894
 20
1.9254692833
 40
0.045
  0
CIRCLE
  5
361
100
AcDbEntity
  8
0
100
AcDbCircle
 62
7
  6
CONTINUOUS
 10
16.8247866894
 20
4.1192192833
 40
0.045
  0
CIRCLE
  5
362
100
AcDbEntity
  8
0
100
AcDbCircle
 62
7
  6
CONTINUOUS
 10
16.8247866894
 20
2.3754692833
 40
0.045
  0
CIRCLE
  5
363
100
AcDbEntity
  8
0
100
AcDbCircle
 62
7
  6
CONTINUOUS
 10
16.8247866894
 20
4.5692192833
 40
0.045
  0
ARC
  5
364
100
AcDbEntity
  8
DEFAULT_2
100
AcDbCircle
 62
8
  6
HIDDEN
 10
17.3137866894
 20
5.2328399513
 40
0.039
100
AcDbArc
 50
180.0
 51
360.0
  0
ARC
  5
365
100
AcDbEntity
  8
0
100
AcDbCircle
 62
7
  6
CONTINUOUS
 10
17.7247866894
 20
9.0692192833
 40
0.6
100
AcDbArc
 50
0.0
 51
90.0
  0
ARC
  5
366
100
AcDbEntity
  8
DEFAULT_2
100
AcDbCircle
 62
8
  6
HIDDEN
 10
17.3137866894
 20
6.8828399513
 40
0.039
100
AcDbArc
 50
0.0
 51
180.0
  0
ARC
  5
367
100
AcDbEntity
  8
DEFAULT_2
100
AcDbCircle
 62
8
  6
HIDDEN
 10
17.3137866894
 20
6.6578399513
 40
0.039
100
AcDbArc
 50
180.0
 51
360.0
  0
ARC
  5
368
100
AcDbEntity
  8
DEFAULT_2
100
AcDbCircle
 62
8
  6
HIDDEN
 10
17.3137866894
 20
5.4578399513
 40
0.039
100
AcDbArc
 50
0.0
 51
180.0
  0
ENDSEC
  0
SECTION
  2
OBJECTS
  0
DICTIONARY
  5
C
100
AcDbDictionary
280
0
281
1
  3
ACAD_GROUP
350
D
  3
ACAD_MLINESTYLE
350
17
  3
ACAD_LAYOUT
350
1A
  3
ACAD_PLOTSETTINGS
350
19
  3
ACAD_PLOTSTYLENAME
350
E
  0
DICTIONARY
  5
D
102
{ACAD_REACTORS
330
C
102
}
100
AcDbDictionary
280
0
281
1
  0
ACDBDICTIONARYWDFLT
  5
E
102
{ACAD_REACTORS
330
C
102
}
100
AcDbDictionary
281
1
  3
Normal
350
F
100
AcDbDictionaryWithDefault
340
F
  0
DICTIONARY
  5
17
102
{ACAD_REACTORS
330
C
102
}
100
AcDbDictionary
280
0
281
1
  3
Standard
350
18
  0
DICTIONARY
  5
19
102
{ACAD_REACTORS
330
C
102
}
100
AcDbDictionary
281
1
  0
DICTIONARY
  5
1A
102
{ACAD_REACTORS
330
C
102
}
100
AcDbDictionary
281
1
  3
Model
350
369
  3
Layout1
350
36A
  0
ACDBPLACEHOLDER
  5
F
102
{ACAD_REACTORS
330
E
102
}
  0
MLINESTYLE
  5
18
102
{ACAD_REACTORS
330
17
102
}
100
AcDbMlineStyle
  2
STANDARD
 70
0
  3

 62
256
 51
90.0
 52
90.0
 71
2
 49
0.5
 62
256
  6
BYLAYER
 49
-0.5
 62
256
  6
BYLAYER
  0
LAYOUT
  5
369
102
{ACAD_REACTORS
330
1A
102
}
100
AcDbPlotSettings
  1

  2
none_device
  4
ANSI_C_(22.00_x_17.00_Inches)
  6

 40
0.0
 41
0.0
 42
0.0
 43
0.0
 44
558.8
 45
431.8
 46
0.0
 47
0.0
 48
0.0
 49
0.0
140
0.0
141
0.0
142
1.0
143
1.0
 70
1024
 72
0
 73
0
 74
0
  7

 75
0
147
1.0
148
0.0
149
0.0
100
AcDbLayout
  1
Model
 70
0
 71
0
 10
0.0
 20
0.0
 11
22.0
 21
17.0
 12
0.0
 22
0.0
 32
0.0
 14
0.0
 24
0.0
 34
0.0
 15
0.0
 25
0.0
 35
0.0
146
0.0
 13
0.0
 23
0.0
 33
0.0
 16
1.0
 26
0.0
 36
0.0
 17
0.0
 27
1.0
 37
0.0
 76
0
330
208
345
0
346
0
  0
LAYOUT
  5
36A
102
{ACAD_REACTORS
330
1A
102
}
100
AcDbPlotSettings
  1

  2
none_device
  4
ANSI_C_(22.00_x_17.00_Inches)
  6

 40
0.0
 41
0.0
 42
0.0
 43
0.0
 44
558.8
 45
431.8
 46
0.0
 47
0.0
 48
0.0
 49
0.0
140
0.0
141
0.0
142
1.0
143
1.0
 70
0
 72
0
 73
0
 74
0
  7

 75
0
147
1.0
148
0.0
149
0.0
100
AcDbLayout
  1
Layout1
 70
0
 71
1
 10
0.0
 20
0.0
 11
22.0
 21
17.0
 12
0.0
 22
0.0
 32
0.0
 14
0.0
 24
0.0
 34
0.0
 15
0.0
 25
0.0
 35
0.0
146
0.0
 13
0.0
 23
0.0
 33
0.0
 16
1.0
 26
0.0
 36
0.0
 17
0.0
 27
1.0
 37
0.0
 76
0
330
209
345
0
346
0
  0
ENDSEC
  0
EOF
