 0
SECTION
 2
ENTITIES
  0
POLYLINE
 8
Group#30
 66
     1
70
    8
 10
0.0
 20
 0.0
 30
0.0
  0
VERTEX
  8
MY3DLAYER
10
115.33970623627647
20
-37.56100499923242
30
0.009940106691218108
 70
     32
  0
VERTEX
  8
MY3DLAYER
10
48.338776845177165
20
-37.561004999232544
30
0.0011542551769867335
 70
     32
  0
VERTEX
  8
MY3DLAYER
10
47.94719828336765
20
-37.58667041354367
30
0.0011195280786248194
 70
     32
  0
VERTEX
  8
MY3DLAYER
10
47.562319737697756
20
-37.6632275140811
30
0.0011051447962935116
 70
     32
  0
VERTEX
  8
MY3DLAYER
10
47.19072658741212
20
-37.78936638750568
30
0.0011113514319644581
 70
     32
  0
VERTEX
  8
MY3DLAYER
10
46.83877689493556
20
-37.96292876251773
30
0.0011380417883705308
 70
     32
  0
VERTEX
  8
MY3DLAYER
10
46.512492617651944
20
-38.180944938480735
30
0.0011847591860706796
 70
     32
  0
VERTEX
  8
MY3DLAYER
10
46.21745657053406
20
-38.439684597827416
30
0.0012507042773625223
 70
     32
  0
VERTEX
  8
MY3DLAYER
10
45.958716902622605
20
-38.73472063283357
30
0.0013347487233444366
 70
     32
  0
VERTEX
  8
MY3DLAYER
10
45.74070072178836
20
-39.06100489466571
30
0.0014354545001088223
 70
     32
  0
VERTEX
  8
MY3DLAYER
10
45.567138345681954
20
-39.41295456861541
30
0.001551098503732169
 70
     32
  0
VERTEX
  8
MY3DLAYER
10
45.44099947495861
20
-39.78454769761583
30
0.0016797020330636956
 70
     32
  0
VERTEX
  8
MY3DLAYER
10
45.36444238087182
20
-40.16942621960632
30
0.00181906464585383
 70
     32
  0
VERTEX
  8
MY3DLAYER
10
45.33877697665032
20
-40.561004755747454
30
0.0019668018089347154
 70
     32
  0
VERTEX
  8
MY3DLAYER
10
45.338776976656675
20
-133.73100499873652
30
0.0019668018557781127
 70
     32
  0
VERTEX
  8
MY3DLAYER
10
45.36444239290954
20
-134.1225835887134
30
0.0019583887243925313
 70
     32
  0
VERTEX
  8
MY3DLAYER
10
45.44099949925019
20
-134.50746215999203
30
0.0019332932812561703
 70
     32
  0
VERTEX
  8
MY3DLAYER
10
45.56713838227402
20
-134.87905533305943
30
0.0018919449163881938
 70
     32
  0
VERTEX
  8
MY3DLAYER
10
45.74070077057275
20
-135.23100504526508
30
0.0018350511118237535
 70
     32
  0
VERTEX
  8
MY3DLAYER
10
45.95871696335917
20
-135.55728933904282
30
0.0017635853363993854
 70
     32
  0
VERTEX
  8
MY3DLAYER
10
46.21745664287435
20
-135.85232539928174
30
0.0016787703894301856
 70
     32
  0
VERTEX
  8
MY3DLAYER
10
46.512492701163204
20
-136.11106507684684
30
0.001582057478273073
 70
     32
  0
VERTEX
  8
MY3DLAYER
10
46.83877698912412
20
-136.32908126381633
30
0.0014751013877648675
 70
     32
  0
VERTEX
  8
MY3DLAYER
10
47.190726691745645
20
-136.50264364253093
30
0.0013597321663930027
 70
     32
  0
VERTEX
  8
MY3DLAYER
10
47.562319851625666
20
-136.6287825123673
30
0.0012379238136563853
 70
     32
  0
VERTEX
  8
MY3DLAYER
10
47.94719840633923
20
-136.70533960214289
30
0.0011117605043843618
 70
     32
  0
VERTEX
  8
MY3DLAYER
10
48.338776976656874
20
-136.73100499873647
30
0.0009834009279251117
 70
     32
  0
VERTEX
  8
MY3DLAYER
10
115.33770634858433
20
-136.73100499873362
30
0.009919033493434815
 70
     32
  0
VERTEX
  8
MY3DLAYER
10
115.72928577718014
20
-136.7053395600243
30
0.009856141638677986
 70
     32
  0
VERTEX
  8
MY3DLAYER
10
116.11416514486244
20
-136.6287823886508
30
0.009657539734521617
 70
     32
  0
VERTEX
  8
MY3DLAYER
10
116.48575902921337
20
-136.50264340495428
30
0.00932662592994868
 70
     32
  0
VERTEX
  8
MY3DLAYER
10
116.8377093271445
20
-136.32908089166114
30
0.008869062277461839
 70
     32
  0
VERTEX
  8
MY3DLAYER
10
117.16399404429453
20
-136.11106456490032
30
0.008292677853357968
 70
     32
  0
VERTEX
  8
MY3DLAYER
10
117.45903033348755
20
-135.8523247613079
30
0.007607334799457375
 70
     32
  0
VERTEX
  8
MY3DLAYER
10
117.7177700192274
20
-135.5572886106446
30
0.00682475957836118
 70
     32
  0
VERTEX
  8
MY3DLAYER
10
117.9357859737698
20
-135.23100428603635
30
0.00595834232951929
 70
     32
  0
VERTEX
  8
MY3DLAYER
10
118.10934786684754
20
-134.8790546279425
30
0.005022907759197697
 70
     32
  0
VERTEX
  8
MY3DLAYER
10
118.2354859929437
20
-134.50746161977654
30
0.004034461484499027
 70
     32
  0
VERTEX
  8
MY3DLAYER
10
118.31204208400575
20
-134.12258334963497
30
0.003009916171580043
 70
     32
  0
VERTEX
  8
MY3DLAYER
10
118.33770623817709
20
-133.7310052211564
30
0.0019668021539382906
 70
     32
  0
VERTEX
  8
MY3DLAYER
10
118.33964573471843
20
-40.56100499923241
30
0.009940106691255926
 70
     32
  0
VERTEX
  8
MY3DLAYER
10
118.23743832430426
20
-39.78455172140758
30
0.009940106691262858
 70
     32
  0
VERTEX
  8
MY3DLAYER
10
118.11130630243858
20
-39.41295927572157
30
0.009940106691264262
 70
     32
  0
VERTEX
  8
MY3DLAYER
10
117.93775021901972
20
-39.0610096791326
30
0.00994010669126425
 70
     32
  0
VERTEX
  8
MY3DLAYER
10
117.71973974289838
20
-38.73472504122855
30
0.009940106691262822
 70
     32
  0
VERTEX
  8
MY3DLAYER
10
117.46100518941297
20
-38.43968832577852
30
0.009940106691260001
 70
     32
  0
VERTEX
  8
MY3DLAYER
10
117.16597369202343
20
-38.180947822225406
30
0.009940106691255841
 70
     32
  0
VERTEX
  8
MY3DLAYER
10
116.83969345088789
20
-37.96293076583906
30
0.009940106691250407
 70
     32
  0
VERTEX
  8
MY3DLAYER
10
116.4877473545436
20
-37.78936758455095
30
0.009940106691243795
 70
     32
  0
VERTEX
  8
MY3DLAYER
10
116.11615745268676
20
-37.66322806866137
30
0.009940106691236118
 70
     32
  0
VERTEX
  8
MY3DLAYER
10
115.73128191459054
20
-37.58667055560106
30
0.009940106691227506
 70
     32
  0
VERTEX
  8
MY3DLAYER
10
115.33970623627647
20
-37.56100499923242
30
0.009940106691218108
 70
     32
  0
SEQEND
  0
POLYLINE
 8
Group#30
 66
     1
70
    8
 10
0.0
 20
 0.0
 30
0.0
  0
VERTEX
  8
MY3DLAYER
10
80.23724160741214
20
-133.32747934405444
30
0.003953973331416405
 70
     32
  0
VERTEX
  8
MY3DLAYER
10
80.29176028534967
20
-132.91336887189038
30
0.003953973331416405
 70
     32
  0
VERTEX
  8
MY3DLAYER
10
80.45160096135702
20
-132.52747934405443
30
0.003953973331422045
 70
     32
  0
VERTEX
  8
MY3DLAYER
10
80.70587075751364
20
-132.19610849415596
30
0.003953973331427684
 70
     32
  0
VERTEX
  8
MY3DLAYER
10
81.03724160741216
20
-131.94183869799934
30
0.003953973331438964
 70
     32
  0
VERTEX
  8
MY3DLAYER
10
81.4231311352481
20
-131.78199802199194
30
0.003953973331444605
 70
     32
  0
VERTEX
  8
MY3DLAYER
10
81.83724160741215
20
-131.72747934405444
30
0.003953973331455884
 70
     32
  0
VERTEX
  8
MY3DLAYER
10
82.25135207957621
20
-131.78199802199194
30
0.003953973331467164
 70
     32
  0
VERTEX
  8
MY3DLAYER
10
82.63724160741215
20
-131.94183869799934
30
0.003953973331478444
 70
     32
  0
VERTEX
  8
MY3DLAYER
10
82.96861245731066
20
-132.19610849415596
30
0.003953973331484084
 70
     32
  0
VERTEX
  8
MY3DLAYER
10
83.22288225346728
20
-132.52747934405443
30
0.003953973331489724
 70
     32
  0
VERTEX
  8
MY3DLAYER
10
83.38272292947462
20
-132.91336887189038
30
0.003953973331495364
 70
     32
  0
VERTEX
  8
MY3DLAYER
10
83.43724160741215
20
-133.32747934405444
30
0.003953973331495364
 70
     32
  0
VERTEX
  8
MY3DLAYER
10
83.38272292947462
20
-133.74158981621846
30
0.003953973331495364
 70
     32
  0
VERTEX
  8
MY3DLAYER
10
83.22288225346728
20
-134.12747934405442
30
0.003953973331489724
 70
     32
  0
VERTEX
  8
MY3DLAYER
10
82.96861245731066
20
-134.45885019395288
30
0.003953973331484084
 70
     32
  0
VERTEX
  8
MY3DLAYER
10
82.63724160741215
20
-134.7131199901095
30
0.003953973331478444
 70
     32
  0
VERTEX
  8
MY3DLAYER
10
82.25135207957621
20
-134.87296066611694
30
0.003953973331467164
 70
     32
  0
VERTEX
  8
MY3DLAYER
10
81.83724160741215
20
-134.92747934405443
30
0.003953973331455884
 70
     32
  0
VERTEX
  8
MY3DLAYER
10
81.4231311352481
20
-134.87296066611694
30
0.003953973331444605
 70
     32
  0
VERTEX
  8
MY3DLAYER
10
81.03724160741216
20
-134.7131199901095
30
0.003953973331438964
 70
     32
  0
VERTEX
  8
MY3DLAYER
10
80.70587075751364
20
-134.45885019395288
30
0.003953973331427684
 70
     32
  0
VERTEX
  8
MY3DLAYER
10
80.45160096135702
20
-134.12747934405442
30
0.003953973331422045
 70
     32
  0
VERTEX
  8
MY3DLAYER
10
80.29176028534967
20
-133.74158981621846
30
0.003953973331416405
 70
     32
  0
VERTEX
  8
MY3DLAYER
10
80.23724160741214
20
-133.32747934405444
30
0.003953973331416405
 70
     32
  0
SEQEND
  0
POLYLINE
 8
Group#30
 66
     1
70
    8
 10
0.0
 20
 0.0
 30
0.0
  0
VERTEX
  8
MY3DLAYER
10
87.7871811058546
20
-133.37747934405482
30
0.003953973331596882
 70
     32
  0
VERTEX
  8
MY3DLAYER
10
87.7871811058546
20
-130.2774793440544
30
0.003953973331653282
 70
     32
  0
VERTEX
  8
MY3DLAYER
10
91.88718110585458
20
-130.2774793440544
30
0.003953973331613803
 70
     32
  0
VERTEX
  8
MY3DLAYER
10
91.88718110585458
20
-133.37747934405482
30
0.003953973328249582
 70
     32
  0
VERTEX
  8
MY3DLAYER
10
87.7871811058546
20
-133.37747934405482
30
0.003953973331596882
 70
     32
  0
SEQEND
  0
POLYLINE
 8
Group#30
 66
     1
70
    8
 10
0.0
 20
 0.0
 30
0.0
  0
VERTEX
  8
MY3DLAYER
10
71.78730210897008
20
-133.37747934405482
30
0.0039539733283088015
 70
     32
  0
VERTEX
  8
MY3DLAYER
10
71.78730210897008
20
-130.27747934405477
30
0.003953973328252402
 70
     32
  0
VERTEX
  8
MY3DLAYER
10
75.88730210897032
20
-130.27747934405477
30
0.003953973328300342
 70
     32
  0
VERTEX
  8
MY3DLAYER
10
75.88730210897032
20
-133.37747934405482
30
0.003953973331664562
 70
     32
  0
VERTEX
  8
MY3DLAYER
10
71.78730210897008
20
-133.37747934405482
30
0.0039539733283088015
 70
     32
  0
SEQEND
  0
POLYLINE
 8
Group#30
 66
     1
70
    8
 10
0.0
 20
 0.0
 30
0.0
  0
VERTEX
  8
MY3DLAYER
10
112.28770623816347
20
-83.39425379393711
30
0.003927436641788518
 70
     32
  0
VERTEX
  8
MY3DLAYER
10
115.3877062381634
20
-83.39425379393711
30
0.003927436642800886
 70
     32
  0
VERTEX
  8
MY3DLAYER
10
115.3877062381634
20
-87.4942537939368
30
0.003927436641867476
 70
     32
  0
VERTEX
  8
MY3DLAYER
10
112.28770623816347
20
-87.4942537939368
30
0.0039274366417772376
 70
     32
  0
VERTEX
  8
MY3DLAYER
10
112.28770623816347
20
-83.39425379393711
30
0.003927436641788518
 70
     32
  0
SEQEND
  0
POLYLINE
 8
Group#30
 66
     1
70
    8
 10
0.0
 20
 0.0
 30
0.0
  0
VERTEX
  8
MY3DLAYER
10
109.28770623816334
20
-97.76164564209783
30
0.003927436640990467
 70
     32
  0
VERTEX
  8
MY3DLAYER
10
112.38770623816345
20
-97.76164564209783
30
0.003927436641128645
 70
     32
  0
VERTEX
  8
MY3DLAYER
10
112.38770623816345
20
-101.86164564209766
30
0.003927436641069426
 70
     32
  0
VERTEX
  8
MY3DLAYER
10
109.28770623816334
20
-101.86164564209766
30
0.003927436640990467
 70
     32
  0
VERTEX
  8
MY3DLAYER
10
109.28770623816334
20
-97.76164564209783
30
0.003927436640990467
 70
     32
  0
SEQEND
  0
POLYLINE
 8
Group#30
 66
     1
70
    8
 10
0.0
 20
 0.0
 30
0.0
  0
VERTEX
  8
MY3DLAYER
10
98.53188345629813
20
-123.46104987065154
30
0.002003088669620201
 70
     32
  0
VERTEX
  8
MY3DLAYER
10
98.5318834562975
20
-119.3610002897848
30
0.0019670890328007174
 70
     32
  0
VERTEX
  8
MY3DLAYER
10
107.63190929079472
20
-119.36100028978183
30
0.001966926831219107
 70
     32
  0
VERTEX
  8
MY3DLAYER
10
107.63190929079535
20
-123.46104987069438
30
0.0019737278762185007
 70
     32
  0
VERTEX
  8
MY3DLAYER
10
98.53188345629813
20
-123.46104987065154
30
0.002003088669620201
 70
     32
  0
SEQEND
  0
POLYLINE
 8
Group#30
 66
     1
70
    8
 10
0.0
 20
 0.0
 30
0.0
  0
VERTEX
  8
MY3DLAYER
10
56.88824160729975
20
-95.68100505420797
30
0.0
 70
     32
  0
VERTEX
  8
MY3DLAYER
10
56.88824160729975
20
-98.78100505420767
30
0.0
 70
     32
  0
VERTEX
  8
MY3DLAYER
10
53.78824160729946
20
-98.78100505420767
30
0.0
 70
     32
  0
VERTEX
  8
MY3DLAYER
10
53.78824160729946
20
-95.68100505420797
30
0.0
 70
     32
  0
VERTEX
  8
MY3DLAYER
10
56.88824160729975
20
-95.68100505420797
30
0.0
 70
     32
  0
SEQEND
  0
POLYLINE
 8
Group#30
 66
     1
70
    8
 10
0.0
 20
 0.0
 30
0.0
  0
VERTEX
  8
MY3DLAYER
10
101.2877062381638
20
-47.661004999221646
30
3.727319842661281e-06
 70
     32
  0
VERTEX
  8
MY3DLAYER
10
104.38770623816373
20
-47.661004999221646
30
3.7273162133644174e-06
 70
     32
  0
VERTEX
  8
MY3DLAYER
10
104.38770623816373
20
-51.76100499922165
30
3.7273199047005433e-06
 70
     32
  0
VERTEX
  8
MY3DLAYER
10
101.2877062381638
20
-51.76100499922165
30
3.7273198877807443e-06
 70
     32
  0
VERTEX
  8
MY3DLAYER
10
101.2877062381638
20
-47.661004999221646
30
3.727319842661281e-06
 70
     32
  0
SEQEND
  0
POLYLINE
 8
Group#30
 66
     1
70
    8
 10
0.0
 20
 0.0
 30
0.0
  0
VERTEX
  8
MY3DLAYER
10
62.38877697643571
20
-47.64700499922166
30
3.7273156803907524e-06
 70
     32
  0
VERTEX
  8
MY3DLAYER
10
62.38877697643571
20
-51.74700499922166
30
3.7273157255102163e-06
 70
     32
  0
VERTEX
  8
MY3DLAYER
10
59.28877697643578
20
-51.74700499922166
30
3.7273193548070792e-06
 70
     32
  0
VERTEX
  8
MY3DLAYER
10
59.28877697643578
20
-47.64700499922166
30
3.7273156634709533e-06
 70
     32
  0
VERTEX
  8
MY3DLAYER
10
62.38877697643571
20
-47.64700499922166
30
3.7273156803907524e-06
 70
     32
  0
SEQEND
  0
POLYLINE
 8
Group#30
 66
     1
70
    8
 10
0.0
 20
 0.0
 30
0.0
  0
VERTEX
  8
MY3DLAYER
10
80.29276045809111
20
-41.98611547139633
30
0.0019668018566410647
 70
     32
  0
VERTEX
  8
MY3DLAYER
10
80.2382417801536
20
-41.572004999232284
30
0.0019668018566410647
 70
     32
  0
VERTEX
  8
MY3DLAYER
10
80.29276045809111
20
-41.15789452706825
30
0.0019668018566410647
 70
     32
  0
VERTEX
  8
MY3DLAYER
10
80.45260113409847
20
-40.77200499923229
30
0.0019668018566467048
 70
     32
  0
VERTEX
  8
MY3DLAYER
10
80.70687093025508
20
-40.44063414933382
30
0.0019668018566523448
 70
     32
  0
VERTEX
  8
MY3DLAYER
10
81.0382417801536
20
-40.18636435317719
30
0.0019668018566608046
 70
     32
  0
VERTEX
  8
MY3DLAYER
10
81.42413130798954
20
-40.026523677169784
30
0.0019668018566692644
 70
     32
  0
VERTEX
  8
MY3DLAYER
10
81.8382417801536
20
-39.97200499923229
30
0.0019668018566805444
 70
     32
  0
VERTEX
  8
MY3DLAYER
10
82.25235225231765
20
-40.02652367716977
30
0.0019668018566918245
 70
     32
  0
VERTEX
  8
MY3DLAYER
10
82.63824178015359
20
-40.186364353177176
30
0.0019668018567002843
 70
     32
  0
VERTEX
  8
MY3DLAYER
10
82.96961263005203
20
-40.4406341493338
30
0.001966801856708744
 70
     32
  0
VERTEX
  8
MY3DLAYER
10
83.22388242620872
20
-40.77200499923228
30
0.001966801856714384
 70
     32
  0
VERTEX
  8
MY3DLAYER
10
83.38372310221608
20
-41.157894527068244
30
0.001966801856720024
 70
     32
  0
VERTEX
  8
MY3DLAYER
10
83.43824178015359
20
-41.57200499923228
30
0.001966801856720024
 70
     32
  0
VERTEX
  8
MY3DLAYER
10
83.38372310221608
20
-41.98611547139631
30
0.001966801856720024
 70
     32
  0
VERTEX
  8
MY3DLAYER
10
83.22388242620872
20
-42.372004999232274
30
0.001966801856714384
 70
     32
  0
VERTEX
  8
MY3DLAYER
10
82.96961263005211
20
-42.70337584913076
30
0.001966801856708744
 70
     32
  0
VERTEX
  8
MY3DLAYER
10
82.63824178015359
20
-42.957645645287386
30
0.0019668018567002843
 70
     32
  0
VERTEX
  8
MY3DLAYER
10
82.25235225231765
20
-43.11748632129479
30
0.0019668018566918245
 70
     32
  0
VERTEX
  8
MY3DLAYER
10
81.8382417801536
20
-43.172004999232286
30
0.0019668018566805444
 70
     32
  0
VERTEX
  8
MY3DLAYER
10
81.42413130798954
20
-43.11748632129479
30
0.0019668018566692644
 70
     32
  0
VERTEX
  8
MY3DLAYER
10
81.0382417801536
20
-42.95764564528739
30
0.0019668018566608046
 70
     32
  0
VERTEX
  8
MY3DLAYER
10
80.70687093025516
20
-42.703375849130765
30
0.0019668018566523448
 70
     32
  0
VERTEX
  8
MY3DLAYER
10
80.45260113409847
20
-42.37200499923228
30
0.0019668018566467048
 70
     32
  0
VERTEX
  8
MY3DLAYER
10
80.29276045809111
20
-41.98611547139633
30
0.0019668018566410647
 70
     32
  0
SEQEND
  0
POLYLINE
 8
Group#30
 66
     1
70
    8
 10
0.0
 20
 0.0
 30
0.0
  0
VERTEX
  8
MY3DLAYER
10
53.788241607300364
20
-54.16154036837176
30
0.0019668018556597165
 70
     32
  0
VERTEX
  8
MY3DLAYER
10
56.888241607299655
20
-54.16154036837176
30
0.0019668018556597165
 70
     32
  0
VERTEX
  8
MY3DLAYER
10
56.888241607299655
20
-57.26154036837179
30
0.001966801855687916
 70
     32
  0
VERTEX
  8
MY3DLAYER
10
53.788241607300364
20
-57.26154036837179
30
0.001966801855614597
 70
     32
  0
VERTEX
  8
MY3DLAYER
10
53.788241607300364
20
-54.16154036837176
30
0.0019668018556597165
 70
     32
  0
SEQEND
  0
POLYLINE
 8
Group#30
 66
     1
70
    8
 10
0.0
 20
 0.0
 30
0.0
  0
VERTEX
  8
MY3DLAYER
10
109.88824160730006
20
-54.16154036837205
30
3.7273215882205333e-06
 70
     32
  0
VERTEX
  8
MY3DLAYER
10
109.88824160730006
20
-57.26154036837206
30
3.7273216136002315e-06
 70
     32
  0
VERTEX
  8
MY3DLAYER
10
106.78824160730004
20
-57.26154036837206
30
3.727321540281103e-06
 70
     32
  0
VERTEX
  8
MY3DLAYER
10
106.78824160730004
20
-54.16154036837205
30
3.7273215882205333e-06
 70
     32
  0
VERTEX
  8
MY3DLAYER
10
109.88824160730006
20
-54.16154036837205
30
3.7273215882205333e-06
 70
     32
  0
SEQEND
  0
POLYLINE
 8
Group#30
 66
     1
70
    8
 10
0.0
 20
 0.0
 30
0.0
  0
VERTEX
  8
MY3DLAYER
10
74.88824178015346
20
-42.53300499945447
30
0.001966801856742584
 70
     32
  0
VERTEX
  8
MY3DLAYER
10
74.88824178015346
20
-45.63300499945448
30
0.0019668018567510436
 70
     32
  0
VERTEX
  8
MY3DLAYER
10
71.78824178015344
20
-45.63300499945448
30
0.0019668018567510436
 70
     32
  0
VERTEX
  8
MY3DLAYER
10
71.78824178015344
20
-42.53300499945447
30
0.001966801856748224
 70
     32
  0
VERTEX
  8
MY3DLAYER
10
74.88824178015346
20
-42.53300499945447
30
0.001966801856742584
 70
     32
  0
SEQEND
  0
POLYLINE
 8
Group#30
 66
     1
70
    8
 10
0.0
 20
 0.0
 30
0.0
  0
VERTEX
  8
MY3DLAYER
10
88.78824178015346
20
-45.63300499945444
30
0.001966801856643885
 70
     32
  0
VERTEX
  8
MY3DLAYER
10
88.78824178015346
20
-42.53300499945445
30
0.001966801856643885
 70
     32
  0
VERTEX
  8
MY3DLAYER
10
91.88824178015348
20
-42.53300499945445
30
0.001966801856632605
 70
     32
  0
VERTEX
  8
MY3DLAYER
10
91.88824178015348
20
-45.63300499945444
30
0.001966801856643885
 70
     32
  0
VERTEX
  8
MY3DLAYER
10
88.78824178015346
20
-45.63300499945444
30
0.001966801856643885
 70
     32
  0
SEQEND
  0
POLYLINE
 8
Group#30
 66
     1
70
    8
 10
0.0
 20
 0.0
 30
0.0
  0
VERTEX
  8
MY3DLAYER
10
105.83824271286771
20
-87.4110058038967
30
0.001966801857275557
 70
     32
  0
VERTEX
  8
MY3DLAYER
10
105.83824271286771
20
-90.31100580389675
30
0.001966801857275557
 70
     32
  0
VERTEX
  8
MY3DLAYER
10
87.83824289925029
20
-90.31100580389675
30
0.0019668018568300026
 70
     32
  0
VERTEX
  8
MY3DLAYER
10
87.83824289925029
20
-87.4110058038967
30
0.0019668018568300026
 70
     32
  0
VERTEX
  8
MY3DLAYER
10
105.83824271286771
20
-87.4110058038967
30
0.001966801857275557
 70
     32
  0
SEQEND
  0
POLYLINE
 8
Group#30
 66
     1
70
    8
 10
0.0
 20
 0.0
 30
0.0
  0
VERTEX
  8
MY3DLAYER
10
84.43631781865355
20
-88.11100501795151
30
0.0019668018567454036
 70
     32
  0
VERTEX
  8
MY3DLAYER
10
84.73601908616742
20
-88.83454788264396
30
0.0019668018567510436
 70
     32
  0
VERTEX
  8
MY3DLAYER
10
84.83824160730025
20
-89.61100501795151
30
0.0019668018567538634
 70
     32
  0
VERTEX
  8
MY3DLAYER
10
84.73601908616742
20
-90.38746215325908
30
0.0019668018567510436
 70
     32
  0
VERTEX
  8
MY3DLAYER
10
84.43631781865355
20
-91.11100501795153
30
0.0019668018567454036
 70
     32
  0
VERTEX
  8
MY3DLAYER
10
83.95956195085981
20
-91.73232536151116
30
0.0019668018567313037
 70
     32
  0
VERTEX
  8
MY3DLAYER
10
83.33824160730023
20
-92.20908122930484
30
0.001966801856717204
 70
     32
  0
VERTEX
  8
MY3DLAYER
10
82.61469874260781
20
-92.50878249681874
30
0.0019668018567002843
 70
     32
  0
VERTEX
  8
MY3DLAYER
10
81.8382416073002
20
-92.61100501795153
30
0.0019668018566805444
 70
     32
  0
VERTEX
  8
MY3DLAYER
10
81.0617844719927
20
-92.50878249681874
30
0.0019668018566608046
 70
     32
  0
VERTEX
  8
MY3DLAYER
10
80.33824160730019
20
-92.20908122930484
30
0.001966801856643885
 70
     32
  0
VERTEX
  8
MY3DLAYER
10
79.7169212637406
20
-91.73232536151117
30
0.001966801856626965
 70
     32
  0
VERTEX
  8
MY3DLAYER
10
79.24016539594686
20
-91.11100501795153
30
0.0019668018566156853
 70
     32
  0
VERTEX
  8
MY3DLAYER
10
78.940464128433
20
-90.3874621532591
30
0.0019668018566072255
 70
     32
  0
VERTEX
  8
MY3DLAYER
10
78.83824160730016
20
-89.61100501795153
30
0.0019668018566044053
 70
     32
  0
VERTEX
  8
MY3DLAYER
10
78.940464128433
20
-88.83454788264397
30
0.0019668018566072255
 70
     32
  0
VERTEX
  8
MY3DLAYER
10
79.24016539594686
20
-88.11100501795153
30
0.0019668018566156853
 70
     32
  0
VERTEX
  8
MY3DLAYER
10
79.7169212637406
20
-87.48968467439188
30
0.001966801856626965
 70
     32
  0
VERTEX
  8
MY3DLAYER
10
80.33824160730019
20
-87.01292880659821
30
0.001966801856643885
 70
     32
  0
VERTEX
  8
MY3DLAYER
10
81.06178447199261
20
-86.71322753908431
30
0.0019668018566608046
 70
     32
  0
VERTEX
  8
MY3DLAYER
10
81.8382416073002
20
-86.61100501795151
30
0.0019668018566805444
 70
     32
  0
VERTEX
  8
MY3DLAYER
10
82.61469874260771
20
-86.71322753908431
30
0.0019668018567002843
 70
     32
  0
VERTEX
  8
MY3DLAYER
10
83.33824160730023
20
-87.0129288065982
30
0.001966801856717204
 70
     32
  0
VERTEX
  8
MY3DLAYER
10
83.95956195085981
20
-87.48968467439188
30
0.0019668018567313037
 70
     32
  0
VERTEX
  8
MY3DLAYER
10
84.43631781865355
20
-88.11100501795151
30
0.0019668018567454036
 70
     32
  0
SEQEND
  0
POLYLINE
 8
Group#30
 66
     1
70
    8
 10
0.0
 20
 0.0
 30
0.0
  0
VERTEX
  8
MY3DLAYER
10
53.768525538331076
20
-86.52207010534097
30
0.0019668018559840126
 70
     32
  0
VERTEX
  8
MY3DLAYER
10
54.636776975962
20
-86.88171162635773
30
0.0019668018560065723
 70
     32
  0
VERTEX
  8
MY3DLAYER
10
55.38236138823357
20
-87.4538186677102
30
0.0019668018560234923
 70
     32
  0
VERTEX
  8
MY3DLAYER
10
55.95446842958595
20
-88.19940307998183
30
0.001966801856037592
 70
     32
  0
VERTEX
  8
MY3DLAYER
10
56.314109950602514
20
-89.06765451761282
30
0.0019668018560488718
 70
     32
  0
VERTEX
  8
MY3DLAYER
10
56.436776975961855
20
-89.99940307998195
30
0.001966801856051692
 70
     32
  0
VERTEX
  8
MY3DLAYER
10
56.31410995060242
20
-90.93115164235105
30
0.0019668018560488718
 70
     32
  0
VERTEX
  8
MY3DLAYER
10
55.95446842958568
20
-91.79940307998197
30
0.001966801856037592
 70
     32
  0
VERTEX
  8
MY3DLAYER
10
55.382361388233114
20
-92.54498749225353
30
0.0019668018560234923
 70
     32
  0
VERTEX
  8
MY3DLAYER
10
54.636776975961546
20
-93.1170945336059
30
0.0019668018560065723
 70
     32
  0
VERTEX
  8
MY3DLAYER
10
53.768525538330536
20
-93.47673605462252
30
0.0019668018559840126
 70
     32
  0
VERTEX
  8
MY3DLAYER
10
52.83677697596141
20
-93.59940307998181
30
0.001966801855961453
 70
     32
  0
VERTEX
  8
MY3DLAYER
10
51.90502841359229
20
-93.47673605462238
30
0.0019668018559388933
 70
     32
  0
VERTEX
  8
MY3DLAYER
10
51.036776975961374
20
-93.11709453360562
30
0.0019668018559163337
 70
     32
  0
VERTEX
  8
MY3DLAYER
10
50.2911925636898
20
-92.54498749225316
30
0.0019668018558994136
 70
     32
  0
VERTEX
  8
MY3DLAYER
10
49.719085522337416
20
-91.7994030799815
30
0.001966801855885314
 70
     32
  0
VERTEX
  8
MY3DLAYER
10
49.35944400132086
20
-90.93115164235053
30
0.001966801855874034
 70
     32
  0
VERTEX
  8
MY3DLAYER
10
49.23677697596151
20
-89.9994030799814
30
0.001966801855871214
 70
     32
  0
VERTEX
  8
MY3DLAYER
10
49.359444001320945
20
-89.06765451761231
30
0.001966801855874034
 70
     32
  0
VERTEX
  8
MY3DLAYER
10
49.719085522337686
20
-88.19940307998138
30
0.001966801855885314
 70
     32
  0
VERTEX
  8
MY3DLAYER
10
50.29119256369025
20
-87.45381866770983
30
0.0019668018558994136
 70
     32
  0
VERTEX
  8
MY3DLAYER
10
51.03677697596182
20
-86.88171162635746
30
0.0019668018559163337
 70
     32
  0
VERTEX
  8
MY3DLAYER
10
51.90502841359283
20
-86.52207010534084
30
0.0019668018559388933
 70
     32
  0
VERTEX
  8
MY3DLAYER
10
52.83677697596195
20
-86.39940307998155
30
0.001966801855961453
 70
     32
  0
VERTEX
  8
MY3DLAYER
10
53.768525538331076
20
-86.52207010534097
30
0.0019668018559840126
 70
     32
  0
SEQEND
  0
POLYLINE
 8
Group#30
 66
     1
70
    8
 10
0.0
 20
 0.0
 30
0.0
  0
VERTEX
  8
MY3DLAYER
10
115.38770623816231
20
-40.51100457046804
30
0.0019668018575265344
 70
     32
  0
VERTEX
  8
MY3DLAYER
10
115.38770623816231
20
-46.61100499923261
30
0.0019668018575152543
 70
     32
  0
VERTEX
  8
MY3DLAYER
10
112.2877062381622
20
-46.61100499923261
30
0.0019668018574193757
 70
     32
  0
VERTEX
  8
MY3DLAYER
10
112.2877062381622
20
-40.51100457046804
30
0.0019668018574306553
 70
     32
  0
VERTEX
  8
MY3DLAYER
10
115.38770623816231
20
-40.51100457046804
30
0.0019668018575265344
 70
     32
  0
SEQEND
  0
POLYLINE
 8
Group#30
 66
     1
70
    8
 10
0.0
 20
 0.0
 30
0.0
  0
VERTEX
  8
MY3DLAYER
10
115.38770623816376
20
-124.2775027053969
30
0.0019641069077777074
 70
     32
  0
VERTEX
  8
MY3DLAYER
10
115.38770623816133
20
-133.3774794988379
30
0.0022121477102475585
 70
     32
  0
VERTEX
  8
MY3DLAYER
10
109.28770623816875
20
-133.3774793818589
30
0.0022132176090898345
 70
     32
  0
VERTEX
  8
MY3DLAYER
10
109.28770569262093
20
-130.2774940031667
30
0.0022069277995476976
 70
     32
  0
VERTEX
  8
MY3DLAYER
10
112.28770570627691
20
-130.27749400313937
30
0.0019639224773393637
 70
     32
  0
VERTEX
  8
MY3DLAYER
10
112.28770625182456
20
-124.27750258841787
30
0.0019643546347297034
 70
     32
  0
VERTEX
  8
MY3DLAYER
10
115.38770623816376
20
-124.2775027053969
30
0.0019641069077777074
 70
     32
  0
SEQEND
  0
POLYLINE
 8
Group#30
 66
     1
70
    8
 10
0.0
 20
 0.0
 30
0.0
  0
VERTEX
  8
MY3DLAYER
10
55.01187798059788
20
-133.37747934405496
30
0.0019668018570443203
 70
     32
  0
VERTEX
  8
MY3DLAYER
10
50.91187798059809
20
-133.37747934405496
30
0.001966801856962541
 70
     32
  0
VERTEX
  8
MY3DLAYER
10
50.91187798059809
20
-130.27748000220666
30
0.0019668018569258816
 70
     32
  0
VERTEX
  8
MY3DLAYER
10
55.01187798059788
20
-130.27748000220666
30
0.0019668018570076604
 70
     32
  0
VERTEX
  8
MY3DLAYER
10
55.01187798059788
20
-133.37747934405496
30
0.0019668018570443203
 70
     32
  0
SEQEND
  0
POLYLINE
 8
Group#30
 66
     1
70
    8
 10
0.0
 20
 0.0
 30
0.0
  0
VERTEX
  8
MY3DLAYER
10
48.287517571971215
20
-83.45727376137572
30
0.0019668018558317347
 70
     32
  0
VERTEX
  8
MY3DLAYER
10
48.287517571971215
20
-77.35727376137514
30
0.0019668018558430143
 70
     32
  0
VERTEX
  8
MY3DLAYER
10
51.387517571971415
20
-77.35727376137514
30
0.001966801855941713
 70
     32
  0
VERTEX
  8
MY3DLAYER
10
51.387517571971415
20
-83.45727376137572
30
0.0019668018559304335
 70
     32
  0
VERTEX
  8
MY3DLAYER
10
48.287517571971215
20
-83.45727376137572
30
0.0019668018558317347
 70
     32
  0
SEQEND
  0
POLYLINE
 8
Group#30
 66
     1
70
    8
 10
0.0
 20
 0.0
 30
0.0
  0
VERTEX
  8
MY3DLAYER
10
51.387517571972225
20
-46.61096168784472
30
0.0019668018559276133
 70
     32
  0
VERTEX
  8
MY3DLAYER
10
48.28751757197239
20
-46.61096168784472
30
0.0019668018558401945
 70
     32
  0
VERTEX
  8
MY3DLAYER
10
48.28751757197239
20
-40.51096168784417
30
0.0019668018558458345
 70
     32
  0
VERTEX
  8
MY3DLAYER
10
51.387517571972225
20
-40.51096168784417
30
0.0019668018559332533
 70
     32
  0
VERTEX
  8
MY3DLAYER
10
51.387517571972225
20
-46.61096168784472
30
0.0019668018559276133
 70
     32
  0
SEQEND
  0
POLYLINE
 8
Group#46
 66
     1
70
    8
 10
0.0
 20
 0.0
 30
0.0
  0
VERTEX
  8
MY3DLAYER
10
118.33964573471843
20
-40.56100499923241
30
0.009940106691255926
 70
     32
  0
VERTEX
  8
MY3DLAYER
10
118.33770623817708
20
-133.7310052211564
30
0.0019668021539383487
 70
     32
  0
VERTEX
  8
MY3DLAYER
10
118.36337427978908
20
-134.12257638654242
30
0.004048257506423283
 70
     32
  0
VERTEX
  8
MY3DLAYER
10
118.43993347968056
20
-134.50744735431243
30
0.006094096712163539
 70
     32
  0
VERTEX
  8
MY3DLAYER
10
118.56607390239051
20
-134.87903294424908
30
0.008069315260572746
 70
     32
  0
VERTEX
  8
MY3DLAYER
10
118.73963727284543
20
-135.23097529025995
30
0.009940116967476608
 70
     32
  0
VERTEX
  8
MY3DLAYER
10
118.9576539046587
20
-135.55725262409354
30
0.011674492231157366
 70
     32
  0
VERTEX
  8
MY3DLAYER
10
119.21639351175754
20
-135.85228230838806
30
0.013242765719796218
 70
     32
  0
VERTEX
  8
MY3DLAYER
10
119.51142903394566
20
-136.11101635614713
30
0.014618104119327544
 70
     32
  0
VERTEX
  8
MY3DLAYER
10
119.83771238433975
20
-136.32902780229531
30
0.01577697525408907
 70
     32
  0
VERTEX
  8
MY3DLAYER
10
120.18966082263402
20
-136.50258644948704
30
0.016699550724668392
 70
     32
  0
VERTEX
  8
MY3DLAYER
10
120.5612524763375
20
-136.62872269215126
30
0.017370045173772507
 70
     32
  0
VERTEX
  8
MY3DLAYER
10
120.94612937560608
20
-136.7052783267354
30
0.017776986375248004
 70
     32
  0
VERTEX
  8
MY3DLAYER
10
121.33770623873382
20
-136.73094347878126
30
0.01791341152500201
 70
     32
  0
VERTEX
  8
MY3DLAYER
10
188.3386354997062
20
-136.73100236220137
30
0.017913411526660206
 70
     32
  0
VERTEX
  8
MY3DLAYER
10
188.73021482093387
20
-136.70533726615162
30
0.017844134792961184
 70
     32
  0
VERTEX
  8
MY3DLAYER
10
189.11509411987925
20
-136.62878042903816
30
0.017637489942448816
 70
     32
  0
VERTEX
  8
MY3DLAYER
10
189.4866879690141
20
-136.50264176673332
30
0.01729701274514471
 70
     32
  0
VERTEX
  8
MY3DLAYER
10
189.83863825978287
20
-136.32907955852468
30
0.016828528892152642
 70
     32
  0
VERTEX
  8
MY3DLAYER
10
190.16492299219814
20
-136.11106351815607
30
0.01624005431592345
 70
     32
  0
VERTEX
  8
MY3DLAYER
10
190.45995931349327
20
-135.85232398092438
30
0.015541658034678281
 70
     32
  0
VERTEX
  8
MY3DLAYER
10
190.71869904280368
20
-135.55728807625897
30
0.01474528986777295
 70
     32
  0
VERTEX
  8
MY3DLAYER
10
190.93671504741337
20
-135.2310039778958
30
0.013864575969857492
 70
     32
  0
VERTEX
  8
MY3DLAYER
10
191.11027699263744
20
-134.87905452775257
30
0.012914585682317119
 70
     32
  0
VERTEX
  8
MY3DLAYER
10
191.23641516923166
20
-134.50746171143336
30
0.011911573691253058
 70
     32
  0
VERTEX
  8
MY3DLAYER
10
191.31297130621928
20
-134.1225836198218
30
0.01087270190377565
 70
     32
  0
VERTEX
  8
MY3DLAYER
10
191.33863549970732
20
-133.73100565978825
30
0.009815745801409636
 70
     32
  0
VERTEX
  8
MY3DLAYER
10
191.3386354997062
20
-40.5610049992334
30
0.00994010669302471
 70
     32
  0
VERTEX
  8
MY3DLAYER
10
191.31297135770055
20
-40.16942671320801
30
0.01098083097998496
 70
     32
  0
VERTEX
  8
MY3DLAYER
10
191.23641528774886
20
-39.78454828152882
30
0.012003748487721295
 70
     32
  0
VERTEX
  8
MY3DLAYER
10
191.1102771898517
20
-39.41295510308322
30
0.012991356755033323
 70
     32
  0
VERTEX
  8
MY3DLAYER
10
190.93671532911614
20
-39.061005261625645
30
0.013926757473651729
 70
     32
  0
VERTEX
  8
MY3DLAYER
10
190.71869940711676
20
-38.73472073683482
30
0.014793945623953102
 70
     32
  0
VERTEX
  8
MY3DLAYER
10
190.459959749307
20
-38.43968436622427
30
0.015578083326206882
 70
     32
  0
VERTEX
  8
MY3DLAYER
10
190.16492347790103
20
-38.18094432092242
30
0.0162657537216677
 70
     32
  0
VERTEX
  8
MY3DLAYER
10
189.83863876232988
20
-37.96292772977362
30
0.016845190539522725
 70
     32
  0
VERTEX
  8
MY3DLAYER
10
189.48668844337143
20
-37.789364929680644
30
0.01730647942172658
 70
     32
  0
VERTEX
  8
MY3DLAYER
10
189.11509450887453
20
-37.66322563829083
30
0.017641727560988463
 70
     32
  0
VERTEX
  8
MY3DLAYER
10
188.73021505553
20
-37.58666814113227
30
0.017845198749348742
 70
     32
  0
VERTEX
  8
MY3DLAYER
10
188.3386354997062
20
-37.561002362625516
30
0.017913411526618548
 70
     32
  0
VERTEX
  8
MY3DLAYER
10
121.33970623873732
20
-37.56094347934969
30
0.01791341152496036
 70
     32
  0
VERTEX
  8
MY3DLAYER
10
120.94811869130496
20
-37.58660913914897
30
0.017845198692590342
 70
     32
  0
VERTEX
  8
MY3DLAYER
10
120.56323131820761
20
-37.66316765715761
30
0.017641727344324492
 70
     32
  0
VERTEX
  8
MY3DLAYER
10
120.19162969623365
20
-37.78930908653301
30
0.017306478956256557
 70
     32
  0
VERTEX
  8
MY3DLAYER
10
119.83967207765951
20
-37.96287509700144
30
0.016845189762300934
 70
     32
  0
VERTEX
  8
MY3DLAYER
10
119.51338059801199
20
-38.18089590475161
30
0.016265752604937653
 70
     32
  0
VERTEX
  8
MY3DLAYER
10
119.21833823492244
20
-38.43964108662277
30
0.01557808188552291
 70
     32
  0
VERTEX
  8
MY3DLAYER
10
118.95959328114803
20
-38.73468340913595
30
0.014793943924919183
 70
     32
  0
VERTEX
  8
MY3DLAYER
10
118.74157296626493
20
-39.06097458022824
30
0.013926755637042433
 70
     32
  0
VERTEX
  8
MY3DLAYER
10
118.56800770500074
20
-39.41293162754779
30
0.012991354960102425
 70
     32
  0
VERTEX
  8
MY3DLAYER
10
118.44186726834755
20
-39.78453242534218
30
0.012003746973549426
 70
     32
  0
VERTEX
  8
MY3DLAYER
10
118.36530996959321
20
-40.16941873543703
30
0.010980830044767787
 70
     32
  0
VERTEX
  8
MY3DLAYER
10
118.33964573471843
20
-40.56100499923241
30
0.009940106691255926
 70
     32
  0
SEQEND
  0
POLYLINE
 8
Group#46
 66
     1
70
    8
 10
0.0
 20
 0.0
 30
0.0
  0
VERTEX
  8
MY3DLAYER
10
185.28863549970794
20
-40.51100457046757
30
0.017913411526523027
 70
     32
  0
VERTEX
  8
MY3DLAYER
10
188.38863549970634
20
-40.51100457046757
30
0.017913411526592822
 70
     32
  0
VERTEX
  8
MY3DLAYER
10
188.38863549970634
20
-46.6110049992327
30
0.017913411527729975
 70
     32
  0
VERTEX
  8
MY3DLAYER
10
185.28863549970794
20
-46.6110049992327
30
0.017913411526532193
 70
     32
  0
VERTEX
  8
MY3DLAYER
10
185.28863549970794
20
-40.51100457046757
30
0.017913411526523027
 70
     32
  0
SEQEND
  0
POLYLINE
 8
Group#46
 66
     1
70
    8
 10
0.0
 20
 0.0
 30
0.0
  0
VERTEX
  8
MY3DLAYER
10
128.01280724212756
20
-133.37750258819645
30
0.017913411526654863
 70
     32
  0
VERTEX
  8
MY3DLAYER
10
123.91280724212767
20
-133.37750258819645
30
0.017913411526654863
 70
     32
  0
VERTEX
  8
MY3DLAYER
10
123.91280724212767
20
-130.27750258819648
30
0.017913411526654863
 70
     32
  0
VERTEX
  8
MY3DLAYER
10
128.01280724212756
20
-130.27750258819648
30
0.017913411526654863
 70
     32
  0
VERTEX
  8
MY3DLAYER
10
128.01280724212756
20
-133.37750258819645
30
0.017913411526654863
 70
     32
  0
SEQEND
  0
POLYLINE
 8
Group#46
 66
     1
70
    8
 10
0.0
 20
 0.0
 30
0.0
  0
VERTEX
  8
MY3DLAYER
10
124.38844683351823
20
-83.4572737613748
30
0.01791341152557411
 70
     32
  0
VERTEX
  8
MY3DLAYER
10
121.28844683351586
20
-83.4572737613748
30
0.017913411524376328
 70
     32
  0
VERTEX
  8
MY3DLAYER
10
121.28844683351586
20
-77.35727376137537
30
0.017913411524367165
 70
     32
  0
VERTEX
  8
MY3DLAYER
10
124.38844683351823
20
-77.35727376137537
30
0.01791341152443696
 70
     32
  0
VERTEX
  8
MY3DLAYER
10
124.38844683351823
20
-83.4572737613748
30
0.01791341152557411
 70
     32
  0
SEQEND
  0
POLYLINE
 8
Group#46
 66
     1
70
    8
 10
0.0
 20
 0.0
 30
0.0
  0
VERTEX
  8
MY3DLAYER
10
121.28844683350198
20
-46.61096168784425
30
0.017913411524373157
 70
     32
  0
VERTEX
  8
MY3DLAYER
10
121.28844683350198
20
-40.51096168784483
30
0.017913411524360465
 70
     32
  0
VERTEX
  8
MY3DLAYER
10
124.38844683350398
20
-40.51096168784483
30
0.01791341152443731
 70
     32
  0
VERTEX
  8
MY3DLAYER
10
124.38844683350398
20
-46.61096168784425
30
0.017913411525984062
 70
     32
  0
VERTEX
  8
MY3DLAYER
10
121.28844683350198
20
-46.61096168784425
30
0.017913411524373157
 70
     32
  0
SEQEND
  0
POLYLINE
 8
Group#46
 66
     1
70
    8
 10
0.0
 20
 0.0
 30
0.0
  0
VERTEX
  8
MY3DLAYER
10
124.03770517371784
20
-86.93339502910155
30
0.017913411523165154
 70
     32
  0
VERTEX
  8
MY3DLAYER
10
124.90595661134886
20
-86.57375350808488
30
0.017913411523165154
 70
     32
  0
VERTEX
  8
MY3DLAYER
10
125.83770517371788
20
-86.45108648272553
30
0.017913411523165154
 70
     32
  0
VERTEX
  8
MY3DLAYER
10
126.76945373608692
20
-86.57375350808488
30
0.017913411523165154
 70
     32
  0
VERTEX
  8
MY3DLAYER
10
127.63770517371792
20
-86.93339502910155
30
0.017913411523165154
 70
     32
  0
VERTEX
  8
MY3DLAYER
10
128.3832895859895
20
-87.50550207045396
30
0.017913411523165154
 70
     32
  0
VERTEX
  8
MY3DLAYER
10
128.95539662734188
20
-88.25108648272553
30
0.017913411523165154
 70
     32
  0
VERTEX
  8
MY3DLAYER
10
129.31503814835852
20
-89.11933792035644
30
0.017913411523165154
 70
     32
  0
VERTEX
  8
MY3DLAYER
10
129.4377051737179
20
-90.05108648272552
30
0.017913411523165154
 70
     32
  0
VERTEX
  8
MY3DLAYER
10
129.31503814835852
20
-90.9828350450946
30
0.017913411523165154
 70
     32
  0
VERTEX
  8
MY3DLAYER
10
128.95539662734188
20
-91.85108648272552
30
0.017913411523165154
 70
     32
  0
VERTEX
  8
MY3DLAYER
10
128.3832895859895
20
-92.59667089499709
30
0.017913411523165154
 70
     32
  0
VERTEX
  8
MY3DLAYER
10
127.63770517371792
20
-93.16877793634951
30
0.017913411523165154
 70
     32
  0
VERTEX
  8
MY3DLAYER
10
126.76945373608692
20
-93.52841945736617
30
0.017913411523165154
 70
     32
  0
VERTEX
  8
MY3DLAYER
10
125.83770517371788
20
-93.65108648272553
30
0.017913411523165154
 70
     32
  0
VERTEX
  8
MY3DLAYER
10
124.90595661134876
20
-93.52841945736617
30
0.017913411523165154
 70
     32
  0
VERTEX
  8
MY3DLAYER
10
124.03770517371784
20
-93.1687779363495
30
0.017913411523165154
 70
     32
  0
VERTEX
  8
MY3DLAYER
10
123.29212076144627
20
-92.59667089499709
30
0.017913411523165154
 70
     32
  0
VERTEX
  8
MY3DLAYER
10
122.72001372009389
20
-91.85108648272552
30
0.017913411523165154
 70
     32
  0
VERTEX
  8
MY3DLAYER
10
122.36037219907723
20
-90.9828350450946
30
0.017913411523165154
 70
     32
  0
VERTEX
  8
MY3DLAYER
10
122.23770517371788
20
-90.05108648272552
30
0.017913411523165154
 70
     32
  0
VERTEX
  8
MY3DLAYER
10
122.36037219907723
20
-89.11933792035644
30
0.017913411523165154
 70
     32
  0
VERTEX
  8
MY3DLAYER
10
122.72001372009389
20
-88.25108648272553
30
0.017913411523165154
 70
     32
  0
VERTEX
  8
MY3DLAYER
10
123.29212076144627
20
-87.50550207045396
30
0.017913411523165154
 70
     32
  0
VERTEX
  8
MY3DLAYER
10
124.03770517371784
20
-86.93339502910155
30
0.017913411523165154
 70
     32
  0
SEQEND
  0
POLYLINE
 8
Group#46
 66
     1
70
    8
 10
0.0
 20
 0.0
 30
0.0
  0
VERTEX
  8
MY3DLAYER
10
147.8891710416827
20
-42.53300499923206
30
0.017913411525811693
 70
     32
  0
VERTEX
  8
MY3DLAYER
10
147.8891710416827
20
-45.63300499923205
30
0.017913411525813102
 70
     32
  0
VERTEX
  8
MY3DLAYER
10
144.78917104168266
20
-45.63300499923205
30
0.017913411525813102
 70
     32
  0
VERTEX
  8
MY3DLAYER
10
144.78917104168266
20
-42.53300499923206
30
0.017913411525820152
 70
     32
  0
VERTEX
  8
MY3DLAYER
10
147.8891710416827
20
-42.53300499923206
30
0.017913411525811693
 70
     32
  0
SEQEND
  0
POLYLINE
 8
Group#46
 66
     1
70
    8
 10
0.0
 20
 0.0
 30
0.0
  0
VERTEX
  8
MY3DLAYER
10
161.7891710416827
20
-45.63300499923205
30
0.017913411525705945
 70
     32
  0
VERTEX
  8
MY3DLAYER
10
161.7891710416827
20
-42.533004999232055
30
0.017913411525714403
 70
     32
  0
VERTEX
  8
MY3DLAYER
10
164.8891710416827
20
-42.533004999232055
30
0.017913411525705945
 70
     32
  0
VERTEX
  8
MY3DLAYER
10
164.8891710416827
20
-45.63300499923205
30
0.017913411525705945
 70
     32
  0
VERTEX
  8
MY3DLAYER
10
161.7891710416827
20
-45.63300499923205
30
0.017913411525705945
 70
     32
  0
SEQEND
  0
POLYLINE
 8
Group#46
 66
     1
70
    8
 10
0.0
 20
 0.0
 30
0.0
  0
VERTEX
  8
MY3DLAYER
10
126.53970623796495
20
-95.68100505420747
30
0.018063011350040188
 70
     32
  0
VERTEX
  8
MY3DLAYER
10
129.6397062379647
20
-95.68100505420747
30
0.0180630113501121
 70
     32
  0
VERTEX
  8
MY3DLAYER
10
129.6397062379647
20
-98.78100505420777
30
0.018063011350040188
 70
     32
  0
VERTEX
  8
MY3DLAYER
10
126.53970623796495
20
-98.78100505420777
30
0.01806301135003878
 70
     32
  0
VERTEX
  8
MY3DLAYER
10
126.53970623796495
20
-95.68100505420747
30
0.018063011350040188
 70
     32
  0
SEQEND
  0
POLYLINE
 8
Group#46
 66
     1
70
    8
 10
0.0
 20
 0.0
 30
0.0
  0
VERTEX
  8
MY3DLAYER
10
177.38863549969295
20
-51.511540368377574
30
0.01806673866970484
 70
     32
  0
VERTEX
  8
MY3DLAYER
10
174.28863549969302
20
-51.511540368377574
30
0.018066738666297617
 70
     32
  0
VERTEX
  8
MY3DLAYER
10
174.28863549969302
20
-47.66100499924156
30
0.018066738666253905
 70
     32
  0
VERTEX
  8
MY3DLAYER
10
177.38863549969295
20
-47.66100499924156
30
0.01806673866638292
 70
     32
  0
VERTEX
  8
MY3DLAYER
10
177.38863549969295
20
-51.511540368377574
30
0.01806673866970484
 70
     32
  0
SEQEND
  0
POLYLINE
 8
Group#46
 66
     1
70
    8
 10
0.0
 20
 0.0
 30
0.0
  0
VERTEX
  8
MY3DLAYER
10
180.038635499693
20
-54.161540368371874
30
0.01806673867166225
 70
     32
  0
VERTEX
  8
MY3DLAYER
10
183.138635499693
20
-54.161540368371874
30
0.01806673867166225
 70
     32
  0
VERTEX
  8
MY3DLAYER
10
183.138635499693
20
-57.261540368371875
30
0.01806673867166225
 70
     32
  0
VERTEX
  8
MY3DLAYER
10
180.038635499693
20
-57.261540368371875
30
0.018066738671663658
 70
     32
  0
VERTEX
  8
MY3DLAYER
10
180.038635499693
20
-54.161540368371874
30
0.01806673867166225
 70
     32
  0
SEQEND
  0
POLYLINE
 8
Group#46
 66
     1
70
    8
 10
0.0
 20
 0.0
 30
0.0
  0
VERTEX
  8
MY3DLAYER
10
135.38970623796493
20
-51.497540368377585
30
0.018066738669171866
 70
     32
  0
VERTEX
  8
MY3DLAYER
10
132.289706237965
20
-51.497540368377585
30
0.018066738665766052
 70
     32
  0
VERTEX
  8
MY3DLAYER
10
132.289706237965
20
-47.647004999241574
30
0.01806673866572234
 70
     32
  0
VERTEX
  8
MY3DLAYER
10
135.38970623796493
20
-47.647004999241574
30
0.018066738665849947
 70
     32
  0
VERTEX
  8
MY3DLAYER
10
135.38970623796493
20
-51.497540368377585
30
0.018066738669171866
 70
     32
  0
SEQEND
  0
POLYLINE
 8
Group#46
 66
     1
70
    8
 10
0.0
 20
 0.0
 30
0.0
  0
VERTEX
  8
MY3DLAYER
10
129.6397062379647
20
-57.261540368371854
30
0.018066738671130685
 70
     32
  0
VERTEX
  8
MY3DLAYER
10
126.53970623796495
20
-57.261540368371854
30
0.018066738671129276
 70
     32
  0
VERTEX
  8
MY3DLAYER
10
126.53970623796495
20
-54.16154036837155
30
0.018066738671130685
 70
     32
  0
VERTEX
  8
MY3DLAYER
10
129.6397062379647
20
-54.16154036837155
30
0.018066738671204004
 70
     32
  0
VERTEX
  8
MY3DLAYER
10
129.6397062379647
20
-57.261540368371854
30
0.018066738671130685
 70
     32
  0
SEQEND
  0
POLYLINE
 8
Group#46
 66
     1
70
    8
 10
0.0
 20
 0.0
 30
0.0
  0
VERTEX
  8
MY3DLAYER
10
188.3886354996566
20
-133.3775028507406
30
0.01815714846742656
 70
     32
  0
VERTEX
  8
MY3DLAYER
10
182.23863549969312
20
-133.37750258632363
30
0.01815589959519703
 70
     32
  0
VERTEX
  8
MY3DLAYER
10
182.23863549968192
20
-130.27750258819856
30
0.018153458958649057
 70
     32
  0
VERTEX
  8
MY3DLAYER
10
185.28863549968034
20
-130.27750258819825
30
0.018066640336337498
 70
     32
  0
VERTEX
  8
MY3DLAYER
10
185.2886354996915
20
-124.27750258819854
30
0.018066640336337498
 70
     32
  0
VERTEX
  8
MY3DLAYER
10
188.3886354996576
20
-124.2775028526155
30
0.01806817827705109
 70
     32
  0
VERTEX
  8
MY3DLAYER
10
188.3886354996566
20
-133.3775028507406
30
0.01815714846742656
 70
     32
  0
SEQEND
  0
POLYLINE
 8
Group#46
 66
     1
70
    8
 10
0.0
 20
 0.0
 30
0.0
  0
VERTEX
  8
MY3DLAYER
10
174.63268008516744
20
-123.46926476900494
30
0.002007334206224426
 70
     32
  0
VERTEX
  8
MY3DLAYER
10
174.63266913626967
20
-127.4610060276005
30
0.002003352026183552
 70
     32
  0
VERTEX
  8
MY3DLAYER
10
171.53274088497815
20
-127.46100499890497
30
0.002003547123497612
 70
     32
  0
VERTEX
  8
MY3DLAYER
10
171.53274088497815
20
-118.3610049989146
30
0.002003475159341106
 70
     32
  0
VERTEX
  8
MY3DLAYER
10
174.6326802449973
20
-118.36100092610424
30
0.002003280036597646
 70
     32
  0
VERTEX
  8
MY3DLAYER
10
174.6326911938948
20
-119.36925017545278
30
0.0020072622167076086
 70
     32
  0
VERTEX
  8
MY3DLAYER
10
180.63273029155732
20
-119.36925424827054
30
0.0019668018575857535
 70
     32
  0
VERTEX
  8
MY3DLAYER
10
180.6327302915576
20
-123.4692637403168
30
0.0020073340892451663
 70
     32
  0
VERTEX
  8
MY3DLAYER
10
174.63268008516744
20
-123.46926476900494
30
0.002007334206224426
 70
     32
  0
SEQEND
  0
POLYLINE
 8
Group#46
 66
     1
70
    8
 10
0.0
 20
 0.0
 30
0.0
  0
VERTEX
  8
MY3DLAYER
10
188.3886354996985
20
-87.49425379371462
30
0.017913411527591797
 70
     32
  0
VERTEX
  8
MY3DLAYER
10
185.28863549969927
20
-87.49425379371462
30
0.017913411527511428
 70
     32
  0
VERTEX
  8
MY3DLAYER
10
185.28863549969927
20
-83.39425379371436
30
0.017913411527043312
 70
     32
  0
VERTEX
  8
MY3DLAYER
10
188.3886354996985
20
-83.39425379371436
30
0.017913411527586156
 70
     32
  0
VERTEX
  8
MY3DLAYER
10
188.3886354996985
20
-87.49425379371462
30
0.017913411527591797
 70
     32
  0
SEQEND
  0
POLYLINE
 8
Group#46
 66
     1
70
    8
 10
0.0
 20
 0.0
 30
0.0
  0
VERTEX
  8
MY3DLAYER
10
185.3886354996935
20
-101.86164564187543
30
0.017913411526482844
 70
     32
  0
VERTEX
  8
MY3DLAYER
10
180.78917086894336
20
-101.86164564187543
30
0.017913411526480023
 70
     32
  0
VERTEX
  8
MY3DLAYER
10
180.78917086894336
20
-97.76164564187519
30
0.017913411526251605
 70
     32
  0
VERTEX
  8
MY3DLAYER
10
185.3886354996935
20
-97.76164564187519
30
0.017913411526480023
 70
     32
  0
VERTEX
  8
MY3DLAYER
10
185.3886354996935
20
-101.86164564187543
30
0.017913411526482844
 70
     32
  0
SEQEND
  0
POLYLINE
 8
Group#46
 66
     1
70
    8
 10
0.0
 20
 0.0
 30
0.0
  0
VERTEX
  8
MY3DLAYER
10
160.78811036738355
20
-130.27747934383274
30
0.0020040482069747178
 70
     32
  0
VERTEX
  8
MY3DLAYER
10
164.9019843673836
20
-130.27747934383274
30
0.0020040482069747178
 70
     32
  0
VERTEX
  8
MY3DLAYER
10
164.9019843673836
20
-133.3774793438332
30
0.0020040482069761277
 70
     32
  0
VERTEX
  8
MY3DLAYER
10
160.78811036738355
20
-133.3774793438332
30
0.0020040482069747178
 70
     32
  0
VERTEX
  8
MY3DLAYER
10
160.78811036738355
20
-130.27747934383274
30
0.0020040482069747178
 70
     32
  0
SEQEND
  0
POLYLINE
 8
Group#46
 66
     1
70
    8
 10
0.0
 20
 0.0
 30
0.0
  0
VERTEX
  8
MY3DLAYER
10
148.88823137050008
20
-130.2774793438323
30
0.0020040482069729553
 70
     32
  0
VERTEX
  8
MY3DLAYER
10
148.88823137050008
20
-133.37747934383307
30
0.002004048206974365
 70
     32
  0
VERTEX
  8
MY3DLAYER
10
144.78823137049966
20
-133.37747934383307
30
0.0020040482069729553
 70
     32
  0
VERTEX
  8
MY3DLAYER
10
144.78823137049966
20
-130.2774793438323
30
0.0020040482069729553
 70
     32
  0
VERTEX
  8
MY3DLAYER
10
148.88823137050008
20
-130.2774793438323
30
0.0020040482069729553
 70
     32
  0
SEQEND
  0
POLYLINE
 8
Group#46
 66
     1
70
    8
 10
0.0
 20
 0.0
 30
0.0
  0
VERTEX
  8
MY3DLAYER
10
153.29268954687944
20
-133.7415898159966
30
0.002004048207078704
 70
     32
  0
VERTEX
  8
MY3DLAYER
10
153.23817086894192
20
-133.32747934383255
30
0.002004048207077294
 70
     32
  0
VERTEX
  8
MY3DLAYER
10
153.29268954687944
20
-132.91336887166855
30
0.0020040482070783515
 70
     32
  0
VERTEX
  8
MY3DLAYER
10
153.4525302228868
20
-132.52747934383257
30
0.0020040482070818764
 70
     32
  0
VERTEX
  8
MY3DLAYER
10
153.70680001904338
20
-132.19610849393408
30
0.002004048207087869
 70
     32
  0
VERTEX
  8
MY3DLAYER
10
154.0381708689419
20
-131.94183869777746
30
0.0020040482070956237
 70
     32
  0
VERTEX
  8
MY3DLAYER
10
154.42406039677786
20
-131.78199802177008
30
0.0020040482071047886
 70
     32
  0
VERTEX
  8
MY3DLAYER
10
154.83817086894192
20
-131.72747934383256
30
0.002004048207114306
 70
     32
  0
VERTEX
  8
MY3DLAYER
10
155.25228134110597
20
-131.78199802177008
30
0.002004048207124176
 70
     32
  0
VERTEX
  8
MY3DLAYER
10
155.6381708689419
20
-131.94183869777746
30
0.002004048207133341
 70
     32
  0
VERTEX
  8
MY3DLAYER
10
155.96954171884042
20
-132.19610849393408
30
0.002004048207141448
 70
     32
  0
VERTEX
  8
MY3DLAYER
10
156.22381151499704
20
-132.52747934383257
30
0.0020040482071474407
 70
     32
  0
VERTEX
  8
MY3DLAYER
10
156.3836521910044
20
-132.91336887166855
30
0.002004048207151671
 70
     32
  0
VERTEX
  8
MY3DLAYER
10
156.4381708689419
20
-133.32747934383255
30
0.0020040482071530807
 70
     32
  0
VERTEX
  8
MY3DLAYER
10
156.3836521910044
20
-133.7415898159966
30
0.002004048207152023
 70
     32
  0
VERTEX
  8
MY3DLAYER
10
156.22381151499704
20
-134.12747934383256
30
0.002004048207148146
 70
     32
  0
VERTEX
  8
MY3DLAYER
10
155.96954171884042
20
-134.45885019373102
30
0.002004048207142506
 70
     32
  0
VERTEX
  8
MY3DLAYER
10
155.6381708689419
20
-134.71311998988767
30
0.002004048207134751
 70
     32
  0
VERTEX
  8
MY3DLAYER
10
155.25228134110597
20
-134.87296066589508
30
0.002004048207125586
 70
     32
  0
VERTEX
  8
MY3DLAYER
10
154.83817086894192
20
-134.92747934383254
30
0.002004048207115716
 70
     32
  0
VERTEX
  8
MY3DLAYER
10
154.42406039677786
20
-134.87296066589508
30
0.0020040482071058464
 70
     32
  0
VERTEX
  8
MY3DLAYER
10
154.0381708689419
20
-134.71311998988767
30
0.0020040482070966814
 70
     32
  0
VERTEX
  8
MY3DLAYER
10
153.70680001904338
20
-134.45885019373102
30
0.0020040482070889263
 70
     32
  0
VERTEX
  8
MY3DLAYER
10
153.4525302228868
20
-134.12747934383256
30
0.0020040482070825816
 70
     32
  0
VERTEX
  8
MY3DLAYER
10
153.29268954687944
20
-133.7415898159966
30
0.002004048207078704
 70
     32
  0
SEQEND
  0
POLYLINE
 8
Group#46
 66
     1
70
    8
 10
0.0
 20
 0.0
 30
0.0
  0
VERTEX
  8
MY3DLAYER
10
154.8391699870399
20
-43.17200394458852
30
0.01791341152615009
 70
     32
  0
VERTEX
  8
MY3DLAYER
10
154.42505951487584
20
-43.11748526665102
30
0.01791341152614022
 70
     32
  0
VERTEX
  8
MY3DLAYER
10
154.0391699870399
20
-42.95764459064362
30
0.017913411526131053
 70
     32
  0
VERTEX
  8
MY3DLAYER
10
153.7077991371414
20
-42.70337479448699
30
0.017913411526122944
 70
     32
  0
VERTEX
  8
MY3DLAYER
10
153.45352934098477
20
-42.37200394458852
30
0.017913411526116953
 70
     32
  0
VERTEX
  8
MY3DLAYER
10
153.29368866497742
20
-41.98611441675255
30
0.017913411526113077
 70
     32
  0
VERTEX
  8
MY3DLAYER
10
153.2391699870399
20
-41.57200394458851
30
0.017913411526111315
 70
     32
  0
VERTEX
  8
MY3DLAYER
10
153.29368866497742
20
-41.157893472424476
30
0.017913411526112723
 70
     32
  0
VERTEX
  8
MY3DLAYER
10
153.45352934098477
20
-40.77200394458851
30
0.01791341152611625
 70
     32
  0
VERTEX
  8
MY3DLAYER
10
153.7077991371414
20
-40.44063309469003
30
0.01791341152612224
 70
     32
  0
VERTEX
  8
MY3DLAYER
10
154.0391699870399
20
-40.186363298533415
30
0.017913411526129644
 70
     32
  0
VERTEX
  8
MY3DLAYER
10
154.42505951487584
20
-40.026522622525995
30
0.017913411526138807
 70
     32
  0
VERTEX
  8
MY3DLAYER
10
154.8391699870399
20
-39.972003944588515
30
0.017913411526148677
 70
     32
  0
VERTEX
  8
MY3DLAYER
10
155.25328045920395
20
-40.026522622525995
30
0.017913411526158548
 70
     32
  0
VERTEX
  8
MY3DLAYER
10
155.6391699870399
20
-40.186363298533415
30
0.017913411526167714
 70
     32
  0
VERTEX
  8
MY3DLAYER
10
155.97054083693843
20
-40.44063309469003
30
0.01791341152617582
 70
     32
  0
VERTEX
  8
MY3DLAYER
10
156.22481063309502
20
-40.77200394458851
30
0.017913411526181814
 70
     32
  0
VERTEX
  8
MY3DLAYER
10
156.38465130910237
20
-41.157893472424476
30
0.01791341152618569
 70
     32
  0
VERTEX
  8
MY3DLAYER
10
156.4391699870399
20
-41.57200394458851
30
0.017913411526187452
 70
     32
  0
VERTEX
  8
MY3DLAYER
10
156.38465130910237
20
-41.98611441675254
30
0.017913411526186043
 70
     32
  0
VERTEX
  8
MY3DLAYER
10
156.22481063309502
20
-42.372003944588506
30
0.01791341152618252
 70
     32
  0
VERTEX
  8
MY3DLAYER
10
155.97054083693843
20
-42.70337479448699
30
0.017913411526176527
 70
     32
  0
VERTEX
  8
MY3DLAYER
10
155.6391699870399
20
-42.95764459064362
30
0.017913411526169123
 70
     32
  0
VERTEX
  8
MY3DLAYER
10
155.25328045920395
20
-43.11748526665102
30
0.017913411526159956
 70
     32
  0
VERTEX
  8
MY3DLAYER
10
154.8391699870399
20
-43.17200394458852
30
0.01791341152615009
 70
     32
  0
SEQEND
  0
POLYLINE
 8
Group#47
 66
     1
70
    8
 10
0.0
 20
 0.0
 30
0.0
  0
VERTEX
  8
MY3DLAYER
10
253.70598449761835
20
-89.84775620425388
30
0.017913411531455262
 70
     32
  0
VERTEX
  8
MY3DLAYER
10
253.70598449761727
20
-67.32475620533702
30
0.017913411549864002
 70
     32
  0
VERTEX
  8
MY3DLAYER
10
247.7059844976172
20
-67.32475620533724
30
0.017913411547583014
 70
     32
  0
VERTEX
  8
MY3DLAYER
10
247.70598449761735
20
-70.32475620533724
30
0.017913411546500148
 70
     32
  0
VERTEX
  8
MY3DLAYER
10
216.85967242408668
20
-70.32475620533826
30
0.017913411535465357
 70
     32
  0
VERTEX
  8
MY3DLAYER
10
216.85967242408674
20
-64.32475620533683
30
0.017913411538172525
 70
     32
  0
VERTEX
  8
MY3DLAYER
10
210.85967242408674
20
-64.32475620533715
30
0.017913411535440335
 70
     32
  0
VERTEX
  8
MY3DLAYER
10
210.8596724240872
20
-89.8477562042543
30
0.017913411532823408
 70
     32
  0
VERTEX
  8
MY3DLAYER
10
216.85967242408717
20
-89.84775620425457
30
0.017913411532938666
 70
     32
  0
VERTEX
  8
MY3DLAYER
10
216.85967242408728
20
-86.8477562042557
30
0.017913411534021532
 70
     32
  0
VERTEX
  8
MY3DLAYER
10
247.70598449761735
20
-86.84775620425474
30
0.01791341153269359
 70
     32
  0
VERTEX
  8
MY3DLAYER
10
247.70598449761772
20
-89.84775620425475
30
0.01791341153170096
 70
     32
  0
VERTEX
  8
MY3DLAYER
10
253.70598449761835
20
-89.84775620425388
30
0.017913411531455262
 70
     32
  0
SEQEND
  0
POLYLINE
 8
Group#64
 66
     1
70
    8
 10
0.0
 20
 0.0
 30
0.0
  0
VERTEX
  8
MY3DLAYER
10
259.09127434262035
20
-126.03100499873365
30
0.017913411522245837
 70
     32
  0
VERTEX
  8
MY3DLAYER
10
259.09127434261984
20
-119.50800499981726
30
0.017913411522336074
 70
     32
  0
VERTEX
  8
MY3DLAYER
10
256.0912743426196
20
-119.50800499981747
30
0.01791341152243228
 70
     32
  0
VERTEX
  8
MY3DLAYER
10
256.0912743426192
20
-114.80800499981657
30
0.01791341152252252
 70
     32
  0
VERTEX
  8
MY3DLAYER
10
210.85967242408591
20
-114.80800499981976
30
0.017913411525423816
 70
     32
  0
VERTEX
  8
MY3DLAYER
10
210.85967242408705
20
-130.73100499873615
30
0.017913411525423816
 70
     32
  0
VERTEX
  8
MY3DLAYER
10
256.0912743426204
20
-130.73100499873297
30
0.01791341152243228
 70
     32
  0
VERTEX
  8
MY3DLAYER
10
256.09127434262007
20
-126.03100499873388
30
0.01791341152243228
 70
     32
  0
VERTEX
  8
MY3DLAYER
10
259.09127434262035
20
-126.03100499873365
30
0.017913411522245837
 70
     32
  0
SEQEND
  0
POLYLINE
 8
Group#64
 66
     1
70
    8
 10
0.0
 20
 0.0
 30
0.0
  0
VERTEX
  8
MY3DLAYER
10
229.88164133077507
20
-123.55132936786998
30
0.017913411523880683
 70
     32
  0
VERTEX
  8
MY3DLAYER
10
229.8499497125359
20
-124.58791317828019
30
0.01791341152397289
 70
     32
  0
VERTEX
  8
MY3DLAYER
10
229.64653771051218
20
-125.21381029926921
30
0.017913411523895292
 70
     32
  0
VERTEX
  8
MY3DLAYER
10
229.32295396792324
20
-125.75128023159971
30
0.01791341152400564
 70
     32
  0
VERTEX
  8
MY3DLAYER
10
228.90125142434252
20
-126.16369541590413
30
0.01791341152394161
 70
     32
  0
VERTEX
  8
MY3DLAYER
10
228.68167059761836
20
-126.27961763427648
30
0.017913411523955255
 70
     32
  0
VERTEX
  8
MY3DLAYER
10
228.6109022984676
20
-126.31697799196562
30
0.017913411524049894
 70
     32
  0
VERTEX
  8
MY3DLAYER
10
227.94650575245907
20
-127.18283642835095
30
0.017913411524091184
 70
     32
  0
VERTEX
  8
MY3DLAYER
10
226.9896724233775
20
-127.9170404647535
30
0.01791341152415065
 70
     32
  0
VERTEX
  8
MY3DLAYER
10
225.87541641175113
20
-128.37858041672487
30
0.0179134115242199
 70
     32
  0
VERTEX
  8
MY3DLAYER
10
224.67967242337755
20
-128.53600309926944
30
0.017913411524294213
 70
     32
  0
VERTEX
  8
MY3DLAYER
10
223.48392843500386
20
-128.378580416725
30
0.01791341152436853
 70
     32
  0
VERTEX
  8
MY3DLAYER
10
222.36967242337752
20
-127.91704046475361
30
0.017913411524437775
 70
     32
  0
VERTEX
  8
MY3DLAYER
10
221.41283909429558
20
-127.18283642835138
30
0.01791341152449724
 70
     32
  0
VERTEX
  8
MY3DLAYER
10
220.67863505789333
20
-126.22600309926956
30
0.017913411524542868
 70
     32
  0
VERTEX
  8
MY3DLAYER
10
220.21709510592189
20
-125.11174708764322
30
0.017913411524481313
 70
     32
  0
VERTEX
  8
MY3DLAYER
10
220.05967242337735
20
-123.91600309926957
30
0.017913411524581337
 70
     32
  0
VERTEX
  8
MY3DLAYER
10
220.21709510592183
20
-122.72025911089591
30
0.017913411524571553
 70
     32
  0
VERTEX
  8
MY3DLAYER
10
220.67863505789316
20
-121.60600309926953
30
0.017913411524542868
 70
     32
  0
VERTEX
  8
MY3DLAYER
10
221.41283909429535
20
-120.64916977018767
30
0.01791341152449724
 70
     32
  0
VERTEX
  8
MY3DLAYER
10
222.36967242337724
20
-119.91496573378537
30
0.017913411524437775
 70
     32
  0
VERTEX
  8
MY3DLAYER
10
223.48392843500352
20
-119.45342578181396
30
0.01791341152436853
 70
     32
  0
VERTEX
  8
MY3DLAYER
10
224.67967242337718
20
-119.29600309926941
30
0.017913411524294213
 70
     32
  0
VERTEX
  8
MY3DLAYER
10
225.87541641175085
20
-119.45342578181386
30
0.0179134115242199
 70
     32
  0
VERTEX
  8
MY3DLAYER
10
226.98967242337727
20
-119.91496573378524
30
0.01791341152415065
 70
     32
  0
VERTEX
  8
MY3DLAYER
10
227.94650575245737
20
-120.6491697701887
30
0.017913411524000944
 70
     32
  0
VERTEX
  8
MY3DLAYER
10
228.6115214133897
20
-121.51583505284495
30
0.01791341152395962
 70
     32
  0
VERTEX
  8
MY3DLAYER
10
228.68097468056806
20
-121.55250117222029
30
0.0179134115239553
 70
     32
  0
VERTEX
  8
MY3DLAYER
10
228.90125142434238
20
-121.66879078263435
30
0.01791341152394161
 70
     32
  0
VERTEX
  8
MY3DLAYER
10
229.3229539679232
20
-122.08120596693873
30
0.0179134115239154
 70
     32
  0
VERTEX
  8
MY3DLAYER
10
229.6465377105121
20
-122.61867589926919
30
0.017913411523895292
 70
     32
  0
VERTEX
  8
MY3DLAYER
10
229.84995095479914
20
-123.2445728919485
30
0.01791341152388265
 70
     32
  0
VERTEX
  8
MY3DLAYER
10
229.88164133077507
20
-123.55132936786998
30
0.017913411523880683
 70
     32
  0
SEQEND
  0
POLYLINE
 8
Group#65
 66
     1
70
    8
 10
0.0
 20
 0.0
 30
0.0
  0
VERTEX
  8
MY3DLAYER
10
235.2375475272998
20
-92.61675324581063
30
0.017913177929800673
 70
     32
  0
VERTEX
  8
MY3DLAYER
10
235.36021455265913
20
-91.68500468344232
30
0.017913177929800673
 70
     32
  0
VERTEX
  8
MY3DLAYER
10
235.2375475272998
20
-90.75325612107247
30
0.017913177929800673
 70
     32
  0
VERTEX
  8
MY3DLAYER
10
234.8779060062831
20
-89.88500468344155
30
0.017913177929800673
 70
     32
  0
VERTEX
  8
MY3DLAYER
10
234.30579896493072
20
-89.13942027116998
30
0.017913177929800673
 70
     32
  0
VERTEX
  8
MY3DLAYER
10
233.56021455265915
20
-88.5673132298176
30
0.017913177929800673
 70
     32
  0
VERTEX
  8
MY3DLAYER
10
232.69196311502816
20
-88.20767170880167
30
0.017913177929800673
 70
     32
  0
VERTEX
  8
MY3DLAYER
10
231.76021455265908
20
-88.08500468344232
30
0.017913177929800673
 70
     32
  0
VERTEX
  8
MY3DLAYER
10
230.82846599029003
20
-88.20767170880167
30
0.017913177929800673
 70
     32
  0
VERTEX
  8
MY3DLAYER
10
229.96021455265915
20
-88.5673132298176
30
0.017913177929800673
 70
     32
  0
VERTEX
  8
MY3DLAYER
10
229.21463014038756
20
-89.1394202711707
30
0.017913177929800673
 70
     32
  0
VERTEX
  8
MY3DLAYER
10
228.64252309903515
20
-89.88500468344228
30
0.017913177929800673
 70
     32
  0
VERTEX
  8
MY3DLAYER
10
228.2828815780185
20
-90.75325612107319
30
0.017913177929800673
 70
     32
  0
VERTEX
  8
MY3DLAYER
10
228.1602145526591
20
-91.68500468344232
30
0.017913177929800673
 70
     32
  0
VERTEX
  8
MY3DLAYER
10
228.2828815780185
20
-92.61675324581135
30
0.017913177929800673
 70
     32
  0
VERTEX
  8
MY3DLAYER
10
228.64252309903515
20
-93.48500468344227
30
0.017913177929800673
 70
     32
  0
VERTEX
  8
MY3DLAYER
10
229.21463014038756
20
-94.23058909571384
30
0.017913177929800673
 70
     32
  0
VERTEX
  8
MY3DLAYER
10
229.9602145526591
20
-94.8026961370655
30
0.017913177929800673
 70
     32
  0
VERTEX
  8
MY3DLAYER
10
230.82846599029003
20
-95.16233765808296
30
0.017913177929800673
 70
     32
  0
VERTEX
  8
MY3DLAYER
10
231.76021455265908
20
-95.28500468344231
30
0.017913177929800673
 70
     32
  0
VERTEX
  8
MY3DLAYER
10
232.69196311502816
20
-95.16233765808296
30
0.017913177929800673
 70
     32
  0
VERTEX
  8
MY3DLAYER
10
233.5602145526591
20
-94.8026961370655
30
0.017913177929800673
 70
     32
  0
VERTEX
  8
MY3DLAYER
10
234.30579896493072
20
-94.23058909571311
30
0.017913177929800673
 70
     32
  0
VERTEX
  8
MY3DLAYER
10
234.8779060062831
20
-93.48500468344155
30
0.017913177929800673
 70
     32
  0
VERTEX
  8
MY3DLAYER
10
235.2375475272998
20
-92.61675324581063
30
0.017913177929800673
 70
     32
  0
SEQEND
  0
POLYLINE
 8
Group#65
 66
     1
70
    8
 10
0.0
 20
 0.0
 30
0.0
  0
VERTEX
  8
MY3DLAYER
10
230.26021455265908
20
-89.28500468344232
30
0.017913177929800673
 70
     32
  0
VERTEX
  8
MY3DLAYER
10
233.26021455265908
20
-89.28500468344232
30
0.017913177929800673
 70
     32
  0
VERTEX
  8
MY3DLAYER
10
233.26021455265908
20
-94.08500468344249
30
0.017913177929800673
 70
     32
  0
VERTEX
  8
MY3DLAYER
10
230.26021455265908
20
-94.08500468344249
30
0.017913177929800673
 70
     32
  0
VERTEX
  8
MY3DLAYER
10
230.26021455265908
20
-89.28500468344232
30
0.017913177929800673
 70
     32
  0
SEQEND
  0
POLYLINE
 8
Group#65
 66
     1
70
    8
 10
0.0
 20
 0.0
 30
0.0
  0
VERTEX
  8
MY3DLAYER
10
228.03754752729975
20
-92.61675324581063
30
0.017913177929800673
 70
     32
  0
VERTEX
  8
MY3DLAYER
10
228.1602145526591
20
-91.68500468344232
30
0.017913177929800673
 70
     32
  0
VERTEX
  8
MY3DLAYER
10
228.03754752729975
20
-90.75325612107247
30
0.017913177929800673
 70
     32
  0
VERTEX
  8
MY3DLAYER
10
227.67790600628305
20
-89.88500468344155
30
0.017913177929800673
 70
     32
  0
VERTEX
  8
MY3DLAYER
10
227.10579896493067
20
-89.13942027116998
30
0.017913177929800673
 70
     32
  0
VERTEX
  8
MY3DLAYER
10
226.3602145526591
20
-88.5673132298176
30
0.017913177929800673
 70
     32
  0
VERTEX
  8
MY3DLAYER
10
225.49196311502814
20
-88.20767170880167
30
0.017913177929800673
 70
     32
  0
VERTEX
  8
MY3DLAYER
10
224.56021455265906
20
-88.08500468344232
30
0.017913177929800673
 70
     32
  0
VERTEX
  8
MY3DLAYER
10
223.62846599028998
20
-88.20767170880167
30
0.017913177929800673
 70
     32
  0
VERTEX
  8
MY3DLAYER
10
222.7602145526591
20
-88.5673132298176
30
0.017913177929800673
 70
     32
  0
VERTEX
  8
MY3DLAYER
10
222.01463014038754
20
-89.1394202711707
30
0.017913177929800673
 70
     32
  0
VERTEX
  8
MY3DLAYER
10
221.4425230990351
20
-89.88500468344228
30
0.017913177929800673
 70
     32
  0
VERTEX
  8
MY3DLAYER
10
221.08288157801846
20
-90.75325612107319
30
0.017913177929800673
 70
     32
  0
VERTEX
  8
MY3DLAYER
10
220.96021455265907
20
-91.68500468344232
30
0.017913177929800673
 70
     32
  0
VERTEX
  8
MY3DLAYER
10
221.08288157801846
20
-92.61675324581135
30
0.017913177929800673
 70
     32
  0
VERTEX
  8
MY3DLAYER
10
221.4425230990351
20
-93.48500468344227
30
0.017913177929800673
 70
     32
  0
VERTEX
  8
MY3DLAYER
10
222.01463014038754
20
-94.23058909571384
30
0.017913177929800673
 70
     32
  0
VERTEX
  8
MY3DLAYER
10
222.76021455265905
20
-94.8026961370655
30
0.017913177929800673
 70
     32
  0
VERTEX
  8
MY3DLAYER
10
223.62846599028998
20
-95.16233765808296
30
0.017913177929800673
 70
     32
  0
VERTEX
  8
MY3DLAYER
10
224.56021455265906
20
-95.28500468344231
30
0.017913177929800673
 70
     32
  0
VERTEX
  8
MY3DLAYER
10
225.49196311502814
20
-95.16233765808296
30
0.017913177929800673
 70
     32
  0
VERTEX
  8
MY3DLAYER
10
226.36021455265904
20
-94.8026961370655
30
0.017913177929800673
 70
     32
  0
VERTEX
  8
MY3DLAYER
10
227.10579896493067
20
-94.23058909571311
30
0.017913177929800673
 70
     32
  0
VERTEX
  8
MY3DLAYER
10
227.67790600628305
20
-93.48500468344155
30
0.017913177929800673
 70
     32
  0
VERTEX
  8
MY3DLAYER
10
228.03754752729975
20
-92.61675324581063
30
0.017913177929800673
 70
     32
  0
SEQEND
  0
POLYLINE
 8
Group#65
 66
     1
70
    8
 10
0.0
 20
 0.0
 30
0.0
  0
VERTEX
  8
MY3DLAYER
10
223.06021455265903
20
-89.28500468344232
30
0.017913177929800673
 70
     32
  0
VERTEX
  8
MY3DLAYER
10
226.06021455265903
20
-89.28500468344232
30
0.017913177929800673
 70
     32
  0
VERTEX
  8
MY3DLAYER
10
226.06021455265903
20
-94.08500468344249
30
0.017913177929800673
 70
     32
  0
VERTEX
  8
MY3DLAYER
10
223.06021455265903
20
-94.08500468344249
30
0.017913177929800673
 70
     32
  0
VERTEX
  8
MY3DLAYER
10
223.06021455265903
20
-89.28500468344232
30
0.017913177929800673
 70
     32
  0
SEQEND
  0
POLYLINE
 8
Group#69
 66
     1
70
    8
 10
0.0
 20
 0.0
 30
0.0
  0
VERTEX
  8
MY3DLAYER
10
191.33863549970647
20
-46.964506981006984
30
0.01791341152624456
 70
     32
  0
VERTEX
  8
MY3DLAYER
10
194.33863549970647
20
-46.964506981007105
30
0.01791341152624456
 70
     32
  0
VERTEX
  8
MY3DLAYER
10
210.86163549862286
20
-46.96450698100795
30
0.01791341152624456
 70
     32
  0
VERTEX
  8
MY3DLAYER
10
213.86163549862286
20
-46.96450698100807
30
0.01791341152624456
 70
     32
  0
VERTEX
  8
MY3DLAYER
10
213.86163549862303
20
-42.16450698100628
30
0.017913411526083577
 70
     32
  0
VERTEX
  8
MY3DLAYER
10
210.56163549862208
20
-42.164506981006326
30
0.017913411526083577
 70
     32
  0
VERTEX
  8
MY3DLAYER
10
210.56163549862222
20
-39.689607985643036
30
0.01791341152598348
 70
     32
  0
VERTEX
  8
MY3DLAYER
10
205.86163549862314
20
-39.689607985642844
30
0.01791341152598348
 70
     32
  0
VERTEX
  8
MY3DLAYER
10
205.86163549862306
20
-42.68960798564298
30
0.01791341152609114
 70
     32
  0
VERTEX
  8
MY3DLAYER
10
199.3386354997066
20
-42.68960798564271
30
0.01791341152609114
 70
     32
  0
VERTEX
  8
MY3DLAYER
10
199.33863549970675
20
-39.689607985642404
30
0.01791341152598348
 70
     32
  0
VERTEX
  8
MY3DLAYER
10
194.63863549970583
20
-39.68960798564221
30
0.01791341152598348
 70
     32
  0
VERTEX
  8
MY3DLAYER
10
194.6386354997057
20
-42.16450698100586
30
0.017913411526072297
 70
     32
  0
VERTEX
  8
MY3DLAYER
10
191.33863549970667
20
-42.16450698100573
30
0.017913411526072297
 70
     32
  0
VERTEX
  8
MY3DLAYER
10
191.33863549970647
20
-46.964506981006984
30
0.01791341152624456
 70
     32
  0
SEQEND
  0
POLYLINE
 8
Group#70
 66
     1
70
    8
 10
0.0
 20
 0.0
 30
0.0
  0
VERTEX
  8
MY3DLAYER
10
216.85967242408668
20
-70.32475620533826
30
0.017913411535465357
 70
     32
  0
VERTEX
  8
MY3DLAYER
10
242.38267242300307
20
-70.32475618894553
30
0.017913411550642112
 70
     32
  0
VERTEX
  8
MY3DLAYER
10
242.382672420434
20
-66.32475790323991
30
0.021616701014381307
 70
     32
  0
VERTEX
  8
MY3DLAYER
10
236.38267242043398
20
-66.32475790709356
30
0.021616701010813522
 70
     32
  0
VERTEX
  8
MY3DLAYER
10
236.38267240959533
20
-49.449341011082595
30
0.03724034610425025
 70
     32
  0
VERTEX
  8
MY3DLAYER
10
239.39860830960035
20
-49.44934100914554
30
0.03724034610604361
 70
     32
  0
VERTEX
  8
MY3DLAYER
10
239.39860830703125
20
-45.44934272343993
30
0.04094363556978281
 70
     32
  0
VERTEX
  8
MY3DLAYER
10
236.38267240702626
20
-45.449342725376994
30
0.04094363556798944
 70
     32
  0
VERTEX
  8
MY3DLAYER
10
236.38267240509944
20
-42.449344011097985
30
0.04372110266598258
 70
     32
  0
VERTEX
  8
MY3DLAYER
10
219.8596989428688
20
-42.4493440217107
30
0.04372110265633757
 70
     32
  0
VERTEX
  8
MY3DLAYER
10
219.8596989447959
20
-45.44934273598988
30
0.04094363555842322
 70
     32
  0
VERTEX
  8
MY3DLAYER
10
216.85967240810493
20
-45.44934273791681
30
0.040943635556673075
 70
     32
  0
VERTEX
  8
MY3DLAYER
10
216.85967241067766
20
-49.449341023622154
30
0.03724034609284389
 70
     32
  0
VERTEX
  8
MY3DLAYER
10
219.8596724106829
20
-49.44934102169479
30
0.03724034609447037
 70
     32
  0
VERTEX
  8
MY3DLAYER
10
219.8596724215176
20
-66.32475791770611
30
0.02161670100105587
 70
     32
  0
VERTEX
  8
MY3DLAYER
10
216.8596724215176
20
-66.32475791963293
30
0.021616700999215577
 70
     32
  0
VERTEX
  8
MY3DLAYER
10
216.85967242408668
20
-70.32475620533826
30
0.017913411535465357
 70
     32
  0
SEQEND
  0
POLYLINE
 8
Group#71
 66
     1
70
    8
 10
0.0
 20
 0.0
 30
0.0
  0
VERTEX
  8
MY3DLAYER
10
210.85967215334324
20
-95.28500510616065
30
0.01791320475191256
 70
     32
  0
VERTEX
  8
MY3DLAYER
10
210.85967250118412
20
-111.80800510507851
30
0.01791345096403089
 70
     32
  0
VERTEX
  8
MY3DLAYER
10
213.85967250119796
20
-111.80800504192037
30
0.017913450964029954
 70
     32
  0
VERTEX
  8
MY3DLAYER
10
213.85967256435598
20
-114.8080050419241
30
0.017913495667674622
 70
     32
  0
VERTEX
  8
MY3DLAYER
10
217.85967256434188
20
-114.80800495771459
30
0.017913495667673366
 70
     32
  0
VERTEX
  8
MY3DLAYER
10
217.85967250118534
20
-111.80800495770936
30
0.01791345096398358
 70
     32
  0
VERTEX
  8
MY3DLAYER
10
235.36021497628866
20
-111.80800458929153
30
0.017913450964000644
 70
     32
  0
VERTEX
  8
MY3DLAYER
10
235.3602150394446
20
-114.80800458929154
30
0.01791349566744228
 70
     32
  0
VERTEX
  8
MY3DLAYER
10
241.36021503944448
20
-114.80800446297951
30
0.017913495667440396
 70
     32
  0
VERTEX
  8
MY3DLAYER
10
241.3602145021342
20
-89.2850044640631
30
0.017913115344884368
 70
     32
  0
VERTEX
  8
MY3DLAYER
10
235.3602145021343
20
-89.28500459037514
30
0.01791311534488625
 70
     32
  0
VERTEX
  8
MY3DLAYER
10
235.36021462844633
20
-95.28500459037512
30
0.01791320475190487
 70
     32
  0
VERTEX
  8
MY3DLAYER
10
217.85967215334318
20
-95.28500495879665
30
0.017913204751910362
 70
     32
  0
VERTEX
  8
MY3DLAYER
10
217.8596720898517
20
-92.26906905879162
30
0.0179131598109375
 70
     32
  0
VERTEX
  8
MY3DLAYER
10
213.85967208985167
20
-92.26906914299963
30
0.01791315981093875
 70
     32
  0
VERTEX
  8
MY3DLAYER
10
213.8596721533431
20
-95.28500504300465
30
0.017913204751911615
 70
     32
  0
VERTEX
  8
MY3DLAYER
10
210.85967215334324
20
-95.28500510616065
30
0.01791320475191256
 70
     32
  0
SEQEND
  0
POLYLINE
 8
Group#71
 66
     1
70
    8
 10
0.0
 20
 0.0
 30
0.0
  0
VERTEX
  8
MY3DLAYER
10
224.55433930306972
20
-98.11885559731539
30
0.03441083629809289
 70
     32
  0
VERTEX
  8
MY3DLAYER
10
227.6543945197473
20
-98.118855532053
30
0.03441083629809192
 70
     32
  0
VERTEX
  8
MY3DLAYER
10
227.65439471132063
20
-107.21885553205415
30
0.034410971898736833
 70
     32
  0
VERTEX
  8
MY3DLAYER
10
224.55433949464305
20
-107.21885559731652
30
0.034410971898737805
 70
     32
  0
VERTEX
  8
MY3DLAYER
10
224.55433930306972
20
-98.11885559731539
30
0.03441083629809289
 70
     32
  0
SEQEND
  0
POLYLINE
 8
Group#73
 66
     1
70
    8
 10
0.0
 20
 0.0
 30
0.0
  0
VERTEX
  8
MY3DLAYER
10
191.3386354997059
20
-136.73100499873587
30
0.01791341152669575
 70
     32
  0
VERTEX
  8
MY3DLAYER
10
213.8595190969419
20
-136.73100499873615
30
0.01791341152504084
 70
     32
  0
VERTEX
  8
MY3DLAYER
10
213.8595190969419
20
-130.73100499873615
30
0.01791341152603347
 70
     32
  0
VERTEX
  8
MY3DLAYER
10
210.85967242408705
20
-130.73100499873615
30
0.017913411525062862
 70
     32
  0
VERTEX
  8
MY3DLAYER
10
210.8596724240872
20
-93.847756204254
30
0.0179134115321015
 70
     32
  0
VERTEX
  8
MY3DLAYER
10
213.8596724240872
20
-93.84775620425374
30
0.017913411532801383
 70
     32
  0
VERTEX
  8
MY3DLAYER
10
213.8596724240872
20
-89.84775620425407
30
0.017913411533523296
 70
     32
  0
VERTEX
  8
MY3DLAYER
10
210.8596724240872
20
-89.84775620425431
30
0.017913411532823408
 70
     32
  0
VERTEX
  8
MY3DLAYER
10
210.85967242408705
20
-52.96450740977182
30
0.017913411539952285
 70
     32
  0
VERTEX
  8
MY3DLAYER
10
216.8595190969419
20
-52.96450740977182
30
0.017913411542073973
 70
     32
  0
VERTEX
  8
MY3DLAYER
10
216.8595190969419
20
-46.96450698100698
30
0.017913411543698275
 70
     32
  0
VERTEX
  8
MY3DLAYER
10
191.33863549970647
20
-46.96450698100698
30
0.017913411526244555
 70
     32
  0
VERTEX
  8
MY3DLAYER
10
191.33863549970647
20
-52.96450740977184
30
0.01791341152615432
 70
     32
  0
VERTEX
  8
MY3DLAYER
10
194.33667242517066
20
-52.96450740977184
30
0.01791341152739571
 70
     32
  0
VERTEX
  8
MY3DLAYER
10
194.33667242517015
20
-89.84775620425377
30
0.01791341152838834
 70
     32
  0
VERTEX
  8
MY3DLAYER
10
191.33667242517018
20
-89.84775620425378
30
0.017913411527507975
 70
     32
  0
VERTEX
  8
MY3DLAYER
10
191.3366724251703
20
-93.8477562042534
30
0.017913411527598216
 70
     32
  0
VERTEX
  8
MY3DLAYER
10
194.3366724251703
20
-93.8477562042534
30
0.017913411528478577
 70
     32
  0
VERTEX
  8
MY3DLAYER
10
194.33667242516967
20
-130.73100499873485
30
0.017913411529471207
 70
     32
  0
VERTEX
  8
MY3DLAYER
10
191.3386354997049
20
-130.73100499873456
30
0.01791341152868101
 70
     32
  0
VERTEX
  8
MY3DLAYER
10
191.3386354997059
20
-136.73100499873587
30
0.01791341152669575
 70
     32
  0
SEQEND
  0
POLYLINE
 8
Group#73
 66
     1
70
    8
 10
0.0
 20
 0.0
 30
0.0
  0
VERTEX
  8
MY3DLAYER
10
199.34467242408772
20
-102.21514805241489
30
0.017913411529915473
 70
     32
  0
VERTEX
  8
MY3DLAYER
10
203.11461278316568
20
-102.21514805241489
30
0.01791341153212061
 70
     32
  0
VERTEX
  8
MY3DLAYER
10
203.11461278316568
20
-110.01514805241482
30
0.017913411529864635
 70
     32
  0
VERTEX
  8
MY3DLAYER
10
199.34467242408772
20
-110.01514805241482
30
0.01791341153018619
 70
     32
  0
VERTEX
  8
MY3DLAYER
10
199.34467242408772
20
-102.21514805241489
30
0.017913411529915473
 70
     32
  0
SEQEND
  0
POLYLINE
 8
Group#75
 66
     1
70
    8
 10
0.0
 20
 0.0
 30
0.0
  0
VERTEX
  8
MY3DLAYER
10
271.5225075451997
20
-95.26907238400572
30
0.01826114374951886
 70
     32
  0
VERTEX
  8
MY3DLAYER
10
271.52251341794255
20
-78.73014492901541
30
0.018462534703326105
 70
     32
  0
VERTEX
  8
MY3DLAYER
10
264.6224820926148
20
-78.73013982114048
30
0.018449668068632994
 70
     32
  0
VERTEX
  8
MY3DLAYER
10
264.6224868018671
20
-75.7301446420873
30
0.018461624801938668
 70
     32
  0
VERTEX
  8
MY3DLAYER
10
260.622486801874
20
-75.73013208405999
30
0.018461565277455638
 70
     32
  0
VERTEX
  8
MY3DLAYER
10
260.62248209262174
20
-78.73012726311318
30
0.018449608544149964
 70
     32
  0
VERTEX
  8
MY3DLAYER
10
253.7059845034515
20
-78.73014563650453
30
0.018441406388952874
 70
     32
  0
VERTEX
  8
MY3DLAYER
10
253.70598450345395
20
-95.26907323502117
30
0.018441406388952874
 70
     32
  0
VERTEX
  8
MY3DLAYER
10
260.61424602439615
20
-95.26907285734069
30
0.018371510514876985
 70
     32
  0
VERTEX
  8
MY3DLAYER
10
260.6142460026428
20
-98.26909131416922
30
0.018353301121666304
 70
     32
  0
VERTEX
  8
MY3DLAYER
10
264.6142328433889
20
-98.26909147682538
30
0.018353360721302763
 70
     32
  0
VERTEX
  8
MY3DLAYER
10
264.61423286514224
20
-95.26907301999685
30
0.018371570114513444
 70
     32
  0
VERTEX
  8
MY3DLAYER
10
271.5225075451997
20
-95.26907238400572
30
0.01826114374951886
 70
     32
  0
SEQEND
  0
POLYLINE
 8
Group#75
 66
     1
70
    8
 10
0.0
 20
 0.0
 30
0.0
  0
VERTEX
  8
MY3DLAYER
10
263.8941403190472
20
-87.02052686221433
30
0.018401170212385253
 70
     32
  0
VERTEX
  8
MY3DLAYER
10
264.1426684564691
20
-86.82982451510387
30
0.018401242979598168
 70
     32
  0
VERTEX
  8
MY3DLAYER
10
264.43208560234115
20
-86.70994400810268
30
0.0184007065046999
 70
     32
  0
VERTEX
  8
MY3DLAYER
10
264.74266845645656
20
-86.66905499965104
30
0.018399597347748115
 70
     32
  0
VERTEX
  8
MY3DLAYER
10
265.0532513105698
20
-86.70994400810268
30
0.018398000270449716
 70
     32
  0
VERTEX
  8
MY3DLAYER
10
265.3426684564355
20
-86.82982451510374
30
0.018396003171487433
 70
     32
  0
VERTEX
  8
MY3DLAYER
10
265.5911965938473
20
-87.0205268622141
30
0.018393753914770418
 70
     32
  0
VERTEX
  8
MY3DLAYER
10
265.7818989409529
20
-87.26905499962871
30
0.018391405783335917
 70
     32
  0
VERTEX
  8
MY3DLAYER
10
265.9017794479474
20
-87.55847214549496
30
0.018389118798604786
 70
     32
  0
VERTEX
  8
MY3DLAYER
10
265.9426684563911
20
-87.86905499960646
30
0.018387048814758028
 70
     32
  0
VERTEX
  8
MY3DLAYER
10
265.90177944793095
20
-88.179637853718
30
0.018385336897698924
 70
     32
  0
VERTEX
  8
MY3DLAYER
10
265.7818989409211
20
-88.46905499958429
30
0.018384099711841982
 70
     32
  0
VERTEX
  8
MY3DLAYER
10
265.5911965938024
20
-88.71758313699898
30
0.018383421569309423
 70
     32
  0
VERTEX
  8
MY3DLAYER
10
265.34266845638047
20
-88.90828548410944
30
0.01838334868442494
 70
     32
  0
VERTEX
  8
MY3DLAYER
10
265.0532513105084
20
-89.02816599111061
30
0.018383886024173096
 70
     32
  0
VERTEX
  8
MY3DLAYER
10
264.74266845639306
20
-89.06905499956227
30
0.01838499696966042
 70
     32
  0
VERTEX
  8
MY3DLAYER
10
264.4320856022798
20
-89.02816599111073
30
0.018386605811858983
 70
     32
  0
VERTEX
  8
MY3DLAYER
10
264.1426684564142
20
-88.90828548410971
30
0.018388608869929317
 70
     32
  0
VERTEX
  8
MY3DLAYER
10
263.8941403190023
20
-88.71758313699932
30
0.01839085450508746
 70
     32
  0
VERTEX
  8
MY3DLAYER
10
263.70343797189673
20
-88.46905499958469
30
0.018393198855510905
 70
     32
  0
VERTEX
  8
MY3DLAYER
10
263.58355746490224
20
-88.17963785371842
30
0.01839548215768164
 70
     32
  0
VERTEX
  8
MY3DLAYER
10
263.5426684564585
20
-87.86905499960687
30
0.01839754880837314
 70
     32
  0
VERTEX
  8
MY3DLAYER
10
263.58355746491867
20
-87.55847214549533
30
0.018399257968633006
 70
     32
  0
VERTEX
  8
MY3DLAYER
10
263.7034379719285
20
-87.26905499962902
30
0.018400493162104667
 70
     32
  0
VERTEX
  8
MY3DLAYER
10
263.8941403190472
20
-87.02052686221433
30
0.018401170212385253
 70
     32
  0
SEQEND
  0
POLYLINE
 8
Group#77
 66
     1
70
    8
 10
0.0
 20
 0.0
 30
0.0
  0
VERTEX
  8
MY3DLAYER
10
254.18267241952393
20
-49.785813260548665
30
0.022899608872730765
 70
     32
  0
VERTEX
  8
MY3DLAYER
10
251.28268557901038
20
-49.785816393253384
30
0.02290850340907514
 70
     32
  0
VERTEX
  8
MY3DLAYER
10
251.2826724196099
20
-46.78581326047293
30
0.02284066498690652
 70
     32
  0
VERTEX
  8
MY3DLAYER
10
242.28267241961947
20
-46.78581326047371
30
0.022840664986968098
 70
     32
  0
VERTEX
  8
MY3DLAYER
10
242.28264980718038
20
-49.78581508966994
30
0.022840664986968098
 70
     32
  0
VERTEX
  8
MY3DLAYER
10
236.38267241993972
20
-49.785795024864036
30
0.02289960887285255
 70
     32
  0
VERTEX
  8
MY3DLAYER
10
236.38267241994117
20
-66.3247590948389
30
0.02289960887285255
 70
     32
  0
VERTEX
  8
MY3DLAYER
10
243.28267241973944
20
-66.32476490940356
30
0.02297159903786797
 70
     32
  0
VERTEX
  8
MY3DLAYER
10
243.28268303665027
20
-69.32476490937317
30
0.022979940300017227
 70
     32
  0
VERTEX
  8
MY3DLAYER
10
247.28272858968134
20
-69.32476064799454
30
0.02296487593499461
 70
     32
  0
VERTEX
  8
MY3DLAYER
10
247.28271797277054
20
-66.32476064802492
30
0.02295653467284535
 70
     32
  0
VERTEX
  8
MY3DLAYER
10
254.18267241952537
20
-66.32475909483735
30
0.022899608872730765
 70
     32
  0
VERTEX
  8
MY3DLAYER
10
254.1826757594565
20
-61.685813260198046
30
0.022927318355822107
 70
     32
  0
VERTEX
  8
MY3DLAYER
10
257.1991963271398
20
-61.685813260192994
30
0.02292731835580147
 70
     32
  0
VERTEX
  8
MY3DLAYER
10
257.199196327139
20
-52.685813260191836
30
0.02292731835580147
 70
     32
  0
VERTEX
  8
MY3DLAYER
10
254.18268157778365
20
-52.68579502404345
30
0.022921001806957348
 70
     32
  0
VERTEX
  8
MY3DLAYER
10
254.18267241952393
20
-49.785813260548665
30
0.022899608872730765
 70
     32
  0
SEQEND
  0
POLYLINE
 8
Group#77
 66
     1
70
    8
 10
0.0
 20
 0.0
 30
0.0
  0
VERTEX
  8
MY3DLAYER
10
244.86742464539606
20
-50.037943909643495
30
0.02295160940052825
 70
     32
  0
VERTEX
  8
MY3DLAYER
10
246.7826855790941
20
-49.78579502419175
30
0.0229416756441867
 70
     32
  0
VERTEX
  8
MY3DLAYER
10
248.69794651280571
20
-50.03794390964317
30
0.022934807303217706
 70
     32
  0
VERTEX
  8
MY3DLAYER
10
250.4826855790167
20
-50.77720703614996
30
0.02293147244387068
 70
     32
  0
VERTEX
  8
MY3DLAYER
10
252.01527575978557
20
-51.95320484333077
30
0.02293189833108044
 70
     32
  0
VERTEX
  8
MY3DLAYER
10
253.1912735670179
20
-53.48579502405449
30
0.02293605594148194
 70
     32
  0
VERTEX
  8
MY3DLAYER
10
253.9305366935791
20
-55.27053409022984
30
0.022943661940815863
 70
     32
  0
VERTEX
  8
MY3DLAYER
10
254.18268557908416
20
-57.18579502391768
30
0.022954197992712807
 70
     32
  0
VERTEX
  8
MY3DLAYER
10
253.9305366936816
20
-59.101055957605595
30
0.022966946082631202
 70
     32
  0
VERTEX
  8
MY3DLAYER
10
253.19127356721583
20
-60.88579502378105
30
0.02298103744937426
 70
     32
  0
VERTEX
  8
MY3DLAYER
10
252.0152757600655
20
-62.418385204505
30
0.022995511789586934
 70
     32
  0
VERTEX
  8
MY3DLAYER
10
250.48268557935953
20
-63.59438301168607
30
0.023009382700921142
 70
     32
  0
VERTEX
  8
MY3DLAYER
10
248.6979465131881
20
-64.33364613819316
30
0.023021704903629776
 70
     32
  0
VERTEX
  8
MY3DLAYER
10
246.78268557949
20
-64.5857950236449
30
0.02303163865997133
 70
     32
  0
VERTEX
  8
MY3DLAYER
10
244.86742464577847
20
-64.3336461381935
30
0.023038507000940324
 70
     32
  0
VERTEX
  8
MY3DLAYER
10
243.08268557956748
20
-63.5943830116867
30
0.02304184186028735
 70
     32
  0
VERTEX
  8
MY3DLAYER
10
241.55009539879862
20
-62.4183852045059
30
0.02304141597307759
 70
     32
  0
VERTEX
  8
MY3DLAYER
10
240.3740975915663
20
-60.88579502378216
30
0.023037258362676085
 70
     32
  0
VERTEX
  8
MY3DLAYER
10
239.63483446500504
20
-59.101055957606825
30
0.023029652363342167
 70
     32
  0
VERTEX
  8
MY3DLAYER
10
239.38268557950002
20
-57.18579502391896
30
0.023019116311445223
 70
     32
  0
VERTEX
  8
MY3DLAYER
10
239.63483446490258
20
-55.27053409023107
30
0.023006368221526827
 70
     32
  0
VERTEX
  8
MY3DLAYER
10
240.37409759136835
20
-53.4857950240556
30
0.022992276854783767
 70
     32
  0
VERTEX
  8
MY3DLAYER
10
241.5500953985187
20
-51.95320484333167
30
0.022977802514571093
 70
     32
  0
VERTEX
  8
MY3DLAYER
10
243.08268557922463
20
-50.7772070361506
30
0.022963931603236887
 70
     32
  0
VERTEX
  8
MY3DLAYER
10
244.86742464539606
20
-50.037943909643495
30
0.02295160940052825
 70
     32
  0
SEQEND
  0
POLYLINE
 8
Group#78
 66
     1
70
    8
 10
0.0
 20
 0.0
 30
0.0
  0
VERTEX
  8
MY3DLAYER
10
259.17674154240564
20
-117.79012840232632
30
0.01813746519914443
 70
     32
  0
VERTEX
  8
MY3DLAYER
10
261.42674154240564
20
-117.79012836879875
30
0.01813746519914443
 70
     32
  0
VERTEX
  8
MY3DLAYER
10
261.4267415871068
20
-120.78997504165362
30
0.018137465199163413
 70
     32
  0
VERTEX
  8
MY3DLAYER
10
264.42674158710685
20
-120.78997499695018
30
0.018137465199163413
 70
     32
  0
VERTEX
  8
MY3DLAYER
10
264.4267415424057
20
-117.79012832409529
30
0.01813746519914443
 70
     32
  0
VERTEX
  8
MY3DLAYER
10
266.6767415424057
20
-117.79012829056771
30
0.01813746519914443
 70
     32
  0
VERTEX
  8
MY3DLAYER
10
266.6767414917418
20
-114.39012829056767
30
0.018137465199100353
 70
     32
  0
VERTEX
  8
MY3DLAYER
10
264.37620612260537
20
-114.39012832484825
30
0.018137465199077794
 70
     32
  0
VERTEX
  8
MY3DLAYER
10
264.37620608833305
20
-112.09012832484821
30
0.0181374651990858
 70
     32
  0
VERTEX
  8
MY3DLAYER
10
266.6767414574691
20
-112.09012829056763
30
0.018137465199108357
 70
     32
  0
VERTEX
  8
MY3DLAYER
10
266.6767414127657
20
-109.09012829056762
30
0.018137465199089372
 70
     32
  0
VERTEX
  8
MY3DLAYER
10
264.6762060436297
20
-109.09012832037789
30
0.018137465199089372
 70
     32
  0
VERTEX
  8
MY3DLAYER
10
264.6762058823838
20
-98.26909139599744
30
0.018137465199020895
 70
     32
  0
VERTEX
  8
MY3DLAYER
10
261.6762058823837
20
-98.26909144070086
30
0.018137465199020895
 70
     32
  0
VERTEX
  8
MY3DLAYER
10
261.67620592705794
20
-101.26712836616505
30
0.018137465199039866
 70
     32
  0
VERTEX
  8
MY3DLAYER
10
259.1767412961939
20
-101.26712840340996
30
0.018137465199039866
 70
     32
  0
VERTEX
  8
MY3DLAYER
10
259.17674154240564
20
-117.79012840232632
30
0.01813746519914443
 70
     32
  0
SEQEND
  0
POLYLINE
 8
Group#61
 66
     1
70
    8
 10
0.0
 20
 0.0
 30
0.0
  0
VERTEX
  8
MY3DLAYER
10
213.8595190969419
20
-130.73100499873613
30
0.01791341152603347
 70
     32
  0
VERTEX
  8
MY3DLAYER
10
213.8595191759785
20
-134.48154036787216
30
0.017913523301024276
 70
     32
  0
VERTEX
  8
MY3DLAYER
10
216.85936584883336
20
-134.48154030465514
30
0.01791352330102239
 70
     32
  0
VERTEX
  8
MY3DLAYER
10
216.85936589624856
20
-136.7315403046552
30
0.0179135903564437
 70
     32
  0
VERTEX
  8
MY3DLAYER
10
220.2593658962486
20
-136.73154023300557
30
0.01791359035644156
 70
     32
  0
VERTEX
  8
MY3DLAYER
10
220.2593658435539
20
-134.23100486386912
30
0.01791351583437236
 70
     32
  0
VERTEX
  8
MY3DLAYER
10
222.55936584355396
20
-134.23100481540064
30
0.01791351583446115
 70
     32
  0
VERTEX
  8
MY3DLAYER
10
222.5593658962487
20
-136.73154018453673
30
0.01791359035644012
 70
     32
  0
VERTEX
  8
MY3DLAYER
10
225.5593658962482
20
-136.73154012131647
30
0.017913590356438237
 70
     32
  0
VERTEX
  8
MY3DLAYER
10
225.55936585409012
20
-134.73100475218044
30
0.017913530735664002
 70
     32
  0
VERTEX
  8
MY3DLAYER
10
236.38040277847105
20
-134.73100452414428
30
0.017913530735657206
 70
     32
  0
VERTEX
  8
MY3DLAYER
10
236.38040269417738
20
-130.73100452414428
30
0.017913411526019326
 70
     32
  0
VERTEX
  8
MY3DLAYER
10
213.8595190969419
20
-130.73100499873613
30
0.01791341152603347
 70
     32
  0
SEQEND
  0
POLYLINE
 8
Group#78
 66
     1
70
    8
 10
0.0
 20
 0.0
 30
0.0
  0
VERTEX
  8
MY3DLAYER
10
264.699196256181
20
-54.60909618538517
30
0.019584089759719148
 70
     32
  0
VERTEX
  8
MY3DLAYER
10
262.449196256181
20
-54.60909618538533
30
0.019584089759719148
 70
     32
  0
VERTEX
  8
MY3DLAYER
10
262.44919625618076
20
-51.609249512530454
30
0.019584089759700163
 70
     32
  0
VERTEX
  8
MY3DLAYER
10
259.4491962561807
20
-51.60924951253067
30
0.019584089759700163
 70
     32
  0
VERTEX
  8
MY3DLAYER
10
259.4491962561809
20
-54.609096185385546
30
0.019584089759719148
 70
     32
  0
VERTEX
  8
MY3DLAYER
10
257.1991962561809
20
-54.6090961853857
30
0.019584089759719148
 70
     32
  0
VERTEX
  8
MY3DLAYER
10
257.19919625618115
20
-58.00909618538573
30
0.019584089759718103
 70
     32
  0
VERTEX
  8
MY3DLAYER
10
259.49973162531757
20
-58.009096185385616
30
0.019584089759695545
 70
     32
  0
VERTEX
  8
MY3DLAYER
10
259.4997316253174
20
-60.30909618538565
30
0.019584089759732658
 70
     32
  0
VERTEX
  8
MY3DLAYER
10
257.1991962561813
20
-60.30909618538577
30
0.019584089759755216
 70
     32
  0
VERTEX
  8
MY3DLAYER
10
257.1991962561815
20
-63.3090961853858
30
0.019584089759774204
 70
     32
  0
VERTEX
  8
MY3DLAYER
10
259.19973162531755
20
-63.309096185385656
30
0.019584089759774204
 70
     32
  0
VERTEX
  8
MY3DLAYER
10
259.1997316253183
20
-74.1301331097661
30
0.01958408975984268
 70
     32
  0
VERTEX
  8
MY3DLAYER
10
262.19973162531835
20
-74.13013310976591
30
0.01958408975984268
 70
     32
  0
VERTEX
  8
MY3DLAYER
10
262.1997316253181
20
-71.13209618430173
30
0.01958408975982371
 70
     32
  0
VERTEX
  8
MY3DLAYER
10
264.6991962561821
20
-71.13209618430156
30
0.01958408975982371
 70
     32
  0
VERTEX
  8
MY3DLAYER
10
264.699196256181
20
-54.60909618538517
30
0.019584089759719148
 70
     32
  0
SEQEND
  0
POLYLINE
 8
Group#78
 66
     1
70
    8
 10
0.0
 20
 0.0
 30
0.0
  0
VERTEX
  8
MY3DLAYER
10
264.6991962561821
20
-71.13209618430156
30
0.01958408975982371
 70
     32
  0
VERTEX
  8
MY3DLAYER
10
266.9491962561822
20
-71.13209618430126
30
0.01958408975982371
 70
     32
  0
VERTEX
  8
MY3DLAYER
10
266.9491962561826
20
-74.13194285715615
30
0.019584089759842695
 70
     32
  0
VERTEX
  8
MY3DLAYER
10
269.94919625618263
20
-74.13194285715575
30
0.019584089759842695
 70
     32
  0
VERTEX
  8
MY3DLAYER
10
269.94919625618223
20
-71.13209618430086
30
0.01958408975982371
 70
     32
  0
VERTEX
  8
MY3DLAYER
10
272.19919625618223
20
-71.13209618430058
30
0.01958408975982371
 70
     32
  0
VERTEX
  8
MY3DLAYER
10
272.1991962561818
20
-67.73209618430053
30
0.019584089759779634
 70
     32
  0
VERTEX
  8
MY3DLAYER
10
269.89866088704537
20
-67.7320961843008
30
0.019584089759757072
 70
     32
  0
VERTEX
  8
MY3DLAYER
10
269.8986608870455
20
-65.43209618430076
30
0.01958408975976508
 70
     32
  0
VERTEX
  8
MY3DLAYER
10
272.1991962561815
20
-65.4320961843005
30
0.019584089759787638
 70
     32
  0
VERTEX
  8
MY3DLAYER
10
272.1991962561811
20
-62.43209618430048
30
0.019584089759768653
 70
     32
  0
VERTEX
  8
MY3DLAYER
10
270.1986608870451
20
-62.43209618430074
30
0.019584089759768653
 70
     32
  0
VERTEX
  8
MY3DLAYER
10
270.1986608870437
20
-51.61105925992028
30
0.019584089759700177
 70
     32
  0
VERTEX
  8
MY3DLAYER
10
267.1986608870436
20
-51.61105925992067
30
0.019584089759700177
 70
     32
  0
VERTEX
  8
MY3DLAYER
10
267.198660887044
20
-54.60909618538486
30
0.019584089759719148
 70
     32
  0
VERTEX
  8
MY3DLAYER
10
264.69919625617996
20
-54.609096185385184
30
0.019584089759719148
 70
     32
  0
VERTEX
  8
MY3DLAYER
10
264.6991962561821
20
-71.13209618430156
30
0.01958408975982371
 70
     32
  0
SEQEND
  0
POLYLINE
 8
Group#79
 66
     1
70
    8
 10
0.0
 20
 0.0
 30
0.0
  0
VERTEX
  8
MY3DLAYER
10
236.3804026941774
20
-130.73100452414428
30
0.017913411526019326
 70
     32
  0
VERTEX
  8
MY3DLAYER
10
236.38040263829103
20
-134.48153989328029
30
0.01791352330101013
 70
     32
  0
VERTEX
  8
MY3DLAYER
10
239.38024931114592
20
-134.4815399379807
30
0.01791352330101146
 70
     32
  0
VERTEX
  8
MY3DLAYER
10
239.3802492776189
20
-136.73153993798073
30
0.017913590356432772
 70
     32
  0
VERTEX
  8
MY3DLAYER
10
242.78024927761894
20
-136.73153998864376
30
0.01791359035643428
 70
     32
  0
VERTEX
  8
MY3DLAYER
10
242.78024931487923
20
-134.2310046195073
30
0.01791351583436507
 70
     32
  0
VERTEX
  8
MY3DLAYER
10
245.08024931487924
20
-134.2310046537797
30
0.017913515834456335
 70
     32
  0
VERTEX
  8
MY3DLAYER
10
245.080249277619
20
-136.7315400229158
30
0.017913590356435305
 70
     32
  0
VERTEX
  8
MY3DLAYER
10
248.0802492776185
20
-136.73154006761843
30
0.017913590356436637
 70
     32
  0
VERTEX
  8
MY3DLAYER
10
248.08024930742826
20
-134.7310046984824
30
0.017913530735662403
 70
     32
  0
VERTEX
  8
MY3DLAYER
10
258.90128623180925
20
-134.7310048597255
30
0.017913530735667208
 70
     32
  0
VERTEX
  8
MY3DLAYER
10
258.9012862914128
20
-130.7310048597255
30
0.01791341152602933
 70
     32
  0
VERTEX
  8
MY3DLAYER
10
236.3804026941774
20
-130.73100452414428
30
0.017913411526019326
 70
     32
  0
SEQEND
  0
POLYLINE
 8
Group#83
 66
     1
70
    8
 10
0.0
 20
 0.0
 30
0.0
  0
VERTEX
  8
MY3DLAYER
10
259.17673956002113
20
-111.80799239937674
30
0.01780103952353682
 70
     32
  0
VERTEX
  8
MY3DLAYER
10
259.176739560024
20
-95.26906480086012
30
0.01780103952353682
 70
     32
  0
VERTEX
  8
MY3DLAYER
10
252.26021565261664
20
-95.26905898569713
30
0.017759927366351264
 70
     32
  0
VERTEX
  8
MY3DLAYER
10
252.26021436256505
20
-92.26906410729465
30
0.01774341171945744
 70
     32
  0
VERTEX
  8
MY3DLAYER
10
248.2602143625716
20
-92.26906410729396
30
0.01774341171939266
 70
     32
  0
VERTEX
  8
MY3DLAYER
10
248.26021565262323
20
-95.26905898569643
30
0.017759927366286482
 70
     32
  0
VERTEX
  8
MY3DLAYER
10
241.36020908616547
20
-95.26904582032914
30
0.017733941607674008
 70
     32
  0
VERTEX
  8
MY3DLAYER
10
241.36021495891086
20
-111.80797327531947
30
0.017935332561393746
 70
     32
  0
VERTEX
  8
MY3DLAYER
10
248.26848749258403
20
-111.80798418556898
30
0.017883261096951014
 70
     32
  0
VERTEX
  8
MY3DLAYER
10
248.2684838474753
20
-114.80800235890206
30
0.01791006266904797
 70
     32
  0
VERTEX
  8
MY3DLAYER
10
252.26847439389635
20
-114.80800665244696
30
0.017879912519468993
 70
     32
  0
VERTEX
  8
MY3DLAYER
10
252.26847803900503
20
-111.80798847911387
30
0.017853110947372037
 70
     32
  0
VERTEX
  8
MY3DLAYER
10
259.17673956002113
20
-111.80799239937674
30
0.01780103952353682
 70
     32
  0
SEQEND
  0
POLYLINE
 8
Group#83
 66
     1
70
    8
 10
0.0
 20
 0.0
 30
0.0
  0
VERTEX
  8
MY3DLAYER
10
248.42775874556557
20
-105.30091928836417
30
0.017836758072942136
 70
     32
  0
VERTEX
  8
MY3DLAYER
10
248.36196647784448
20
-104.80117877146633
30
0.017833638101639668
 70
     32
  0
VERTEX
  8
MY3DLAYER
10
248.31020252921726
20
-104.80799362458797
30
0.017833789026605932
 70
     32
  0
VERTEX
  8
MY3DLAYER
10
248.20667491117848
20
-104.79436395510415
30
0.017833913304828235
 70
     32
  0
VERTEX
  8
MY3DLAYER
10
248.11020252922123
20
-104.75440378610398
30
0.01783385154286828
 70
     32
  0
VERTEX
  8
MY3DLAYER
10
248.0273598167477
20
-104.69083633706751
30
0.017833607949740468
 70
     32
  0
VERTEX
  8
MY3DLAYER
10
247.96379236770892
20
-104.60799362459639
30
0.017833199125707744
 70
     32
  0
VERTEX
  8
MY3DLAYER
10
247.92383219870672
20
-104.51152124264148
30
0.01783265293167807
 70
     32
  0
VERTEX
  8
MY3DLAYER
10
247.91020252922127
20
-104.40799362460487
30
0.017832006589765234
 70
     32
  0
VERTEX
  8
MY3DLAYER
10
247.92383219870396
20
-104.30446600656825
30
0.017831304147123802
 70
     32
  0
VERTEX
  8
MY3DLAYER
10
247.9637923677036
20
-104.20799362461337
30
0.01783059347406094
 70
     32
  0
VERTEX
  8
MY3DLAYER
10
248.0273598167402
20
-104.12515091214226
30
0.017829923001808964
 70
     32
  0
VERTEX
  8
MY3DLAYER
10
248.11020252921207
20
-104.06158346310582
30
0.017829338421856085
 70
     32
  0
VERTEX
  8
MY3DLAYER
10
248.20667491116825
20
-104.0216232941057
30
0.017828879572432704
 70
     32
  0
VERTEX
  8
MY3DLAYER
10
248.31020252920666
20
-104.00799362462192
30
0.017828577723312325
 70
     32
  0
VERTEX
  8
MY3DLAYER
10
248.36196619861806
20
-104.01480844098408
30
0.017828515584426774
 70
     32
  0
VERTEX
  8
MY3DLAYER
10
248.42775811144085
20
-103.51506787736477
30
0.017825124807639245
 70
     32
  0
VERTEX
  8
MY3DLAYER
10
248.7724142735932
20
-102.68299346068848
30
0.017818995252336708
 70
     32
  0
VERTEX
  8
MY3DLAYER
10
249.32068326778946
20
-101.96847487100459
30
0.017813212428114383
 70
     32
  0
VERTEX
  8
MY3DLAYER
10
250.03520146813264
20
-101.42020536940225
30
0.017808170424881527
 70
     32
  0
VERTEX
  8
MY3DLAYER
10
250.86727564006642
20
-101.07554861635748
30
0.017804212846845194
 70
     32
  0
VERTEX
  8
MY3DLAYER
10
251.76020130384114
20
-100.95799240001806
30
0.01780160939641101
 70
     32
  0
VERTEX
  8
MY3DLAYER
10
252.65312705109994
20
-101.0755479822567
30
0.017800537494408724
 70
     32
  0
VERTEX
  8
MY3DLAYER
10
253.4852014677967
20
-101.42020414441359
30
0.017801070189158878
 70
     32
  0
VERTEX
  8
MY3DLAYER
10
254.19972005750162
20
-101.968473138609
30
0.01780317117844243
 70
     32
  0
VERTEX
  8
MY3DLAYER
10
254.747989559124
20
-102.68299133894585
30
0.017806697283310784
 70
     32
  0
VERTEX
  8
MY3DLAYER
10
255.0926463121865
20
-103.51506551086837
30
0.017811408205530826
 70
     32
  0
VERTEX
  8
MY3DLAYER
10
255.21020252854015
20
-104.4079911746276
30
0.017816982903513832
 70
     32
  0
VERTEX
  8
MY3DLAYER
10
255.09264694631125
20
-105.30091692186778
30
0.017823041470833714
 70
     32
  0
VERTEX
  8
MY3DLAYER
10
254.74799078415893
20
-106.13299133854404
30
0.017829171026136254
 70
     32
  0
VERTEX
  8
MY3DLAYER
10
254.1997217899626
20
-106.84750992822795
30
0.017834953850358576
 70
     32
  0
VERTEX
  8
MY3DLAYER
10
253.48520358961943
20
-107.39577942983027
30
0.01783999585359143
 70
     32
  0
VERTEX
  8
MY3DLAYER
10
252.6531294176857
20
-107.74043618287503
30
0.017843953431627764
 70
     32
  0
VERTEX
  8
MY3DLAYER
10
251.760203753911
20
-107.85799239921447
30
0.017846556882061947
 70
     32
  0
VERTEX
  8
MY3DLAYER
10
250.86727800665216
20
-107.74043681697583
30
0.017847628784064234
 70
     32
  0
VERTEX
  8
MY3DLAYER
10
250.0352035899554
20
-107.39578065481895
30
0.01784709608931408
 70
     32
  0
VERTEX
  8
MY3DLAYER
10
249.3206850002505
20
-106.84751166062352
30
0.017844995100030528
 70
     32
  0
VERTEX
  8
MY3DLAYER
10
248.77241549862808
20
-106.13299346028667
30
0.017841468995162178
 70
     32
  0
VERTEX
  8
MY3DLAYER
10
248.42775874556557
20
-105.30091928836417
30
0.017836758072942136
 70
     32
  0
SEQEND
 0
ENDSEC
 0
EOF
