 0
SECTION
 2
ENTITIES
  0
LINE
 8
Component#1
10
330.291427380788
20
1257.85525408107
30
0.0
11
330.188321455033
21
1257.7752149973
31
0.0
  0
LINE
 8
Component#1
10
330.188321455033
20
1257.7752149973
30
0.0
11
330.068013139273
21
1257.72458895643
31
0.0
  0
LINE
 8
Component#1
10
330.068013139273
20
1257.72458895643
30
0.0
11
329.938701246407
21
1257.70682603947
31
0.0
  0
LINE
 8
Component#1
10
329.938701246407
20
1257.70682603947
30
0.0
11
329.809198168236
21
1257.72313675987
31
0.0
  0
LINE
 8
Component#1
10
329.809198168236
20
1257.72313675987
30
0.0
11
329.688329325523
21
1257.77240956897
31
0.0
  0
LINE
 8
Component#1
10
329.688329325523
20
1257.77240956897
30
0.0
11
329.584331730155
21
1257.85128660627
31
0.0
  0
LINE
 8
Component#1
10
329.584331730155
20
1257.85128660627
30
0.0
11
329.504292646392
21
1257.95439253202
31
0.0
  0
LINE
 8
Component#1
10
329.504292646392
20
1257.95439253202
30
0.0
11
329.45366660552
21
1258.07470084778
31
0.0
  0
LINE
 8
Component#1
10
329.45366660552
20
1258.07470084778
30
0.0
11
329.435903688563
21
1258.20401274065
31
0.0
  0
LINE
 8
Component#1
10
329.435903688563
20
1258.20401274065
30
0.0
11
329.452214408955
21
1258.33351581882
31
0.0
  0
LINE
 8
Component#1
10
329.452214408955
20
1258.33351581882
30
0.0
11
329.501487218058
21
1258.45438466153
31
0.0
  0
LINE
 8
Component#1
10
329.501487218058
20
1258.45438466153
30
0.0
11
329.580364255357
21
1258.5583822569
31
0.0
  0
LINE
 8
Component#1
10
329.580364255357
20
1258.5583822569
30
0.0
11
329.683470181112
21
1258.63842134067
31
0.0
  0
LINE
 8
Component#1
10
329.683470181112
20
1258.63842134067
30
0.0
11
329.803778496872
21
1258.68904738154
31
0.0
  0
LINE
 8
Component#1
10
329.803778496872
20
1258.68904738154
30
0.0
11
329.933090389738
21
1258.70681029849
31
0.0
  0
LINE
 8
Component#1
10
329.933090389738
20
1258.70681029849
30
0.0
11
330.062593467909
21
1258.6904995781
31
0.0
  0
LINE
 8
Component#1
10
330.062593467909
20
1258.6904995781
30
0.0
11
330.183462310622
21
1258.641226769
31
0.0
  0
LINE
 8
Component#1
10
330.183462310622
20
1258.641226769
30
0.0
11
330.28745990599
21
1258.5623497317
31
0.0
  0
LINE
 8
Component#1
10
330.28745990599
20
1258.5623497317
30
0.0
11
330.367498989753
21
1258.45924380595
31
0.0
  0
LINE
 8
Component#1
10
330.367498989753
20
1258.45924380595
30
0.0
11
330.418125030625
21
1258.33893549018
31
0.0
  0
LINE
 8
Component#1
10
330.418125030625
20
1258.33893549018
30
0.0
11
330.435887947582
21
1258.20962359732
31
0.0
  0
LINE
 8
Component#1
10
330.435887947582
20
1258.20962359732
30
0.0
11
330.41957722719
21
1258.08012051915
31
0.0
  0
LINE
 8
Component#1
10
330.41957722719
20
1258.08012051915
30
0.0
11
330.370304418087
21
1257.95925167644
31
0.0
  0
LINE
 8
Component#1
10
330.370304418087
20
1257.95925167644
30
0.0
11
330.291427380788
21
1257.85525408107
31
0.0
  0
LINE
 8
Component#1
10
345.291427380788
20
1257.85525408107
30
0.0
11
345.188321455033
21
1257.7752149973
31
0.0
  0
LINE
 8
Component#1
10
345.188321455033
20
1257.7752149973
30
0.0
11
345.068013139273
21
1257.72458895643
31
0.0
  0
LINE
 8
Component#1
10
345.068013139273
20
1257.72458895643
30
0.0
11
344.938701246407
21
1257.70682603947
31
0.0
  0
LINE
 8
Component#1
10
344.938701246407
20
1257.70682603947
30
0.0
11
344.809198168236
21
1257.72313675987
31
0.0
  0
LINE
 8
Component#1
10
344.809198168236
20
1257.72313675987
30
0.0
11
344.688329325523
21
1257.77240956897
31
0.0
  0
LINE
 8
Component#1
10
344.688329325523
20
1257.77240956897
30
0.0
11
344.584331730155
21
1257.85128660627
31
0.0
  0
LINE
 8
Component#1
10
344.584331730155
20
1257.85128660627
30
0.0
11
344.504292646392
21
1257.95439253202
31
0.0
  0
LINE
 8
Component#1
10
344.504292646392
20
1257.95439253202
30
0.0
11
344.45366660552
21
1258.07470084778
31
0.0
  0
LINE
 8
Component#1
10
344.45366660552
20
1258.07470084778
30
0.0
11
344.435903688563
21
1258.20401274065
31
0.0
  0
LINE
 8
Component#1
10
344.435903688563
20
1258.20401274065
30
0.0
11
344.452214408955
21
1258.33351581882
31
0.0
  0
LINE
 8
Component#1
10
344.452214408955
20
1258.33351581882
30
0.0
11
344.501487218058
21
1258.45438466153
31
0.0
  0
LINE
 8
Component#1
10
344.501487218058
20
1258.45438466153
30
0.0
11
344.580364255357
21
1258.5583822569
31
0.0
  0
LINE
 8
Component#1
10
344.580364255357
20
1258.5583822569
30
0.0
11
344.683470181112
21
1258.63842134067
31
0.0
  0
LINE
 8
Component#1
10
344.683470181112
20
1258.63842134067
30
0.0
11
344.803778496872
21
1258.68904738154
31
0.0
  0
LINE
 8
Component#1
10
344.803778496872
20
1258.68904738154
30
0.0
11
344.933090389738
21
1258.70681029849
31
0.0
  0
LINE
 8
Component#1
10
344.933090389738
20
1258.70681029849
30
0.0
11
345.062593467909
21
1258.6904995781
31
0.0
  0
LINE
 8
Component#1
10
345.062593467909
20
1258.6904995781
30
0.0
11
345.183462310622
21
1258.641226769
31
0.0
  0
LINE
 8
Component#1
10
345.183462310622
20
1258.641226769
30
0.0
11
345.28745990599
21
1258.5623497317
31
0.0
  0
LINE
 8
Component#1
10
345.28745990599
20
1258.5623497317
30
0.0
11
345.367498989753
21
1258.45924380595
31
0.0
  0
LINE
 8
Component#1
10
345.367498989753
20
1258.45924380595
30
0.0
11
345.418125030625
21
1258.33893549018
31
0.0
  0
LINE
 8
Component#1
10
345.418125030625
20
1258.33893549018
30
0.0
11
345.435887947582
21
1258.20962359732
31
0.0
  0
LINE
 8
Component#1
10
345.435887947582
20
1258.20962359732
30
0.0
11
345.41957722719
21
1258.08012051915
31
0.0
  0
LINE
 8
Component#1
10
345.41957722719
20
1258.08012051915
30
0.0
11
345.370304418087
21
1257.95925167644
31
0.0
  0
LINE
 8
Component#1
10
345.370304418087
20
1257.95925167644
30
0.0
11
345.291427380788
21
1257.85525408107
31
0.0
  0
LINE
 8
Layer0
10
276.435895818072
20
1194.70682603947
30
0.0
11
276.435895818072
21
1258.37556230242
31
0.0
  0
LINE
 8
Layer0
10
276.435895818072
20
1258.37556230242
30
0.0
11
276.435895818072
21
1261.70681816898
31
0.0
  0
LINE
 8
Layer0
10
366.435895818072
20
1261.70681816898
30
0.0
11
276.435895818072
21
1261.70681816898
31
0.0
  0
LINE
 8
Layer0
10
370.435887947582
20
1261.70681816898
30
0.0
11
366.435895818072
21
1261.70681816898
31
0.0
  0
LINE
 8
Layer0
10
371.035895818072
20
1261.70681816898
30
0.0
11
370.435887947582
21
1261.70681816898
31
0.0
  0
LINE
 8
Layer0
10
373.435887947582
20
1261.70681816898
30
0.0
11
371.035895818072
21
1261.70681816898
31
0.0
  0
LINE
 8
Layer0
10
373.435887947582
20
1261.62362359732
30
0.0
11
373.435887947582
21
1261.70681816898
31
0.0
  0
LINE
 8
Layer0
10
373.435887947582
20
1261.02351820719
30
0.0
11
373.435887947582
21
1261.62362359732
31
0.0
  0
LINE
 8
Layer0
10
373.435887947582
20
1258.20962359732
30
0.0
11
373.435887947582
21
1261.02351820719
31
0.0
  0
LINE
 8
Layer0
10
373.435887947582
20
1258.15159245507
30
0.0
11
373.435887947582
21
1258.20962359732
31
0.0
  0
LINE
 8
Layer0
10
373.435887947582
20
1249.21181816898
30
0.0
11
373.435887947582
21
1258.15159245507
31
0.0
  0
LINE
 8
Layer0
10
373.435887947582
20
1249.21181816898
30
0.0
11
371.207439715458
21
1246.14822386148
31
0.0
  0
LINE
 8
Layer0
10
371.207439715458
20
1246.14822386148
30
0.0
11
369.343075585196
21
1242.85038547945
31
0.0
  0
LINE
 8
Layer0
10
369.343075585196
20
1242.85038547945
30
0.0
11
367.867143598069
21
1239.36137181173
31
0.0
  0
LINE
 8
Layer0
10
367.867143598069
20
1239.36137181173
30
0.0
11
366.798918987041
21
1235.72674833953
31
0.0
  0
LINE
 8
Layer0
10
366.798918987041
20
1235.72674833953
30
0.0
11
366.152352447952
21
1231.99398216487
31
0.0
  0
LINE
 8
Layer0
10
366.152352447952
20
1231.99398216487
30
0.0
11
365.935887947582
21
1228.21182210423
31
0.0
  0
LINE
 8
Layer0
10
365.935887947582
20
1228.21182210423
30
0.0
11
366.152352447952
21
1224.42966204359
31
0.0
  0
LINE
 8
Layer0
10
366.152352447952
20
1224.42966204359
30
0.0
11
366.798918987041
21
1220.69689586892
31
0.0
  0
LINE
 8
Layer0
10
366.798918987041
20
1220.69689586892
30
0.0
11
367.867143598069
21
1217.06227239673
31
0.0
  0
LINE
 8
Layer0
10
367.867143598069
20
1217.06227239673
30
0.0
11
369.343075585196
21
1213.57325872901
31
0.0
  0
LINE
 8
Layer0
10
369.343075585196
20
1213.57325872901
30
0.0
11
371.207439715458
21
1210.27542034698
31
0.0
  0
LINE
 8
Layer0
10
371.207439715458
20
1210.27542034698
30
0.0
11
373.435887947582
21
1207.21182603947
31
0.0
  0
LINE
 8
Layer0
10
373.435887947582
20
1198.20402061114
30
0.0
11
373.435887947582
21
1207.21182603947
31
0.0
  0
LINE
 8
Layer0
10
373.435887947582
20
1195.39012600127
30
0.0
11
373.435887947582
21
1198.20402061114
31
0.0
  0
LINE
 8
Layer0
10
373.435887947582
20
1194.79002061114
30
0.0
11
373.435887947582
21
1195.39012600127
31
0.0
  0
LINE
 8
Layer0
10
373.435887947582
20
1194.70682603947
30
0.0
11
373.435887947582
21
1194.79002061114
31
0.0
  0
LINE
 8
Layer0
10
371.035895818072
20
1194.70682603947
30
0.0
11
373.435887947582
21
1194.70682603947
31
0.0
  0
LINE
 8
Layer0
10
370.435887947582
20
1194.70682603947
30
0.0
11
371.035895818072
21
1194.70682603947
31
0.0
  0
LINE
 8
Layer0
10
276.435895818072
20
1194.70682603947
30
0.0
11
370.435887947582
21
1194.70682603947
31
0.0
  0
LINE
 8
Layer0
10
371.035895818072
20
1189.70681816898
30
0.0
11
370.435887947582
21
1189.70681816898
31
0.0
  0
LINE
 8
Layer0
10
373.435887947582
20
1189.70681816898
30
0.0
11
371.035895818072
21
1189.70681816898
31
0.0
  0
LINE
 8
Layer0
10
373.435887947582
20
1122.70682603947
30
0.0
11
373.435887947582
21
1189.70681816898
31
0.0
  0
LINE
 8
Layer0
10
371.035895818072
20
1122.70682603947
30
0.0
11
373.435887947582
21
1122.70682603947
31
0.0
  0
LINE
 8
Layer0
10
370.435887947582
20
1122.70682603947
30
0.0
11
371.035895818072
21
1122.70682603947
31
0.0
  0
LINE
 8
Layer0
10
276.435895818072
20
1122.70682603947
30
0.0
11
370.435887947582
21
1122.70682603947
31
0.0
  0
LINE
 8
Layer0
10
276.435895818072
20
1122.70682603947
30
0.0
11
276.435895818072
21
1186.37556230242
31
0.0
  0
LINE
 8
Component#1
10
295.291427380788
20
1198.55839012739
30
0.0
11
295.188321455033
21
1198.63842921116
31
0.0
  0
LINE
 8
Component#1
10
295.188321455033
20
1198.63842921116
30
0.0
11
295.068013139273
21
1198.68905525203
31
0.0
  0
LINE
 8
Component#1
10
295.068013139273
20
1198.68905525203
30
0.0
11
294.938701246406
21
1198.70681816898
31
0.0
  0
LINE
 8
Component#1
10
294.938701246406
20
1198.70681816898
30
0.0
11
294.809198168236
21
1198.69050744859
31
0.0
  0
LINE
 8
Component#1
10
294.809198168236
20
1198.69050744859
30
0.0
11
294.688329325523
21
1198.64123463949
31
0.0
  0
LINE
 8
Component#1
10
294.688329325523
20
1198.64123463949
30
0.0
11
294.584331730155
21
1198.56235760219
31
0.0
  0
LINE
 8
Component#1
10
294.584331730155
20
1198.56235760219
30
0.0
11
294.504292646392
21
1198.45925167644
31
0.0
  0
LINE
 8
Component#1
10
294.504292646392
20
1198.45925167644
30
0.0
11
294.45366660552
21
1198.33894336067
31
0.0
  0
LINE
 8
Component#1
10
294.45366660552
20
1198.33894336067
30
0.0
11
294.435903688563
21
1198.20963146781
31
0.0
  0
LINE
 8
Component#1
10
294.435903688563
20
1198.20963146781
30
0.0
11
294.452214408955
21
1198.08012838964
31
0.0
  0
LINE
 8
Component#1
10
294.452214408955
20
1198.08012838964
30
0.0
11
294.501487218057
21
1197.95925954693
31
0.0
  0
LINE
 8
Component#1
10
294.501487218057
20
1197.95925954693
30
0.0
11
294.580364255357
21
1197.85526195156
31
0.0
  0
LINE
 8
Component#1
10
294.580364255357
20
1197.85526195156
30
0.0
11
294.683470181112
21
1197.77522286779
31
0.0
  0
LINE
 8
Component#1
10
294.683470181112
20
1197.77522286779
30
0.0
11
294.803778496872
21
1197.72459682692
31
0.0
  0
LINE
 8
Component#1
10
294.803778496872
20
1197.72459682692
30
0.0
11
294.933090389738
21
1197.70683390996
31
0.0
  0
LINE
 8
Component#1
10
294.933090389738
20
1197.70683390996
30
0.0
11
295.062593467909
21
1197.72314463036
31
0.0
  0
LINE
 8
Component#1
10
295.062593467909
20
1197.72314463036
30
0.0
11
295.183462310621
21
1197.77241743946
31
0.0
  0
LINE
 8
Component#1
10
295.183462310621
20
1197.77241743946
30
0.0
11
295.28745990599
21
1197.85129447676
31
0.0
  0
LINE
 8
Component#1
10
295.28745990599
20
1197.85129447676
30
0.0
11
295.367498989753
21
1197.95440040251
31
0.0
  0
LINE
 8
Component#1
10
295.367498989753
20
1197.95440040251
30
0.0
11
295.418125030625
21
1198.07470871827
31
0.0
  0
LINE
 8
Component#1
10
295.418125030625
20
1198.07470871827
30
0.0
11
295.435887947582
21
1198.20402061114
31
0.0
  0
LINE
 8
Component#1
10
295.435887947582
20
1198.20402061114
30
0.0
11
295.41957722719
21
1198.33352368931
31
0.0
  0
LINE
 8
Component#1
10
295.41957722719
20
1198.33352368931
30
0.0
11
295.370304418087
21
1198.45439253202
31
0.0
  0
LINE
 8
Component#1
10
295.370304418087
20
1198.45439253202
30
0.0
11
295.291427380788
21
1198.55839012739
31
0.0
  0
LINE
 8
Component#1
10
280.291427380788
20
1198.55839012739
30
0.0
11
280.188321455033
21
1198.63842921116
31
0.0
  0
LINE
 8
Component#1
10
280.188321455033
20
1198.63842921116
30
0.0
11
280.068013139273
21
1198.68905525203
31
0.0
  0
LINE
 8
Component#1
10
280.068013139273
20
1198.68905525203
30
0.0
11
279.938701246407
21
1198.70681816898
31
0.0
  0
LINE
 8
Component#1
10
279.938701246407
20
1198.70681816898
30
0.0
11
279.809198168236
21
1198.69050744859
31
0.0
  0
LINE
 8
Component#1
10
279.809198168236
20
1198.69050744859
30
0.0
11
279.688329325523
21
1198.64123463949
31
0.0
  0
LINE
 8
Component#1
10
279.688329325523
20
1198.64123463949
30
0.0
11
279.584331730155
21
1198.56235760219
31
0.0
  0
LINE
 8
Component#1
10
279.584331730155
20
1198.56235760219
30
0.0
11
279.504292646392
21
1198.45925167644
31
0.0
  0
LINE
 8
Component#1
10
279.504292646392
20
1198.45925167644
30
0.0
11
279.45366660552
21
1198.33894336067
31
0.0
  0
LINE
 8
Component#1
10
279.45366660552
20
1198.33894336067
30
0.0
11
279.435903688563
21
1198.20963146781
31
0.0
  0
LINE
 8
Component#1
10
279.435903688563
20
1198.20963146781
30
0.0
11
279.452214408955
21
1198.08012838964
31
0.0
  0
LINE
 8
Component#1
10
279.452214408955
20
1198.08012838964
30
0.0
11
279.501487218058
21
1197.95925954693
31
0.0
  0
LINE
 8
Component#1
10
279.501487218058
20
1197.95925954693
30
0.0
11
279.580364255357
21
1197.85526195156
31
0.0
  0
LINE
 8
Component#1
10
279.580364255357
20
1197.85526195156
30
0.0
11
279.683470181112
21
1197.77522286779
31
0.0
  0
LINE
 8
Component#1
10
279.683470181112
20
1197.77522286779
30
0.0
11
279.803778496872
21
1197.72459682692
31
0.0
  0
LINE
 8
Component#1
10
279.803778496872
20
1197.72459682692
30
0.0
11
279.933090389738
21
1197.70683390996
31
0.0
  0
LINE
 8
Component#1
10
279.933090389738
20
1197.70683390996
30
0.0
11
280.062593467909
21
1197.72314463036
31
0.0
  0
LINE
 8
Component#1
10
280.062593467909
20
1197.72314463036
30
0.0
11
280.183462310622
21
1197.77241743946
31
0.0
  0
LINE
 8
Component#1
10
280.183462310622
20
1197.77241743946
30
0.0
11
280.28745990599
21
1197.85129447676
31
0.0
  0
LINE
 8
Component#1
10
280.28745990599
20
1197.85129447676
30
0.0
11
280.367498989753
21
1197.95440040251
31
0.0
  0
LINE
 8
Component#1
10
280.367498989753
20
1197.95440040251
30
0.0
11
280.418125030625
21
1198.07470871827
31
0.0
  0
LINE
 8
Component#1
10
280.418125030625
20
1198.07470871827
30
0.0
11
280.435887947582
21
1198.20402061114
31
0.0
  0
LINE
 8
Component#1
10
280.435887947582
20
1198.20402061114
30
0.0
11
280.41957722719
21
1198.33352368931
31
0.0
  0
LINE
 8
Component#1
10
280.41957722719
20
1198.33352368931
30
0.0
11
280.370304418087
21
1198.45439253202
31
0.0
  0
LINE
 8
Component#1
10
280.370304418087
20
1198.45439253202
30
0.0
11
280.291427380788
21
1198.55839012739
31
0.0
  0
LINE
 8
Component#1
10
285.291427380788
20
1198.55839012739
30
0.0
11
285.188321455033
21
1198.63842921116
31
0.0
  0
LINE
 8
Component#1
10
285.188321455033
20
1198.63842921116
30
0.0
11
285.068013139273
21
1198.68905525203
31
0.0
  0
LINE
 8
Component#1
10
285.068013139273
20
1198.68905525203
30
0.0
11
284.938701246407
21
1198.70681816898
31
0.0
  0
LINE
 8
Component#1
10
284.938701246407
20
1198.70681816898
30
0.0
11
284.809198168236
21
1198.69050744859
31
0.0
  0
LINE
 8
Component#1
10
284.809198168236
20
1198.69050744859
30
0.0
11
284.688329325523
21
1198.64123463949
31
0.0
  0
LINE
 8
Component#1
10
284.688329325523
20
1198.64123463949
30
0.0
11
284.584331730155
21
1198.56235760219
31
0.0
  0
LINE
 8
Component#1
10
284.584331730155
20
1198.56235760219
30
0.0
11
284.504292646392
21
1198.45925167644
31
0.0
  0
LINE
 8
Component#1
10
284.504292646392
20
1198.45925167644
30
0.0
11
284.45366660552
21
1198.33894336067
31
0.0
  0
LINE
 8
Component#1
10
284.45366660552
20
1198.33894336067
30
0.0
11
284.435903688563
21
1198.20963146781
31
0.0
  0
LINE
 8
Component#1
10
284.435903688563
20
1198.20963146781
30
0.0
11
284.452214408955
21
1198.08012838964
31
0.0
  0
LINE
 8
Component#1
10
284.452214408955
20
1198.08012838964
30
0.0
11
284.501487218057
21
1197.95925954693
31
0.0
  0
LINE
 8
Component#1
10
284.501487218057
20
1197.95925954693
30
0.0
11
284.580364255357
21
1197.85526195156
31
0.0
  0
LINE
 8
Component#1
10
284.580364255357
20
1197.85526195156
30
0.0
11
284.683470181112
21
1197.77522286779
31
0.0
  0
LINE
 8
Component#1
10
284.683470181112
20
1197.77522286779
30
0.0
11
284.803778496872
21
1197.72459682692
31
0.0
  0
LINE
 8
Component#1
10
284.803778496872
20
1197.72459682692
30
0.0
11
284.933090389738
21
1197.70683390996
31
0.0
  0
LINE
 8
Component#1
10
284.933090389738
20
1197.70683390996
30
0.0
11
285.062593467909
21
1197.72314463036
31
0.0
  0
LINE
 8
Component#1
10
285.062593467909
20
1197.72314463036
30
0.0
11
285.183462310621
21
1197.77241743946
31
0.0
  0
LINE
 8
Component#1
10
285.183462310621
20
1197.77241743946
30
0.0
11
285.28745990599
21
1197.85129447676
31
0.0
  0
LINE
 8
Component#1
10
285.28745990599
20
1197.85129447676
30
0.0
11
285.367498989753
21
1197.95440040251
31
0.0
  0
LINE
 8
Component#1
10
285.367498989753
20
1197.95440040251
30
0.0
11
285.418125030625
21
1198.07470871827
31
0.0
  0
LINE
 8
Component#1
10
285.418125030625
20
1198.07470871827
30
0.0
11
285.435887947582
21
1198.20402061114
31
0.0
  0
LINE
 8
Component#1
10
285.435887947582
20
1198.20402061114
30
0.0
11
285.41957722719
21
1198.33352368931
31
0.0
  0
LINE
 8
Component#1
10
285.41957722719
20
1198.33352368931
30
0.0
11
285.370304418087
21
1198.45439253202
31
0.0
  0
LINE
 8
Component#1
10
285.370304418087
20
1198.45439253202
30
0.0
11
285.291427380788
21
1198.55839012739
31
0.0
  0
LINE
 8
Component#1
10
305.291427380788
20
1198.55839012739
30
0.0
11
305.188321455033
21
1198.63842921116
31
0.0
  0
LINE
 8
Component#1
10
305.188321455033
20
1198.63842921116
30
0.0
11
305.068013139273
21
1198.68905525203
31
0.0
  0
LINE
 8
Component#1
10
305.068013139273
20
1198.68905525203
30
0.0
11
304.938701246407
21
1198.70681816898
31
0.0
  0
LINE
 8
Component#1
10
304.938701246407
20
1198.70681816898
30
0.0
11
304.809198168236
21
1198.69050744859
31
0.0
  0
LINE
 8
Component#1
10
304.809198168236
20
1198.69050744859
30
0.0
11
304.688329325523
21
1198.64123463949
31
0.0
  0
LINE
 8
Component#1
10
304.688329325523
20
1198.64123463949
30
0.0
11
304.584331730155
21
1198.56235760219
31
0.0
  0
LINE
 8
Component#1
10
304.584331730155
20
1198.56235760219
30
0.0
11
304.504292646392
21
1198.45925167644
31
0.0
  0
LINE
 8
Component#1
10
304.504292646392
20
1198.45925167644
30
0.0
11
304.45366660552
21
1198.33894336067
31
0.0
  0
LINE
 8
Component#1
10
304.45366660552
20
1198.33894336067
30
0.0
11
304.435903688563
21
1198.20963146781
31
0.0
  0
LINE
 8
Component#1
10
304.435903688563
20
1198.20963146781
30
0.0
11
304.452214408955
21
1198.08012838964
31
0.0
  0
LINE
 8
Component#1
10
304.452214408955
20
1198.08012838964
30
0.0
11
304.501487218058
21
1197.95925954693
31
0.0
  0
LINE
 8
Component#1
10
304.501487218058
20
1197.95925954693
30
0.0
11
304.580364255357
21
1197.85526195156
31
0.0
  0
LINE
 8
Component#1
10
304.580364255357
20
1197.85526195156
30
0.0
11
304.683470181112
21
1197.77522286779
31
0.0
  0
LINE
 8
Component#1
10
304.683470181112
20
1197.77522286779
30
0.0
11
304.803778496872
21
1197.72459682692
31
0.0
  0
LINE
 8
Component#1
10
304.803778496872
20
1197.72459682692
30
0.0
11
304.933090389738
21
1197.70683390996
31
0.0
  0
LINE
 8
Component#1
10
304.933090389738
20
1197.70683390996
30
0.0
11
305.062593467909
21
1197.72314463036
31
0.0
  0
LINE
 8
Component#1
10
305.062593467909
20
1197.72314463036
30
0.0
11
305.183462310622
21
1197.77241743946
31
0.0
  0
LINE
 8
Component#1
10
305.183462310622
20
1197.77241743946
30
0.0
11
305.28745990599
21
1197.85129447676
31
0.0
  0
LINE
 8
Component#1
10
305.28745990599
20
1197.85129447676
30
0.0
11
305.367498989753
21
1197.95440040251
31
0.0
  0
LINE
 8
Component#1
10
305.367498989753
20
1197.95440040251
30
0.0
11
305.418125030625
21
1198.07470871827
31
0.0
  0
LINE
 8
Component#1
10
305.418125030625
20
1198.07470871827
30
0.0
11
305.435887947582
21
1198.20402061114
31
0.0
  0
LINE
 8
Component#1
10
305.435887947582
20
1198.20402061114
30
0.0
11
305.41957722719
21
1198.33352368931
31
0.0
  0
LINE
 8
Component#1
10
305.41957722719
20
1198.33352368931
30
0.0
11
305.370304418087
21
1198.45439253202
31
0.0
  0
LINE
 8
Component#1
10
305.370304418087
20
1198.45439253202
30
0.0
11
305.291427380788
21
1198.55839012739
31
0.0
  0
LINE
 8
Component#1
10
315.291427380788
20
1198.55839012739
30
0.0
11
315.188321455033
21
1198.63842921116
31
0.0
  0
LINE
 8
Component#1
10
315.188321455033
20
1198.63842921116
30
0.0
11
315.068013139273
21
1198.68905525203
31
0.0
  0
LINE
 8
Component#1
10
315.068013139273
20
1198.68905525203
30
0.0
11
314.938701246406
21
1198.70681816898
31
0.0
  0
LINE
 8
Component#1
10
314.938701246406
20
1198.70681816898
30
0.0
11
314.809198168236
21
1198.69050744859
31
0.0
  0
LINE
 8
Component#1
10
314.809198168236
20
1198.69050744859
30
0.0
11
314.688329325523
21
1198.64123463949
31
0.0
  0
LINE
 8
Component#1
10
314.688329325523
20
1198.64123463949
30
0.0
11
314.584331730155
21
1198.56235760219
31
0.0
  0
LINE
 8
Component#1
10
314.584331730155
20
1198.56235760219
30
0.0
11
314.504292646392
21
1198.45925167644
31
0.0
  0
LINE
 8
Component#1
10
314.504292646392
20
1198.45925167644
30
0.0
11
314.45366660552
21
1198.33894336067
31
0.0
  0
LINE
 8
Component#1
10
314.45366660552
20
1198.33894336067
30
0.0
11
314.435903688563
21
1198.20963146781
31
0.0
  0
LINE
 8
Component#1
10
314.435903688563
20
1198.20963146781
30
0.0
11
314.452214408955
21
1198.08012838964
31
0.0
  0
LINE
 8
Component#1
10
314.452214408955
20
1198.08012838964
30
0.0
11
314.501487218057
21
1197.95925954693
31
0.0
  0
LINE
 8
Component#1
10
314.501487218057
20
1197.95925954693
30
0.0
11
314.580364255357
21
1197.85526195156
31
0.0
  0
LINE
 8
Component#1
10
314.580364255357
20
1197.85526195156
30
0.0
11
314.683470181112
21
1197.77522286779
31
0.0
  0
LINE
 8
Component#1
10
314.683470181112
20
1197.77522286779
30
0.0
11
314.803778496872
21
1197.72459682692
31
0.0
  0
LINE
 8
Component#1
10
314.803778496872
20
1197.72459682692
30
0.0
11
314.933090389738
21
1197.70683390996
31
0.0
  0
LINE
 8
Component#1
10
314.933090389738
20
1197.70683390996
30
0.0
11
315.062593467909
21
1197.72314463036
31
0.0
  0
LINE
 8
Component#1
10
315.062593467909
20
1197.72314463036
30
0.0
11
315.183462310621
21
1197.77241743946
31
0.0
  0
LINE
 8
Component#1
10
315.183462310621
20
1197.77241743946
30
0.0
11
315.28745990599
21
1197.85129447676
31
0.0
  0
LINE
 8
Component#1
10
315.28745990599
20
1197.85129447676
30
0.0
11
315.367498989753
21
1197.95440040251
31
0.0
  0
LINE
 8
Component#1
10
315.367498989753
20
1197.95440040251
30
0.0
11
315.418125030625
21
1198.07470871827
31
0.0
  0
LINE
 8
Component#1
10
315.418125030625
20
1198.07470871827
30
0.0
11
315.435887947582
21
1198.20402061114
31
0.0
  0
LINE
 8
Component#1
10
315.435887947582
20
1198.20402061114
30
0.0
11
315.41957722719
21
1198.33352368931
31
0.0
  0
LINE
 8
Component#1
10
315.41957722719
20
1198.33352368931
30
0.0
11
315.370304418087
21
1198.45439253202
31
0.0
  0
LINE
 8
Component#1
10
315.370304418087
20
1198.45439253202
30
0.0
11
315.291427380788
21
1198.55839012739
31
0.0
  0
LINE
 8
Component#1
10
340.291427380788
20
1198.55839012739
30
0.0
11
340.188321455033
21
1198.63842921116
31
0.0
  0
LINE
 8
Component#1
10
340.188321455033
20
1198.63842921116
30
0.0
11
340.068013139273
21
1198.68905525203
31
0.0
  0
LINE
 8
Component#1
10
340.068013139273
20
1198.68905525203
30
0.0
11
339.938701246407
21
1198.70681816898
31
0.0
  0
LINE
 8
Component#1
10
339.938701246407
20
1198.70681816898
30
0.0
11
339.809198168236
21
1198.69050744859
31
0.0
  0
LINE
 8
Component#1
10
339.809198168236
20
1198.69050744859
30
0.0
11
339.688329325523
21
1198.64123463949
31
0.0
  0
LINE
 8
Component#1
10
339.688329325523
20
1198.64123463949
30
0.0
11
339.584331730155
21
1198.56235760219
31
0.0
  0
LINE
 8
Component#1
10
339.584331730155
20
1198.56235760219
30
0.0
11
339.504292646392
21
1198.45925167644
31
0.0
  0
LINE
 8
Component#1
10
339.504292646392
20
1198.45925167644
30
0.0
11
339.45366660552
21
1198.33894336067
31
0.0
  0
LINE
 8
Component#1
10
339.45366660552
20
1198.33894336067
30
0.0
11
339.435903688563
21
1198.20963146781
31
0.0
  0
LINE
 8
Component#1
10
339.435903688563
20
1198.20963146781
30
0.0
11
339.452214408955
21
1198.08012838964
31
0.0
  0
LINE
 8
Component#1
10
339.452214408955
20
1198.08012838964
30
0.0
11
339.501487218058
21
1197.95925954693
31
0.0
  0
LINE
 8
Component#1
10
339.501487218058
20
1197.95925954693
30
0.0
11
339.580364255357
21
1197.85526195156
31
0.0
  0
LINE
 8
Component#1
10
339.580364255357
20
1197.85526195156
30
0.0
11
339.683470181112
21
1197.77522286779
31
0.0
  0
LINE
 8
Component#1
10
339.683470181112
20
1197.77522286779
30
0.0
11
339.803778496872
21
1197.72459682692
31
0.0
  0
LINE
 8
Component#1
10
339.803778496872
20
1197.72459682692
30
0.0
11
339.933090389738
21
1197.70683390996
31
0.0
  0
LINE
 8
Component#1
10
339.933090389738
20
1197.70683390996
30
0.0
11
340.062593467909
21
1197.72314463036
31
0.0
  0
LINE
 8
Component#1
10
340.062593467909
20
1197.72314463036
30
0.0
11
340.183462310622
21
1197.77241743946
31
0.0
  0
LINE
 8
Component#1
10
340.183462310622
20
1197.77241743946
30
0.0
11
340.28745990599
21
1197.85129447676
31
0.0
  0
LINE
 8
Component#1
10
340.28745990599
20
1197.85129447676
30
0.0
11
340.367498989753
21
1197.95440040251
31
0.0
  0
LINE
 8
Component#1
10
340.367498989753
20
1197.95440040251
30
0.0
11
340.418125030625
21
1198.07470871827
31
0.0
  0
LINE
 8
Component#1
10
340.418125030625
20
1198.07470871827
30
0.0
11
340.435887947582
21
1198.20402061114
31
0.0
  0
LINE
 8
Component#1
10
340.435887947582
20
1198.20402061114
30
0.0
11
340.41957722719
21
1198.33352368931
31
0.0
  0
LINE
 8
Component#1
10
340.41957722719
20
1198.33352368931
30
0.0
11
340.370304418087
21
1198.45439253202
31
0.0
  0
LINE
 8
Component#1
10
340.370304418087
20
1198.45439253202
30
0.0
11
340.291427380788
21
1198.55839012739
31
0.0
  0
LINE
 8
Component#1
10
290.291427380788
20
1198.55839012739
30
0.0
11
290.188321455033
21
1198.63842921116
31
0.0
  0
LINE
 8
Component#1
10
290.188321455033
20
1198.63842921116
30
0.0
11
290.068013139273
21
1198.68905525203
31
0.0
  0
LINE
 8
Component#1
10
290.068013139273
20
1198.68905525203
30
0.0
11
289.938701246406
21
1198.70681816898
31
0.0
  0
LINE
 8
Component#1
10
289.938701246406
20
1198.70681816898
30
0.0
11
289.809198168236
21
1198.69050744859
31
0.0
  0
LINE
 8
Component#1
10
289.809198168236
20
1198.69050744859
30
0.0
11
289.688329325523
21
1198.64123463949
31
0.0
  0
LINE
 8
Component#1
10
289.688329325523
20
1198.64123463949
30
0.0
11
289.584331730155
21
1198.56235760219
31
0.0
  0
LINE
 8
Component#1
10
289.584331730155
20
1198.56235760219
30
0.0
11
289.504292646392
21
1198.45925167644
31
0.0
  0
LINE
 8
Component#1
10
289.504292646392
20
1198.45925167644
30
0.0
11
289.45366660552
21
1198.33894336067
31
0.0
  0
LINE
 8
Component#1
10
289.45366660552
20
1198.33894336067
30
0.0
11
289.435903688563
21
1198.20963146781
31
0.0
  0
LINE
 8
Component#1
10
289.435903688563
20
1198.20963146781
30
0.0
11
289.452214408955
21
1198.08012838964
31
0.0
  0
LINE
 8
Component#1
10
289.452214408955
20
1198.08012838964
30
0.0
11
289.501487218057
21
1197.95925954693
31
0.0
  0
LINE
 8
Component#1
10
289.501487218057
20
1197.95925954693
30
0.0
11
289.580364255357
21
1197.85526195156
31
0.0
  0
LINE
 8
Component#1
10
289.580364255357
20
1197.85526195156
30
0.0
11
289.683470181112
21
1197.77522286779
31
0.0
  0
LINE
 8
Component#1
10
289.683470181112
20
1197.77522286779
30
0.0
11
289.803778496872
21
1197.72459682692
31
0.0
  0
LINE
 8
Component#1
10
289.803778496872
20
1197.72459682692
30
0.0
11
289.933090389738
21
1197.70683390996
31
0.0
  0
LINE
 8
Component#1
10
289.933090389738
20
1197.70683390996
30
0.0
11
290.062593467909
21
1197.72314463036
31
0.0
  0
LINE
 8
Component#1
10
290.062593467909
20
1197.72314463036
30
0.0
11
290.183462310621
21
1197.77241743946
31
0.0
  0
LINE
 8
Component#1
10
290.183462310621
20
1197.77241743946
30
0.0
11
290.28745990599
21
1197.85129447676
31
0.0
  0
LINE
 8
Component#1
10
290.28745990599
20
1197.85129447676
30
0.0
11
290.367498989753
21
1197.95440040251
31
0.0
  0
LINE
 8
Component#1
10
290.367498989753
20
1197.95440040251
30
0.0
11
290.418125030625
21
1198.07470871827
31
0.0
  0
LINE
 8
Component#1
10
290.418125030625
20
1198.07470871827
30
0.0
11
290.435887947582
21
1198.20402061114
31
0.0
  0
LINE
 8
Component#1
10
290.435887947582
20
1198.20402061114
30
0.0
11
290.41957722719
21
1198.33352368931
31
0.0
  0
LINE
 8
Component#1
10
290.41957722719
20
1198.33352368931
30
0.0
11
290.370304418087
21
1198.45439253202
31
0.0
  0
LINE
 8
Component#1
10
290.370304418087
20
1198.45439253202
30
0.0
11
290.291427380788
21
1198.55839012739
31
0.0
  0
LINE
 8
Component#1
10
310.291427380788
20
1198.55839012739
30
0.0
11
310.188321455033
21
1198.63842921116
31
0.0
  0
LINE
 8
Component#1
10
310.188321455033
20
1198.63842921116
30
0.0
11
310.068013139273
21
1198.68905525203
31
0.0
  0
LINE
 8
Component#1
10
310.068013139273
20
1198.68905525203
30
0.0
11
309.938701246407
21
1198.70681816898
31
0.0
  0
LINE
 8
Component#1
10
309.938701246407
20
1198.70681816898
30
0.0
11
309.809198168236
21
1198.69050744859
31
0.0
  0
LINE
 8
Component#1
10
309.809198168236
20
1198.69050744859
30
0.0
11
309.688329325523
21
1198.64123463949
31
0.0
  0
LINE
 8
Component#1
10
309.688329325523
20
1198.64123463949
30
0.0
11
309.584331730155
21
1198.56235760219
31
0.0
  0
LINE
 8
Component#1
10
309.584331730155
20
1198.56235760219
30
0.0
11
309.504292646392
21
1198.45925167644
31
0.0
  0
LINE
 8
Component#1
10
309.504292646392
20
1198.45925167644
30
0.0
11
309.45366660552
21
1198.33894336067
31
0.0
  0
LINE
 8
Component#1
10
309.45366660552
20
1198.33894336067
30
0.0
11
309.435903688563
21
1198.20963146781
31
0.0
  0
LINE
 8
Component#1
10
309.435903688563
20
1198.20963146781
30
0.0
11
309.452214408955
21
1198.08012838964
31
0.0
  0
LINE
 8
Component#1
10
309.452214408955
20
1198.08012838964
30
0.0
11
309.501487218057
21
1197.95925954693
31
0.0
  0
LINE
 8
Component#1
10
309.501487218057
20
1197.95925954693
30
0.0
11
309.580364255357
21
1197.85526195156
31
0.0
  0
LINE
 8
Component#1
10
309.580364255357
20
1197.85526195156
30
0.0
11
309.683470181112
21
1197.77522286779
31
0.0
  0
LINE
 8
Component#1
10
309.683470181112
20
1197.77522286779
30
0.0
11
309.803778496872
21
1197.72459682692
31
0.0
  0
LINE
 8
Component#1
10
309.803778496872
20
1197.72459682692
30
0.0
11
309.933090389738
21
1197.70683390996
31
0.0
  0
LINE
 8
Component#1
10
309.933090389738
20
1197.70683390996
30
0.0
11
310.062593467909
21
1197.72314463036
31
0.0
  0
LINE
 8
Component#1
10
310.062593467909
20
1197.72314463036
30
0.0
11
310.183462310621
21
1197.77241743946
31
0.0
  0
LINE
 8
Component#1
10
310.183462310621
20
1197.77241743946
30
0.0
11
310.28745990599
21
1197.85129447676
31
0.0
  0
LINE
 8
Component#1
10
310.28745990599
20
1197.85129447676
30
0.0
11
310.367498989753
21
1197.95440040251
31
0.0
  0
LINE
 8
Component#1
10
310.367498989753
20
1197.95440040251
30
0.0
11
310.418125030625
21
1198.07470871827
31
0.0
  0
LINE
 8
Component#1
10
310.418125030625
20
1198.07470871827
30
0.0
11
310.435887947582
21
1198.20402061114
31
0.0
  0
LINE
 8
Component#1
10
310.435887947582
20
1198.20402061114
30
0.0
11
310.41957722719
21
1198.33352368931
31
0.0
  0
LINE
 8
Component#1
10
310.41957722719
20
1198.33352368931
30
0.0
11
310.370304418087
21
1198.45439253202
31
0.0
  0
LINE
 8
Component#1
10
310.370304418087
20
1198.45439253202
30
0.0
11
310.291427380788
21
1198.55839012739
31
0.0
  0
LINE
 8
Component#1
10
300.291427380788
20
1198.55839012739
30
0.0
11
300.188321455033
21
1198.63842921116
31
0.0
  0
LINE
 8
Component#1
10
300.188321455033
20
1198.63842921116
30
0.0
11
300.068013139273
21
1198.68905525203
31
0.0
  0
LINE
 8
Component#1
10
300.068013139273
20
1198.68905525203
30
0.0
11
299.938701246407
21
1198.70681816898
31
0.0
  0
LINE
 8
Component#1
10
299.938701246407
20
1198.70681816898
30
0.0
11
299.809198168236
21
1198.69050744859
31
0.0
  0
LINE
 8
Component#1
10
299.809198168236
20
1198.69050744859
30
0.0
11
299.688329325523
21
1198.64123463949
31
0.0
  0
LINE
 8
Component#1
10
299.688329325523
20
1198.64123463949
30
0.0
11
299.584331730155
21
1198.56235760219
31
0.0
  0
LINE
 8
Component#1
10
299.584331730155
20
1198.56235760219
30
0.0
11
299.504292646392
21
1198.45925167644
31
0.0
  0
LINE
 8
Component#1
10
299.504292646392
20
1198.45925167644
30
0.0
11
299.45366660552
21
1198.33894336067
31
0.0
  0
LINE
 8
Component#1
10
299.45366660552
20
1198.33894336067
30
0.0
11
299.435903688563
21
1198.20963146781
31
0.0
  0
LINE
 8
Component#1
10
299.435903688563
20
1198.20963146781
30
0.0
11
299.452214408955
21
1198.08012838964
31
0.0
  0
LINE
 8
Component#1
10
299.452214408955
20
1198.08012838964
30
0.0
11
299.501487218058
21
1197.95925954693
31
0.0
  0
LINE
 8
Component#1
10
299.501487218058
20
1197.95925954693
30
0.0
11
299.580364255357
21
1197.85526195156
31
0.0
  0
LINE
 8
Component#1
10
299.580364255357
20
1197.85526195156
30
0.0
11
299.683470181112
21
1197.77522286779
31
0.0
  0
LINE
 8
Component#1
10
299.683470181112
20
1197.77522286779
30
0.0
11
299.803778496872
21
1197.72459682692
31
0.0
  0
LINE
 8
Component#1
10
299.803778496872
20
1197.72459682692
30
0.0
11
299.933090389738
21
1197.70683390996
31
0.0
  0
LINE
 8
Component#1
10
299.933090389738
20
1197.70683390996
30
0.0
11
300.062593467909
21
1197.72314463036
31
0.0
  0
LINE
 8
Component#1
10
300.062593467909
20
1197.72314463036
30
0.0
11
300.183462310622
21
1197.77241743946
31
0.0
  0
LINE
 8
Component#1
10
300.183462310622
20
1197.77241743946
30
0.0
11
300.28745990599
21
1197.85129447676
31
0.0
  0
LINE
 8
Component#1
10
300.28745990599
20
1197.85129447676
30
0.0
11
300.367498989753
21
1197.95440040251
31
0.0
  0
LINE
 8
Component#1
10
300.367498989753
20
1197.95440040251
30
0.0
11
300.418125030625
21
1198.07470871827
31
0.0
  0
LINE
 8
Component#1
10
300.418125030625
20
1198.07470871827
30
0.0
11
300.435887947582
21
1198.20402061114
31
0.0
  0
LINE
 8
Component#1
10
300.435887947582
20
1198.20402061114
30
0.0
11
300.41957722719
21
1198.33352368931
31
0.0
  0
LINE
 8
Component#1
10
300.41957722719
20
1198.33352368931
30
0.0
11
300.370304418087
21
1198.45439253202
31
0.0
  0
LINE
 8
Component#1
10
300.370304418087
20
1198.45439253202
30
0.0
11
300.291427380788
21
1198.55839012739
31
0.0
  0
LINE
 8
Component#1
10
355.291427380788
20
1198.55839012739
30
0.0
11
355.188321455033
21
1198.63842921116
31
0.0
  0
LINE
 8
Component#1
10
355.188321455033
20
1198.63842921116
30
0.0
11
355.068013139273
21
1198.68905525203
31
0.0
  0
LINE
 8
Component#1
10
355.068013139273
20
1198.68905525203
30
0.0
11
354.938701246407
21
1198.70681816898
31
0.0
  0
LINE
 8
Component#1
10
354.938701246407
20
1198.70681816898
30
0.0
11
354.809198168236
21
1198.69050744859
31
0.0
  0
LINE
 8
Component#1
10
354.809198168236
20
1198.69050744859
30
0.0
11
354.688329325523
21
1198.64123463949
31
0.0
  0
LINE
 8
Component#1
10
354.688329325523
20
1198.64123463949
30
0.0
11
354.584331730155
21
1198.56235760219
31
0.0
  0
LINE
 8
Component#1
10
354.584331730155
20
1198.56235760219
30
0.0
11
354.504292646392
21
1198.45925167644
31
0.0
  0
LINE
 8
Component#1
10
354.504292646392
20
1198.45925167644
30
0.0
11
354.45366660552
21
1198.33894336067
31
0.0
  0
LINE
 8
Component#1
10
354.45366660552
20
1198.33894336067
30
0.0
11
354.435903688563
21
1198.20963146781
31
0.0
  0
LINE
 8
Component#1
10
354.435903688563
20
1198.20963146781
30
0.0
11
354.452214408955
21
1198.08012838964
31
0.0
  0
LINE
 8
Component#1
10
354.452214408955
20
1198.08012838964
30
0.0
11
354.501487218058
21
1197.95925954693
31
0.0
  0
LINE
 8
Component#1
10
354.501487218058
20
1197.95925954693
30
0.0
11
354.580364255357
21
1197.85526195156
31
0.0
  0
LINE
 8
Component#1
10
354.580364255357
20
1197.85526195156
30
0.0
11
354.683470181112
21
1197.77522286779
31
0.0
  0
LINE
 8
Component#1
10
354.683470181112
20
1197.77522286779
30
0.0
11
354.803778496872
21
1197.72459682692
31
0.0
  0
LINE
 8
Component#1
10
354.803778496872
20
1197.72459682692
30
0.0
11
354.933090389738
21
1197.70683390996
31
0.0
  0
LINE
 8
Component#1
10
354.933090389738
20
1197.70683390996
30
0.0
11
355.062593467909
21
1197.72314463036
31
0.0
  0
LINE
 8
Component#1
10
355.062593467909
20
1197.72314463036
30
0.0
11
355.183462310622
21
1197.77241743946
31
0.0
  0
LINE
 8
Component#1
10
355.183462310622
20
1197.77241743946
30
0.0
11
355.28745990599
21
1197.85129447676
31
0.0
  0
LINE
 8
Component#1
10
355.28745990599
20
1197.85129447676
30
0.0
11
355.367498989753
21
1197.95440040251
31
0.0
  0
LINE
 8
Component#1
10
355.367498989753
20
1197.95440040251
30
0.0
11
355.418125030625
21
1198.07470871827
31
0.0
  0
LINE
 8
Component#1
10
355.418125030625
20
1198.07470871827
30
0.0
11
355.435887947582
21
1198.20402061114
31
0.0
  0
LINE
 8
Component#1
10
355.435887947582
20
1198.20402061114
30
0.0
11
355.41957722719
21
1198.33352368931
31
0.0
  0
LINE
 8
Component#1
10
355.41957722719
20
1198.33352368931
30
0.0
11
355.370304418087
21
1198.45439253202
31
0.0
  0
LINE
 8
Component#1
10
355.370304418087
20
1198.45439253202
30
0.0
11
355.291427380788
21
1198.55839012739
31
0.0
  0
LINE
 8
Component#1
10
350.291427380788
20
1198.55839012739
30
0.0
11
350.188321455033
21
1198.63842921116
31
0.0
  0
LINE
 8
Component#1
10
350.188321455033
20
1198.63842921116
30
0.0
11
350.068013139273
21
1198.68905525203
31
0.0
  0
LINE
 8
Component#1
10
350.068013139273
20
1198.68905525203
30
0.0
11
349.938701246407
21
1198.70681816898
31
0.0
  0
LINE
 8
Component#1
10
349.938701246407
20
1198.70681816898
30
0.0
11
349.809198168236
21
1198.69050744859
31
0.0
  0
LINE
 8
Component#1
10
349.809198168236
20
1198.69050744859
30
0.0
11
349.688329325523
21
1198.64123463949
31
0.0
  0
LINE
 8
Component#1
10
349.688329325523
20
1198.64123463949
30
0.0
11
349.584331730155
21
1198.56235760219
31
0.0
  0
LINE
 8
Component#1
10
349.584331730155
20
1198.56235760219
30
0.0
11
349.504292646392
21
1198.45925167644
31
0.0
  0
LINE
 8
Component#1
10
349.504292646392
20
1198.45925167644
30
0.0
11
349.45366660552
21
1198.33894336067
31
0.0
  0
LINE
 8
Component#1
10
349.45366660552
20
1198.33894336067
30
0.0
11
349.435903688563
21
1198.20963146781
31
0.0
  0
LINE
 8
Component#1
10
349.435903688563
20
1198.20963146781
30
0.0
11
349.452214408955
21
1198.08012838964
31
0.0
  0
LINE
 8
Component#1
10
349.452214408955
20
1198.08012838964
30
0.0
11
349.501487218058
21
1197.95925954693
31
0.0
  0
LINE
 8
Component#1
10
349.501487218058
20
1197.95925954693
30
0.0
11
349.580364255357
21
1197.85526195156
31
0.0
  0
LINE
 8
Component#1
10
349.580364255357
20
1197.85526195156
30
0.0
11
349.683470181112
21
1197.77522286779
31
0.0
  0
LINE
 8
Component#1
10
349.683470181112
20
1197.77522286779
30
0.0
11
349.803778496872
21
1197.72459682692
31
0.0
  0
LINE
 8
Component#1
10
349.803778496872
20
1197.72459682692
30
0.0
11
349.933090389738
21
1197.70683390996
31
0.0
  0
LINE
 8
Component#1
10
349.933090389738
20
1197.70683390996
30
0.0
11
350.062593467909
21
1197.72314463036
31
0.0
  0
LINE
 8
Component#1
10
350.062593467909
20
1197.72314463036
30
0.0
11
350.183462310622
21
1197.77241743946
31
0.0
  0
LINE
 8
Component#1
10
350.183462310622
20
1197.77241743946
30
0.0
11
350.28745990599
21
1197.85129447676
31
0.0
  0
LINE
 8
Component#1
10
350.28745990599
20
1197.85129447676
30
0.0
11
350.367498989753
21
1197.95440040251
31
0.0
  0
LINE
 8
Component#1
10
350.367498989753
20
1197.95440040251
30
0.0
11
350.418125030625
21
1198.07470871827
31
0.0
  0
LINE
 8
Component#1
10
350.418125030625
20
1198.07470871827
30
0.0
11
350.435887947582
21
1198.20402061114
31
0.0
  0
LINE
 8
Component#1
10
350.435887947582
20
1198.20402061114
30
0.0
11
350.41957722719
21
1198.33352368931
31
0.0
  0
LINE
 8
Component#1
10
350.41957722719
20
1198.33352368931
30
0.0
11
350.370304418087
21
1198.45439253202
31
0.0
  0
LINE
 8
Component#1
10
350.370304418087
20
1198.45439253202
30
0.0
11
350.291427380788
21
1198.55839012739
31
0.0
  0
LINE
 8
Component#1
10
325.291427380788
20
1198.55839012739
30
0.0
11
325.188321455033
21
1198.63842921116
31
0.0
  0
LINE
 8
Component#1
10
325.188321455033
20
1198.63842921116
30
0.0
11
325.068013139273
21
1198.68905525203
31
0.0
  0
LINE
 8
Component#1
10
325.068013139273
20
1198.68905525203
30
0.0
11
324.938701246407
21
1198.70681816898
31
0.0
  0
LINE
 8
Component#1
10
324.938701246407
20
1198.70681816898
30
0.0
11
324.809198168236
21
1198.69050744859
31
0.0
  0
LINE
 8
Component#1
10
324.809198168236
20
1198.69050744859
30
0.0
11
324.688329325523
21
1198.64123463949
31
0.0
  0
LINE
 8
Component#1
10
324.688329325523
20
1198.64123463949
30
0.0
11
324.584331730155
21
1198.56235760219
31
0.0
  0
LINE
 8
Component#1
10
324.584331730155
20
1198.56235760219
30
0.0
11
324.504292646392
21
1198.45925167644
31
0.0
  0
LINE
 8
Component#1
10
324.504292646392
20
1198.45925167644
30
0.0
11
324.45366660552
21
1198.33894336067
31
0.0
  0
LINE
 8
Component#1
10
324.45366660552
20
1198.33894336067
30
0.0
11
324.435903688563
21
1198.20963146781
31
0.0
  0
LINE
 8
Component#1
10
324.435903688563
20
1198.20963146781
30
0.0
11
324.452214408955
21
1198.08012838964
31
0.0
  0
LINE
 8
Component#1
10
324.452214408955
20
1198.08012838964
30
0.0
11
324.501487218058
21
1197.95925954693
31
0.0
  0
LINE
 8
Component#1
10
324.501487218058
20
1197.95925954693
30
0.0
11
324.580364255357
21
1197.85526195156
31
0.0
  0
LINE
 8
Component#1
10
324.580364255357
20
1197.85526195156
30
0.0
11
324.683470181112
21
1197.77522286779
31
0.0
  0
LINE
 8
Component#1
10
324.683470181112
20
1197.77522286779
30
0.0
11
324.803778496872
21
1197.72459682692
31
0.0
  0
LINE
 8
Component#1
10
324.803778496872
20
1197.72459682692
30
0.0
11
324.933090389738
21
1197.70683390996
31
0.0
  0
LINE
 8
Component#1
10
324.933090389738
20
1197.70683390996
30
0.0
11
325.062593467909
21
1197.72314463036
31
0.0
  0
LINE
 8
Component#1
10
325.062593467909
20
1197.72314463036
30
0.0
11
325.183462310622
21
1197.77241743946
31
0.0
  0
LINE
 8
Component#1
10
325.183462310622
20
1197.77241743946
30
0.0
11
325.28745990599
21
1197.85129447676
31
0.0
  0
LINE
 8
Component#1
10
325.28745990599
20
1197.85129447676
30
0.0
11
325.367498989753
21
1197.95440040251
31
0.0
  0
LINE
 8
Component#1
10
325.367498989753
20
1197.95440040251
30
0.0
11
325.418125030625
21
1198.07470871827
31
0.0
  0
LINE
 8
Component#1
10
325.418125030625
20
1198.07470871827
30
0.0
11
325.435887947582
21
1198.20402061114
31
0.0
  0
LINE
 8
Component#1
10
325.435887947582
20
1198.20402061114
30
0.0
11
325.41957722719
21
1198.33352368931
31
0.0
  0
LINE
 8
Component#1
10
325.41957722719
20
1198.33352368931
30
0.0
11
325.370304418087
21
1198.45439253202
31
0.0
  0
LINE
 8
Component#1
10
325.370304418087
20
1198.45439253202
30
0.0
11
325.291427380788
21
1198.55839012739
31
0.0
  0
LINE
 8
Component#1
10
320.291427380788
20
1198.55839012739
30
0.0
11
320.188321455033
21
1198.63842921116
31
0.0
  0
LINE
 8
Component#1
10
320.188321455033
20
1198.63842921116
30
0.0
11
320.068013139273
21
1198.68905525203
31
0.0
  0
LINE
 8
Component#1
10
320.068013139273
20
1198.68905525203
30
0.0
11
319.938701246407
21
1198.70681816898
31
0.0
  0
LINE
 8
Component#1
10
319.938701246407
20
1198.70681816898
30
0.0
11
319.809198168236
21
1198.69050744859
31
0.0
  0
LINE
 8
Component#1
10
319.809198168236
20
1198.69050744859
30
0.0
11
319.688329325523
21
1198.64123463949
31
0.0
  0
LINE
 8
Component#1
10
319.688329325523
20
1198.64123463949
30
0.0
11
319.584331730155
21
1198.56235760219
31
0.0
  0
LINE
 8
Component#1
10
319.584331730155
20
1198.56235760219
30
0.0
11
319.504292646392
21
1198.45925167644
31
0.0
  0
LINE
 8
Component#1
10
319.504292646392
20
1198.45925167644
30
0.0
11
319.45366660552
21
1198.33894336067
31
0.0
  0
LINE
 8
Component#1
10
319.45366660552
20
1198.33894336067
30
0.0
11
319.435903688563
21
1198.20963146781
31
0.0
  0
LINE
 8
Component#1
10
319.435903688563
20
1198.20963146781
30
0.0
11
319.452214408955
21
1198.08012838964
31
0.0
  0
LINE
 8
Component#1
10
319.452214408955
20
1198.08012838964
30
0.0
11
319.501487218058
21
1197.95925954693
31
0.0
  0
LINE
 8
Component#1
10
319.501487218058
20
1197.95925954693
30
0.0
11
319.580364255357
21
1197.85526195156
31
0.0
  0
LINE
 8
Component#1
10
319.580364255357
20
1197.85526195156
30
0.0
11
319.683470181112
21
1197.77522286779
31
0.0
  0
LINE
 8
Component#1
10
319.683470181112
20
1197.77522286779
30
0.0
11
319.803778496872
21
1197.72459682692
31
0.0
  0
LINE
 8
Component#1
10
319.803778496872
20
1197.72459682692
30
0.0
11
319.933090389738
21
1197.70683390996
31
0.0
  0
LINE
 8
Component#1
10
319.933090389738
20
1197.70683390996
30
0.0
11
320.062593467909
21
1197.72314463036
31
0.0
  0
LINE
 8
Component#1
10
320.062593467909
20
1197.72314463036
30
0.0
11
320.183462310622
21
1197.77241743946
31
0.0
  0
LINE
 8
Component#1
10
320.183462310622
20
1197.77241743946
30
0.0
11
320.28745990599
21
1197.85129447676
31
0.0
  0
LINE
 8
Component#1
10
320.28745990599
20
1197.85129447676
30
0.0
11
320.367498989753
21
1197.95440040251
31
0.0
  0
LINE
 8
Component#1
10
320.367498989753
20
1197.95440040251
30
0.0
11
320.418125030625
21
1198.07470871827
31
0.0
  0
LINE
 8
Component#1
10
320.418125030625
20
1198.07470871827
30
0.0
11
320.435887947582
21
1198.20402061114
31
0.0
  0
LINE
 8
Component#1
10
320.435887947582
20
1198.20402061114
30
0.0
11
320.41957722719
21
1198.33352368931
31
0.0
  0
LINE
 8
Component#1
10
320.41957722719
20
1198.33352368931
30
0.0
11
320.370304418087
21
1198.45439253202
31
0.0
  0
LINE
 8
Component#1
10
320.370304418087
20
1198.45439253202
30
0.0
11
320.291427380788
21
1198.55839012739
31
0.0
  0
LINE
 8
Component#1
10
335.291427380788
20
1198.55839012739
30
0.0
11
335.188321455033
21
1198.63842921116
31
0.0
  0
LINE
 8
Component#1
10
335.188321455033
20
1198.63842921116
30
0.0
11
335.068013139273
21
1198.68905525203
31
0.0
  0
LINE
 8
Component#1
10
335.068013139273
20
1198.68905525203
30
0.0
11
334.938701246407
21
1198.70681816898
31
0.0
  0
LINE
 8
Component#1
10
334.938701246407
20
1198.70681816898
30
0.0
11
334.809198168236
21
1198.69050744859
31
0.0
  0
LINE
 8
Component#1
10
334.809198168236
20
1198.69050744859
30
0.0
11
334.688329325523
21
1198.64123463949
31
0.0
  0
LINE
 8
Component#1
10
334.688329325523
20
1198.64123463949
30
0.0
11
334.584331730155
21
1198.56235760219
31
0.0
  0
LINE
 8
Component#1
10
334.584331730155
20
1198.56235760219
30
0.0
11
334.504292646392
21
1198.45925167644
31
0.0
  0
LINE
 8
Component#1
10
334.504292646392
20
1198.45925167644
30
0.0
11
334.45366660552
21
1198.33894336067
31
0.0
  0
LINE
 8
Component#1
10
334.45366660552
20
1198.33894336067
30
0.0
11
334.435903688563
21
1198.20963146781
31
0.0
  0
LINE
 8
Component#1
10
334.435903688563
20
1198.20963146781
30
0.0
11
334.452214408955
21
1198.08012838964
31
0.0
  0
LINE
 8
Component#1
10
334.452214408955
20
1198.08012838964
30
0.0
11
334.501487218057
21
1197.95925954693
31
0.0
  0
LINE
 8
Component#1
10
334.501487218057
20
1197.95925954693
30
0.0
11
334.580364255357
21
1197.85526195156
31
0.0
  0
LINE
 8
Component#1
10
334.580364255357
20
1197.85526195156
30
0.0
11
334.683470181112
21
1197.77522286779
31
0.0
  0
LINE
 8
Component#1
10
334.683470181112
20
1197.77522286779
30
0.0
11
334.803778496872
21
1197.72459682692
31
0.0
  0
LINE
 8
Component#1
10
334.803778496872
20
1197.72459682692
30
0.0
11
334.933090389738
21
1197.70683390996
31
0.0
  0
LINE
 8
Component#1
10
334.933090389738
20
1197.70683390996
30
0.0
11
335.062593467909
21
1197.72314463036
31
0.0
  0
LINE
 8
Component#1
10
335.062593467909
20
1197.72314463036
30
0.0
11
335.183462310621
21
1197.77241743946
31
0.0
  0
LINE
 8
Component#1
10
335.183462310621
20
1197.77241743946
30
0.0
11
335.28745990599
21
1197.85129447676
31
0.0
  0
LINE
 8
Component#1
10
335.28745990599
20
1197.85129447676
30
0.0
11
335.367498989753
21
1197.95440040251
31
0.0
  0
LINE
 8
Component#1
10
335.367498989753
20
1197.95440040251
30
0.0
11
335.418125030625
21
1198.07470871827
31
0.0
  0
LINE
 8
Component#1
10
335.418125030625
20
1198.07470871827
30
0.0
11
335.435887947582
21
1198.20402061114
31
0.0
  0
LINE
 8
Component#1
10
335.435887947582
20
1198.20402061114
30
0.0
11
335.41957722719
21
1198.33352368931
31
0.0
  0
LINE
 8
Component#1
10
335.41957722719
20
1198.33352368931
30
0.0
11
335.370304418087
21
1198.45439253202
31
0.0
  0
LINE
 8
Component#1
10
335.370304418087
20
1198.45439253202
30
0.0
11
335.291427380788
21
1198.55839012739
31
0.0
  0
LINE
 8
Component#1
10
330.291427380788
20
1198.55839012739
30
0.0
11
330.188321455033
21
1198.63842921116
31
0.0
  0
LINE
 8
Component#1
10
330.188321455033
20
1198.63842921116
30
0.0
11
330.068013139273
21
1198.68905525203
31
0.0
  0
LINE
 8
Component#1
10
330.068013139273
20
1198.68905525203
30
0.0
11
329.938701246407
21
1198.70681816898
31
0.0
  0
LINE
 8
Component#1
10
329.938701246407
20
1198.70681816898
30
0.0
11
329.809198168236
21
1198.69050744859
31
0.0
  0
LINE
 8
Component#1
10
329.809198168236
20
1198.69050744859
30
0.0
11
329.688329325523
21
1198.64123463949
31
0.0
  0
LINE
 8
Component#1
10
329.688329325523
20
1198.64123463949
30
0.0
11
329.584331730155
21
1198.56235760219
31
0.0
  0
LINE
 8
Component#1
10
329.584331730155
20
1198.56235760219
30
0.0
11
329.504292646392
21
1198.45925167644
31
0.0
  0
LINE
 8
Component#1
10
329.504292646392
20
1198.45925167644
30
0.0
11
329.45366660552
21
1198.33894336067
31
0.0
  0
LINE
 8
Component#1
10
329.45366660552
20
1198.33894336067
30
0.0
11
329.435903688563
21
1198.20963146781
31
0.0
  0
LINE
 8
Component#1
10
329.435903688563
20
1198.20963146781
30
0.0
11
329.452214408955
21
1198.08012838964
31
0.0
  0
LINE
 8
Component#1
10
329.452214408955
20
1198.08012838964
30
0.0
11
329.501487218058
21
1197.95925954693
31
0.0
  0
LINE
 8
Component#1
10
329.501487218058
20
1197.95925954693
30
0.0
11
329.580364255357
21
1197.85526195156
31
0.0
  0
LINE
 8
Component#1
10
329.580364255357
20
1197.85526195156
30
0.0
11
329.683470181112
21
1197.77522286779
31
0.0
  0
LINE
 8
Component#1
10
329.683470181112
20
1197.77522286779
30
0.0
11
329.803778496872
21
1197.72459682692
31
0.0
  0
LINE
 8
Component#1
10
329.803778496872
20
1197.72459682692
30
0.0
11
329.933090389738
21
1197.70683390996
31
0.0
  0
LINE
 8
Component#1
10
329.933090389738
20
1197.70683390996
30
0.0
11
330.062593467909
21
1197.72314463036
31
0.0
  0
LINE
 8
Component#1
10
330.062593467909
20
1197.72314463036
30
0.0
11
330.183462310622
21
1197.77241743946
31
0.0
  0
LINE
 8
Component#1
10
330.183462310622
20
1197.77241743946
30
0.0
11
330.28745990599
21
1197.85129447676
31
0.0
  0
LINE
 8
Component#1
10
330.28745990599
20
1197.85129447676
30
0.0
11
330.367498989753
21
1197.95440040251
31
0.0
  0
LINE
 8
Component#1
10
330.367498989753
20
1197.95440040251
30
0.0
11
330.418125030625
21
1198.07470871827
31
0.0
  0
LINE
 8
Component#1
10
330.418125030625
20
1198.07470871827
30
0.0
11
330.435887947582
21
1198.20402061114
31
0.0
  0
LINE
 8
Component#1
10
330.435887947582
20
1198.20402061114
30
0.0
11
330.41957722719
21
1198.33352368931
31
0.0
  0
LINE
 8
Component#1
10
330.41957722719
20
1198.33352368931
30
0.0
11
330.370304418087
21
1198.45439253202
31
0.0
  0
LINE
 8
Component#1
10
330.370304418087
20
1198.45439253202
30
0.0
11
330.291427380788
21
1198.55839012739
31
0.0
  0
LINE
 8
Component#1
10
345.291427380788
20
1198.55839012739
30
0.0
11
345.188321455033
21
1198.63842921116
31
0.0
  0
LINE
 8
Component#1
10
345.188321455033
20
1198.63842921116
30
0.0
11
345.068013139273
21
1198.68905525203
31
0.0
  0
LINE
 8
Component#1
10
345.068013139273
20
1198.68905525203
30
0.0
11
344.938701246407
21
1198.70681816898
31
0.0
  0
LINE
 8
Component#1
10
344.938701246407
20
1198.70681816898
30
0.0
11
344.809198168236
21
1198.69050744859
31
0.0
  0
LINE
 8
Component#1
10
344.809198168236
20
1198.69050744859
30
0.0
11
344.688329325523
21
1198.64123463949
31
0.0
  0
LINE
 8
Component#1
10
344.688329325523
20
1198.64123463949
30
0.0
11
344.584331730155
21
1198.56235760219
31
0.0
  0
LINE
 8
Component#1
10
344.584331730155
20
1198.56235760219
30
0.0
11
344.504292646392
21
1198.45925167644
31
0.0
  0
LINE
 8
Component#1
10
344.504292646392
20
1198.45925167644
30
0.0
11
344.45366660552
21
1198.33894336067
31
0.0
  0
LINE
 8
Component#1
10
344.45366660552
20
1198.33894336067
30
0.0
11
344.435903688563
21
1198.20963146781
31
0.0
  0
LINE
 8
Component#1
10
344.435903688563
20
1198.20963146781
30
0.0
11
344.452214408955
21
1198.08012838964
31
0.0
  0
LINE
 8
Component#1
10
344.452214408955
20
1198.08012838964
30
0.0
11
344.501487218058
21
1197.95925954693
31
0.0
  0
LINE
 8
Component#1
10
344.501487218058
20
1197.95925954693
30
0.0
11
344.580364255357
21
1197.85526195156
31
0.0
  0
LINE
 8
Component#1
10
344.580364255357
20
1197.85526195156
30
0.0
11
344.683470181112
21
1197.77522286779
31
0.0
  0
LINE
 8
Component#1
10
344.683470181112
20
1197.77522286779
30
0.0
11
344.803778496872
21
1197.72459682692
31
0.0
  0
LINE
 8
Component#1
10
344.803778496872
20
1197.72459682692
30
0.0
11
344.933090389738
21
1197.70683390996
31
0.0
  0
LINE
 8
Component#1
10
344.933090389738
20
1197.70683390996
30
0.0
11
345.062593467909
21
1197.72314463036
31
0.0
  0
LINE
 8
Component#1
10
345.062593467909
20
1197.72314463036
30
0.0
11
345.183462310622
21
1197.77241743946
31
0.0
  0
LINE
 8
Component#1
10
345.183462310622
20
1197.77241743946
30
0.0
11
345.28745990599
21
1197.85129447676
31
0.0
  0
LINE
 8
Component#1
10
345.28745990599
20
1197.85129447676
30
0.0
11
345.367498989753
21
1197.95440040251
31
0.0
  0
LINE
 8
Component#1
10
345.367498989753
20
1197.95440040251
30
0.0
11
345.418125030625
21
1198.07470871827
31
0.0
  0
LINE
 8
Component#1
10
345.418125030625
20
1198.07470871827
30
0.0
11
345.435887947582
21
1198.20402061114
31
0.0
  0
LINE
 8
Component#1
10
345.435887947582
20
1198.20402061114
30
0.0
11
345.41957722719
21
1198.33352368931
31
0.0
  0
LINE
 8
Component#1
10
345.41957722719
20
1198.33352368931
30
0.0
11
345.370304418087
21
1198.45439253202
31
0.0
  0
LINE
 8
Component#1
10
345.370304418087
20
1198.45439253202
30
0.0
11
345.291427380788
21
1198.55839012739
31
0.0
  0
LINE
 8
Component#1
10
365.291427380788
20
1198.55839012739
30
0.0
11
365.188321455033
21
1198.63842921116
31
0.0
  0
LINE
 8
Component#1
10
365.188321455033
20
1198.63842921116
30
0.0
11
365.068013139273
21
1198.68905525203
31
0.0
  0
LINE
 8
Component#1
10
365.068013139273
20
1198.68905525203
30
0.0
11
364.938701246407
21
1198.70681816898
31
0.0
  0
LINE
 8
Component#1
10
364.938701246407
20
1198.70681816898
30
0.0
11
364.809198168236
21
1198.69050744859
31
0.0
  0
LINE
 8
Component#1
10
364.809198168236
20
1198.69050744859
30
0.0
11
364.688329325523
21
1198.64123463949
31
0.0
  0
LINE
 8
Component#1
10
364.688329325523
20
1198.64123463949
30
0.0
11
364.584331730155
21
1198.56235760219
31
0.0
  0
LINE
 8
Component#1
10
364.584331730155
20
1198.56235760219
30
0.0
11
364.504292646392
21
1198.45925167644
31
0.0
  0
LINE
 8
Component#1
10
364.504292646392
20
1198.45925167644
30
0.0
11
364.45366660552
21
1198.33894336067
31
0.0
  0
LINE
 8
Component#1
10
364.45366660552
20
1198.33894336067
30
0.0
11
364.435903688563
21
1198.20963146781
31
0.0
  0
LINE
 8
Component#1
10
364.435903688563
20
1198.20963146781
30
0.0
11
364.452214408955
21
1198.08012838964
31
0.0
  0
LINE
 8
Component#1
10
364.452214408955
20
1198.08012838964
30
0.0
11
364.501487218058
21
1197.95925954693
31
0.0
  0
LINE
 8
Component#1
10
364.501487218058
20
1197.95925954693
30
0.0
11
364.580364255357
21
1197.85526195156
31
0.0
  0
LINE
 8
Component#1
10
364.580364255357
20
1197.85526195156
30
0.0
11
364.683470181112
21
1197.77522286779
31
0.0
  0
LINE
 8
Component#1
10
364.683470181112
20
1197.77522286779
30
0.0
11
364.803778496872
21
1197.72459682692
31
0.0
  0
LINE
 8
Component#1
10
364.803778496872
20
1197.72459682692
30
0.0
11
364.933090389738
21
1197.70683390996
31
0.0
  0
LINE
 8
Component#1
10
364.933090389738
20
1197.70683390996
30
0.0
11
365.062593467909
21
1197.72314463036
31
0.0
  0
LINE
 8
Component#1
10
365.062593467909
20
1197.72314463036
30
0.0
11
365.183462310622
21
1197.77241743946
31
0.0
  0
LINE
 8
Component#1
10
365.183462310622
20
1197.77241743946
30
0.0
11
365.28745990599
21
1197.85129447676
31
0.0
  0
LINE
 8
Component#1
10
365.28745990599
20
1197.85129447676
30
0.0
11
365.367498989753
21
1197.95440040251
31
0.0
  0
LINE
 8
Component#1
10
365.367498989753
20
1197.95440040251
30
0.0
11
365.418125030625
21
1198.07470871827
31
0.0
  0
LINE
 8
Component#1
10
365.418125030625
20
1198.07470871827
30
0.0
11
365.435887947582
21
1198.20402061114
31
0.0
  0
LINE
 8
Component#1
10
365.435887947582
20
1198.20402061114
30
0.0
11
365.41957722719
21
1198.33352368931
31
0.0
  0
LINE
 8
Component#1
10
365.41957722719
20
1198.33352368931
30
0.0
11
365.370304418087
21
1198.45439253202
31
0.0
  0
LINE
 8
Component#1
10
365.370304418087
20
1198.45439253202
30
0.0
11
365.291427380788
21
1198.55839012739
31
0.0
  0
LINE
 8
Component#1
10
360.291427380788
20
1198.55839012739
30
0.0
11
360.188321455033
21
1198.63842921116
31
0.0
  0
LINE
 8
Component#1
10
360.188321455033
20
1198.63842921116
30
0.0
11
360.068013139273
21
1198.68905525203
31
0.0
  0
LINE
 8
Component#1
10
360.068013139273
20
1198.68905525203
30
0.0
11
359.938701246407
21
1198.70681816898
31
0.0
  0
LINE
 8
Component#1
10
359.938701246407
20
1198.70681816898
30
0.0
11
359.809198168236
21
1198.69050744859
31
0.0
  0
LINE
 8
Component#1
10
359.809198168236
20
1198.69050744859
30
0.0
11
359.688329325523
21
1198.64123463949
31
0.0
  0
LINE
 8
Component#1
10
359.688329325523
20
1198.64123463949
30
0.0
11
359.584331730155
21
1198.56235760219
31
0.0
  0
LINE
 8
Component#1
10
359.584331730155
20
1198.56235760219
30
0.0
11
359.504292646392
21
1198.45925167644
31
0.0
  0
LINE
 8
Component#1
10
359.504292646392
20
1198.45925167644
30
0.0
11
359.45366660552
21
1198.33894336067
31
0.0
  0
LINE
 8
Component#1
10
359.45366660552
20
1198.33894336067
30
0.0
11
359.435903688563
21
1198.20963146781
31
0.0
  0
LINE
 8
Component#1
10
359.435903688563
20
1198.20963146781
30
0.0
11
359.452214408955
21
1198.08012838964
31
0.0
  0
LINE
 8
Component#1
10
359.452214408955
20
1198.08012838964
30
0.0
11
359.501487218058
21
1197.95925954693
31
0.0
  0
LINE
 8
Component#1
10
359.501487218058
20
1197.95925954693
30
0.0
11
359.580364255357
21
1197.85526195156
31
0.0
  0
LINE
 8
Component#1
10
359.580364255357
20
1197.85526195156
30
0.0
11
359.683470181112
21
1197.77522286779
31
0.0
  0
LINE
 8
Component#1
10
359.683470181112
20
1197.77522286779
30
0.0
11
359.803778496872
21
1197.72459682692
31
0.0
  0
LINE
 8
Component#1
10
359.803778496872
20
1197.72459682692
30
0.0
11
359.933090389738
21
1197.70683390996
31
0.0
  0
LINE
 8
Component#1
10
359.933090389738
20
1197.70683390996
30
0.0
11
360.062593467909
21
1197.72314463036
31
0.0
  0
LINE
 8
Component#1
10
360.062593467909
20
1197.72314463036
30
0.0
11
360.183462310622
21
1197.77241743946
31
0.0
  0
LINE
 8
Component#1
10
360.183462310622
20
1197.77241743946
30
0.0
11
360.28745990599
21
1197.85129447676
31
0.0
  0
LINE
 8
Component#1
10
360.28745990599
20
1197.85129447676
30
0.0
11
360.367498989753
21
1197.95440040251
31
0.0
  0
LINE
 8
Component#1
10
360.367498989753
20
1197.95440040251
30
0.0
11
360.418125030625
21
1198.07470871827
31
0.0
  0
LINE
 8
Component#1
10
360.418125030625
20
1198.07470871827
30
0.0
11
360.435887947582
21
1198.20402061114
31
0.0
  0
LINE
 8
Component#1
10
360.435887947582
20
1198.20402061114
30
0.0
11
360.41957722719
21
1198.33352368931
31
0.0
  0
LINE
 8
Component#1
10
360.41957722719
20
1198.33352368931
30
0.0
11
360.370304418087
21
1198.45439253202
31
0.0
  0
LINE
 8
Component#1
10
360.370304418087
20
1198.45439253202
30
0.0
11
360.291427380788
21
1198.55839012739
31
0.0
  0
LINE
 8
Component#1
10
370.291427380788
20
1198.55839012739
30
0.0
11
370.188321455033
21
1198.63842921116
31
0.0
  0
LINE
 8
Component#1
10
370.188321455033
20
1198.63842921116
30
0.0
11
370.068013139273
21
1198.68905525203
31
0.0
  0
LINE
 8
Component#1
10
370.068013139273
20
1198.68905525203
30
0.0
11
369.938701246407
21
1198.70681816898
31
0.0
  0
LINE
 8
Component#1
10
369.938701246407
20
1198.70681816898
30
0.0
11
369.809198168236
21
1198.69050744859
31
0.0
  0
LINE
 8
Component#1
10
369.809198168236
20
1198.69050744859
30
0.0
11
369.688329325523
21
1198.64123463949
31
0.0
  0
LINE
 8
Component#1
10
369.688329325523
20
1198.64123463949
30
0.0
11
369.584331730155
21
1198.56235760219
31
0.0
  0
LINE
 8
Component#1
10
369.584331730155
20
1198.56235760219
30
0.0
11
369.504292646392
21
1198.45925167644
31
0.0
  0
LINE
 8
Component#1
10
369.504292646392
20
1198.45925167644
30
0.0
11
369.45366660552
21
1198.33894336067
31
0.0
  0
LINE
 8
Component#1
10
369.45366660552
20
1198.33894336067
30
0.0
11
369.435903688563
21
1198.20963146781
31
0.0
  0
LINE
 8
Component#1
10
369.435903688563
20
1198.20963146781
30
0.0
11
369.452214408955
21
1198.08012838964
31
0.0
  0
LINE
 8
Component#1
10
369.452214408955
20
1198.08012838964
30
0.0
11
369.501487218058
21
1197.95925954693
31
0.0
  0
LINE
 8
Component#1
10
369.501487218058
20
1197.95925954693
30
0.0
11
369.580364255357
21
1197.85526195156
31
0.0
  0
LINE
 8
Component#1
10
369.580364255357
20
1197.85526195156
30
0.0
11
369.683470181112
21
1197.77522286779
31
0.0
  0
LINE
 8
Component#1
10
369.683470181112
20
1197.77522286779
30
0.0
11
369.803778496872
21
1197.72459682692
31
0.0
  0
LINE
 8
Component#1
10
369.803778496872
20
1197.72459682692
30
0.0
11
369.933090389738
21
1197.70683390996
31
0.0
  0
LINE
 8
Component#1
10
369.933090389738
20
1197.70683390996
30
0.0
11
370.062593467909
21
1197.72314463036
31
0.0
  0
LINE
 8
Component#1
10
370.062593467909
20
1197.72314463036
30
0.0
11
370.183462310622
21
1197.77241743946
31
0.0
  0
LINE
 8
Component#1
10
370.183462310622
20
1197.77241743946
30
0.0
11
370.28745990599
21
1197.85129447676
31
0.0
  0
LINE
 8
Component#1
10
370.28745990599
20
1197.85129447676
30
0.0
11
370.367498989753
21
1197.95440040251
31
0.0
  0
LINE
 8
Component#1
10
370.367498989753
20
1197.95440040251
30
0.0
11
370.418125030625
21
1198.07470871827
31
0.0
  0
LINE
 8
Component#1
10
370.418125030625
20
1198.07470871827
30
0.0
11
370.435887947582
21
1198.20402061114
31
0.0
  0
LINE
 8
Component#1
10
370.435887947582
20
1198.20402061114
30
0.0
11
370.41957722719
21
1198.33352368931
31
0.0
  0
LINE
 8
Component#1
10
370.41957722719
20
1198.33352368931
30
0.0
11
370.370304418087
21
1198.45439253202
31
0.0
  0
LINE
 8
Component#1
10
370.370304418087
20
1198.45439253202
30
0.0
11
370.291427380788
21
1198.55839012739
31
0.0
  0
LINE
 8
Component#1
10
280.291427380788
20
1208.55839012739
30
0.0
11
280.188321455033
21
1208.63842921116
31
0.0
  0
LINE
 8
Component#1
10
280.188321455033
20
1208.63842921116
30
0.0
11
280.068013139273
21
1208.68905525203
31
0.0
  0
LINE
 8
Component#1
10
280.068013139273
20
1208.68905525203
30
0.0
11
279.938701246407
21
1208.70681816898
31
0.0
  0
LINE
 8
Component#1
10
279.938701246407
20
1208.70681816898
30
0.0
11
279.809198168236
21
1208.69050744859
31
0.0
  0
LINE
 8
Component#1
10
279.809198168236
20
1208.69050744859
30
0.0
11
279.688329325523
21
1208.64123463949
31
0.0
  0
LINE
 8
Component#1
10
279.688329325523
20
1208.64123463949
30
0.0
11
279.584331730155
21
1208.56235760219
31
0.0
  0
LINE
 8
Component#1
10
279.584331730155
20
1208.56235760219
30
0.0
11
279.504292646392
21
1208.45925167644
31
0.0
  0
LINE
 8
Component#1
10
279.504292646392
20
1208.45925167644
30
0.0
11
279.45366660552
21
1208.33894336067
31
0.0
  0
LINE
 8
Component#1
10
279.45366660552
20
1208.33894336067
30
0.0
11
279.435903688563
21
1208.20963146781
31
0.0
  0
LINE
 8
Component#1
10
279.435903688563
20
1208.20963146781
30
0.0
11
279.452214408955
21
1208.08012838964
31
0.0
  0
LINE
 8
Component#1
10
279.452214408955
20
1208.08012838964
30
0.0
11
279.501487218058
21
1207.95925954693
31
0.0
  0
LINE
 8
Component#1
10
279.501487218058
20
1207.95925954693
30
0.0
11
279.580364255357
21
1207.85526195156
31
0.0
  0
LINE
 8
Component#1
10
279.580364255357
20
1207.85526195156
30
0.0
11
279.683470181112
21
1207.77522286779
31
0.0
  0
LINE
 8
Component#1
10
279.683470181112
20
1207.77522286779
30
0.0
11
279.803778496872
21
1207.72459682692
31
0.0
  0
LINE
 8
Component#1
10
279.803778496872
20
1207.72459682692
30
0.0
11
279.933090389738
21
1207.70683390996
31
0.0
  0
LINE
 8
Component#1
10
279.933090389738
20
1207.70683390996
30
0.0
11
280.062593467909
21
1207.72314463036
31
0.0
  0
LINE
 8
Component#1
10
280.062593467909
20
1207.72314463036
30
0.0
11
280.183462310622
21
1207.77241743946
31
0.0
  0
LINE
 8
Component#1
10
280.183462310622
20
1207.77241743946
30
0.0
11
280.28745990599
21
1207.85129447676
31
0.0
  0
LINE
 8
Component#1
10
280.28745990599
20
1207.85129447676
30
0.0
11
280.367498989753
21
1207.95440040251
31
0.0
  0
LINE
 8
Component#1
10
280.367498989753
20
1207.95440040251
30
0.0
11
280.418125030625
21
1208.07470871827
31
0.0
  0
LINE
 8
Component#1
10
280.418125030625
20
1208.07470871827
30
0.0
11
280.435887947582
21
1208.20402061114
31
0.0
  0
LINE
 8
Component#1
10
280.435887947582
20
1208.20402061114
30
0.0
11
280.41957722719
21
1208.33352368931
31
0.0
  0
LINE
 8
Component#1
10
280.41957722719
20
1208.33352368931
30
0.0
11
280.370304418087
21
1208.45439253202
31
0.0
  0
LINE
 8
Component#1
10
280.370304418087
20
1208.45439253202
30
0.0
11
280.291427380788
21
1208.55839012739
31
0.0
  0
LINE
 8
Component#1
10
280.291427380788
20
1213.55839012739
30
0.0
11
280.188321455033
21
1213.63842921116
31
0.0
  0
LINE
 8
Component#1
10
280.188321455033
20
1213.63842921116
30
0.0
11
280.068013139273
21
1213.68905525203
31
0.0
  0
LINE
 8
Component#1
10
280.068013139273
20
1213.68905525203
30
0.0
11
279.938701246407
21
1213.70681816898
31
0.0
  0
LINE
 8
Component#1
10
279.938701246407
20
1213.70681816898
30
0.0
11
279.809198168236
21
1213.69050744859
31
0.0
  0
LINE
 8
Component#1
10
279.809198168236
20
1213.69050744859
30
0.0
11
279.688329325523
21
1213.64123463949
31
0.0
  0
LINE
 8
Component#1
10
279.688329325523
20
1213.64123463949
30
0.0
11
279.584331730155
21
1213.56235760219
31
0.0
  0
LINE
 8
Component#1
10
279.584331730155
20
1213.56235760219
30
0.0
11
279.504292646392
21
1213.45925167644
31
0.0
  0
LINE
 8
Component#1
10
279.504292646392
20
1213.45925167644
30
0.0
11
279.45366660552
21
1213.33894336067
31
0.0
  0
LINE
 8
Component#1
10
279.45366660552
20
1213.33894336067
30
0.0
11
279.435903688563
21
1213.20963146781
31
0.0
  0
LINE
 8
Component#1
10
279.435903688563
20
1213.20963146781
30
0.0
11
279.452214408955
21
1213.08012838964
31
0.0
  0
LINE
 8
Component#1
10
279.452214408955
20
1213.08012838964
30
0.0
11
279.501487218058
21
1212.95925954693
31
0.0
  0
LINE
 8
Component#1
10
279.501487218058
20
1212.95925954693
30
0.0
11
279.580364255357
21
1212.85526195156
31
0.0
  0
LINE
 8
Component#1
10
279.580364255357
20
1212.85526195156
30
0.0
11
279.683470181112
21
1212.77522286779
31
0.0
  0
LINE
 8
Component#1
10
279.683470181112
20
1212.77522286779
30
0.0
11
279.803778496872
21
1212.72459682692
31
0.0
  0
LINE
 8
Component#1
10
279.803778496872
20
1212.72459682692
30
0.0
11
279.933090389738
21
1212.70683390996
31
0.0
  0
LINE
 8
Component#1
10
279.933090389738
20
1212.70683390996
30
0.0
11
280.062593467909
21
1212.72314463036
31
0.0
  0
LINE
 8
Component#1
10
280.062593467909
20
1212.72314463036
30
0.0
11
280.183462310622
21
1212.77241743946
31
0.0
  0
LINE
 8
Component#1
10
280.183462310622
20
1212.77241743946
30
0.0
11
280.28745990599
21
1212.85129447676
31
0.0
  0
LINE
 8
Component#1
10
280.28745990599
20
1212.85129447676
30
0.0
11
280.367498989753
21
1212.95440040251
31
0.0
  0
LINE
 8
Component#1
10
280.367498989753
20
1212.95440040251
30
0.0
11
280.418125030625
21
1213.07470871827
31
0.0
  0
LINE
 8
Component#1
10
280.418125030625
20
1213.07470871827
30
0.0
11
280.435887947582
21
1213.20402061114
31
0.0
  0
LINE
 8
Component#1
10
280.435887947582
20
1213.20402061114
30
0.0
11
280.41957722719
21
1213.33352368931
31
0.0
  0
LINE
 8
Component#1
10
280.41957722719
20
1213.33352368931
30
0.0
11
280.370304418087
21
1213.45439253202
31
0.0
  0
LINE
 8
Component#1
10
280.370304418087
20
1213.45439253202
30
0.0
11
280.291427380788
21
1213.55839012739
31
0.0
  0
LINE
 8
Component#1
10
280.291427380788
20
1218.55839012739
30
0.0
11
280.188321455033
21
1218.63842921116
31
0.0
  0
LINE
 8
Component#1
10
280.188321455033
20
1218.63842921116
30
0.0
11
280.068013139273
21
1218.68905525203
31
0.0
  0
LINE
 8
Component#1
10
280.068013139273
20
1218.68905525203
30
0.0
11
279.938701246407
21
1218.70681816898
31
0.0
  0
LINE
 8
Component#1
10
279.938701246407
20
1218.70681816898
30
0.0
11
279.809198168236
21
1218.69050744859
31
0.0
  0
LINE
 8
Component#1
10
279.809198168236
20
1218.69050744859
30
0.0
11
279.688329325523
21
1218.64123463949
31
0.0
  0
LINE
 8
Component#1
10
279.688329325523
20
1218.64123463949
30
0.0
11
279.584331730155
21
1218.56235760219
31
0.0
  0
LINE
 8
Component#1
10
279.584331730155
20
1218.56235760219
30
0.0
11
279.504292646392
21
1218.45925167644
31
0.0
  0
LINE
 8
Component#1
10
279.504292646392
20
1218.45925167644
30
0.0
11
279.45366660552
21
1218.33894336067
31
0.0
  0
LINE
 8
Component#1
10
279.45366660552
20
1218.33894336067
30
0.0
11
279.435903688563
21
1218.20963146781
31
0.0
  0
LINE
 8
Component#1
10
279.435903688563
20
1218.20963146781
30
0.0
11
279.452214408955
21
1218.08012838964
31
0.0
  0
LINE
 8
Component#1
10
279.452214408955
20
1218.08012838964
30
0.0
11
279.501487218058
21
1217.95925954693
31
0.0
  0
LINE
 8
Component#1
10
279.501487218058
20
1217.95925954693
30
0.0
11
279.580364255357
21
1217.85526195156
31
0.0
  0
LINE
 8
Component#1
10
279.580364255357
20
1217.85526195156
30
0.0
11
279.683470181112
21
1217.77522286779
31
0.0
  0
LINE
 8
Component#1
10
279.683470181112
20
1217.77522286779
30
0.0
11
279.803778496872
21
1217.72459682692
31
0.0
  0
LINE
 8
Component#1
10
279.803778496872
20
1217.72459682692
30
0.0
11
279.933090389738
21
1217.70683390996
31
0.0
  0
LINE
 8
Component#1
10
279.933090389738
20
1217.70683390996
30
0.0
11
280.062593467909
21
1217.72314463036
31
0.0
  0
LINE
 8
Component#1
10
280.062593467909
20
1217.72314463036
30
0.0
11
280.183462310622
21
1217.77241743946
31
0.0
  0
LINE
 8
Component#1
10
280.183462310622
20
1217.77241743946
30
0.0
11
280.28745990599
21
1217.85129447676
31
0.0
  0
LINE
 8
Component#1
10
280.28745990599
20
1217.85129447676
30
0.0
11
280.367498989753
21
1217.95440040251
31
0.0
  0
LINE
 8
Component#1
10
280.367498989753
20
1217.95440040251
30
0.0
11
280.418125030625
21
1218.07470871827
31
0.0
  0
LINE
 8
Component#1
10
280.418125030625
20
1218.07470871827
30
0.0
11
280.435887947582
21
1218.20402061114
31
0.0
  0
LINE
 8
Component#1
10
280.435887947582
20
1218.20402061114
30
0.0
11
280.41957722719
21
1218.33352368931
31
0.0
  0
LINE
 8
Component#1
10
280.41957722719
20
1218.33352368931
30
0.0
11
280.370304418087
21
1218.45439253202
31
0.0
  0
LINE
 8
Component#1
10
280.370304418087
20
1218.45439253202
30
0.0
11
280.291427380788
21
1218.55839012739
31
0.0
  0
LINE
 8
Component#1
10
280.291427380788
20
1223.55839012739
30
0.0
11
280.188321455033
21
1223.63842921116
31
0.0
  0
LINE
 8
Component#1
10
280.188321455033
20
1223.63842921116
30
0.0
11
280.068013139273
21
1223.68905525203
31
0.0
  0
LINE
 8
Component#1
10
280.068013139273
20
1223.68905525203
30
0.0
11
279.938701246407
21
1223.70681816898
31
0.0
  0
LINE
 8
Component#1
10
279.938701246407
20
1223.70681816898
30
0.0
11
279.809198168236
21
1223.69050744859
31
0.0
  0
LINE
 8
Component#1
10
279.809198168236
20
1223.69050744859
30
0.0
11
279.688329325523
21
1223.64123463949
31
0.0
  0
LINE
 8
Component#1
10
279.688329325523
20
1223.64123463949
30
0.0
11
279.584331730155
21
1223.56235760219
31
0.0
  0
LINE
 8
Component#1
10
279.584331730155
20
1223.56235760219
30
0.0
11
279.504292646392
21
1223.45925167644
31
0.0
  0
LINE
 8
Component#1
10
279.504292646392
20
1223.45925167644
30
0.0
11
279.45366660552
21
1223.33894336067
31
0.0
  0
LINE
 8
Component#1
10
279.45366660552
20
1223.33894336067
30
0.0
11
279.435903688563
21
1223.20963146781
31
0.0
  0
LINE
 8
Component#1
10
279.435903688563
20
1223.20963146781
30
0.0
11
279.452214408955
21
1223.08012838964
31
0.0
  0
LINE
 8
Component#1
10
279.452214408955
20
1223.08012838964
30
0.0
11
279.501487218058
21
1222.95925954693
31
0.0
  0
LINE
 8
Component#1
10
279.501487218058
20
1222.95925954693
30
0.0
11
279.580364255357
21
1222.85526195156
31
0.0
  0
LINE
 8
Component#1
10
279.580364255357
20
1222.85526195156
30
0.0
11
279.683470181112
21
1222.77522286779
31
0.0
  0
LINE
 8
Component#1
10
279.683470181112
20
1222.77522286779
30
0.0
11
279.803778496872
21
1222.72459682692
31
0.0
  0
LINE
 8
Component#1
10
279.803778496872
20
1222.72459682692
30
0.0
11
279.933090389738
21
1222.70683390996
31
0.0
  0
LINE
 8
Component#1
10
279.933090389738
20
1222.70683390996
30
0.0
11
280.062593467909
21
1222.72314463036
31
0.0
  0
LINE
 8
Component#1
10
280.062593467909
20
1222.72314463036
30
0.0
11
280.183462310622
21
1222.77241743946
31
0.0
  0
LINE
 8
Component#1
10
280.183462310622
20
1222.77241743946
30
0.0
11
280.28745990599
21
1222.85129447676
31
0.0
  0
LINE
 8
Component#1
10
280.28745990599
20
1222.85129447676
30
0.0
11
280.367498989753
21
1222.95440040251
31
0.0
  0
LINE
 8
Component#1
10
280.367498989753
20
1222.95440040251
30
0.0
11
280.418125030625
21
1223.07470871827
31
0.0
  0
LINE
 8
Component#1
10
280.418125030625
20
1223.07470871827
30
0.0
11
280.435887947582
21
1223.20402061114
31
0.0
  0
LINE
 8
Component#1
10
280.435887947582
20
1223.20402061114
30
0.0
11
280.41957722719
21
1223.33352368931
31
0.0
  0
LINE
 8
Component#1
10
280.41957722719
20
1223.33352368931
30
0.0
11
280.370304418087
21
1223.45439253202
31
0.0
  0
LINE
 8
Component#1
10
280.370304418087
20
1223.45439253202
30
0.0
11
280.291427380788
21
1223.55839012739
31
0.0
  0
LINE
 8
Component#1
10
280.291427380788
20
1233.55839012739
30
0.0
11
280.188321455033
21
1233.63842921116
31
0.0
  0
LINE
 8
Component#1
10
280.188321455033
20
1233.63842921116
30
0.0
11
280.068013139273
21
1233.68905525203
31
0.0
  0
LINE
 8
Component#1
10
280.068013139273
20
1233.68905525203
30
0.0
11
279.938701246407
21
1233.70681816898
31
0.0
  0
LINE
 8
Component#1
10
279.938701246407
20
1233.70681816898
30
0.0
11
279.809198168236
21
1233.69050744859
31
0.0
  0
LINE
 8
Component#1
10
279.809198168236
20
1233.69050744859
30
0.0
11
279.688329325523
21
1233.64123463949
31
0.0
  0
LINE
 8
Component#1
10
279.688329325523
20
1233.64123463949
30
0.0
11
279.584331730155
21
1233.56235760219
31
0.0
  0
LINE
 8
Component#1
10
279.584331730155
20
1233.56235760219
30
0.0
11
279.504292646392
21
1233.45925167644
31
0.0
  0
LINE
 8
Component#1
10
279.504292646392
20
1233.45925167644
30
0.0
11
279.45366660552
21
1233.33894336067
31
0.0
  0
LINE
 8
Component#1
10
279.45366660552
20
1233.33894336067
30
0.0
11
279.435903688563
21
1233.20963146781
31
0.0
  0
LINE
 8
Component#1
10
279.435903688563
20
1233.20963146781
30
0.0
11
279.452214408955
21
1233.08012838964
31
0.0
  0
LINE
 8
Component#1
10
279.452214408955
20
1233.08012838964
30
0.0
11
279.501487218058
21
1232.95925954693
31
0.0
  0
LINE
 8
Component#1
10
279.501487218058
20
1232.95925954693
30
0.0
11
279.580364255357
21
1232.85526195156
31
0.0
  0
LINE
 8
Component#1
10
279.580364255357
20
1232.85526195156
30
0.0
11
279.683470181112
21
1232.77522286779
31
0.0
  0
LINE
 8
Component#1
10
279.683470181112
20
1232.77522286779
30
0.0
11
279.803778496872
21
1232.72459682692
31
0.0
  0
LINE
 8
Component#1
10
279.803778496872
20
1232.72459682692
30
0.0
11
279.933090389738
21
1232.70683390996
31
0.0
  0
LINE
 8
Component#1
10
279.933090389738
20
1232.70683390996
30
0.0
11
280.062593467909
21
1232.72314463036
31
0.0
  0
LINE
 8
Component#1
10
280.062593467909
20
1232.72314463036
30
0.0
11
280.183462310622
21
1232.77241743946
31
0.0
  0
LINE
 8
Component#1
10
280.183462310622
20
1232.77241743946
30
0.0
11
280.28745990599
21
1232.85129447676
31
0.0
  0
LINE
 8
Component#1
10
280.28745990599
20
1232.85129447676
30
0.0
11
280.367498989753
21
1232.95440040251
31
0.0
  0
LINE
 8
Component#1
10
280.367498989753
20
1232.95440040251
30
0.0
11
280.418125030625
21
1233.07470871827
31
0.0
  0
LINE
 8
Component#1
10
280.418125030625
20
1233.07470871827
30
0.0
11
280.435887947582
21
1233.20402061114
31
0.0
  0
LINE
 8
Component#1
10
280.435887947582
20
1233.20402061114
30
0.0
11
280.41957722719
21
1233.33352368931
31
0.0
  0
LINE
 8
Component#1
10
280.41957722719
20
1233.33352368931
30
0.0
11
280.370304418087
21
1233.45439253202
31
0.0
  0
LINE
 8
Component#1
10
280.370304418087
20
1233.45439253202
30
0.0
11
280.291427380788
21
1233.55839012739
31
0.0
  0
LINE
 8
Component#1
10
280.291427380788
20
1238.55839012739
30
0.0
11
280.188321455033
21
1238.63842921116
31
0.0
  0
LINE
 8
Component#1
10
280.188321455033
20
1238.63842921116
30
0.0
11
280.068013139273
21
1238.68905525203
31
0.0
  0
LINE
 8
Component#1
10
280.068013139273
20
1238.68905525203
30
0.0
11
279.938701246407
21
1238.70681816898
31
0.0
  0
LINE
 8
Component#1
10
279.938701246407
20
1238.70681816898
30
0.0
11
279.809198168236
21
1238.69050744859
31
0.0
  0
LINE
 8
Component#1
10
279.809198168236
20
1238.69050744859
30
0.0
11
279.688329325523
21
1238.64123463949
31
0.0
  0
LINE
 8
Component#1
10
279.688329325523
20
1238.64123463949
30
0.0
11
279.584331730155
21
1238.56235760219
31
0.0
  0
LINE
 8
Component#1
10
279.584331730155
20
1238.56235760219
30
0.0
11
279.504292646392
21
1238.45925167644
31
0.0
  0
LINE
 8
Component#1
10
279.504292646392
20
1238.45925167644
30
0.0
11
279.45366660552
21
1238.33894336067
31
0.0
  0
LINE
 8
Component#1
10
279.45366660552
20
1238.33894336067
30
0.0
11
279.435903688563
21
1238.20963146781
31
0.0
  0
LINE
 8
Component#1
10
279.435903688563
20
1238.20963146781
30
0.0
11
279.452214408955
21
1238.08012838964
31
0.0
  0
LINE
 8
Component#1
10
279.452214408955
20
1238.08012838964
30
0.0
11
279.501487218058
21
1237.95925954693
31
0.0
  0
LINE
 8
Component#1
10
279.501487218058
20
1237.95925954693
30
0.0
11
279.580364255357
21
1237.85526195156
31
0.0
  0
LINE
 8
Component#1
10
279.580364255357
20
1237.85526195156
30
0.0
11
279.683470181112
21
1237.77522286779
31
0.0
  0
LINE
 8
Component#1
10
279.683470181112
20
1237.77522286779
30
0.0
11
279.803778496872
21
1237.72459682692
31
0.0
  0
LINE
 8
Component#1
10
279.803778496872
20
1237.72459682692
30
0.0
11
279.933090389738
21
1237.70683390996
31
0.0
  0
LINE
 8
Component#1
10
279.933090389738
20
1237.70683390996
30
0.0
11
280.062593467909
21
1237.72314463036
31
0.0
  0
LINE
 8
Component#1
10
280.062593467909
20
1237.72314463036
30
0.0
11
280.183462310622
21
1237.77241743946
31
0.0
  0
LINE
 8
Component#1
10
280.183462310622
20
1237.77241743946
30
0.0
11
280.28745990599
21
1237.85129447676
31
0.0
  0
LINE
 8
Component#1
10
280.28745990599
20
1237.85129447676
30
0.0
11
280.367498989753
21
1237.95440040251
31
0.0
  0
LINE
 8
Component#1
10
280.367498989753
20
1237.95440040251
30
0.0
11
280.418125030625
21
1238.07470871827
31
0.0
  0
LINE
 8
Component#1
10
280.418125030625
20
1238.07470871827
30
0.0
11
280.435887947582
21
1238.20402061114
31
0.0
  0
LINE
 8
Component#1
10
280.435887947582
20
1238.20402061114
30
0.0
11
280.41957722719
21
1238.33352368931
31
0.0
  0
LINE
 8
Component#1
10
280.41957722719
20
1238.33352368931
30
0.0
11
280.370304418087
21
1238.45439253202
31
0.0
  0
LINE
 8
Component#1
10
280.370304418087
20
1238.45439253202
30
0.0
11
280.291427380788
21
1238.55839012739
31
0.0
  0
LINE
 8
Component#1
10
280.291427380788
20
1228.55839012739
30
0.0
11
280.188321455033
21
1228.63842921116
31
0.0
  0
LINE
 8
Component#1
10
280.188321455033
20
1228.63842921116
30
0.0
11
280.068013139273
21
1228.68905525203
31
0.0
  0
LINE
 8
Component#1
10
280.068013139273
20
1228.68905525203
30
0.0
11
279.938701246407
21
1228.70681816898
31
0.0
  0
LINE
 8
Component#1
10
279.938701246407
20
1228.70681816898
30
0.0
11
279.809198168236
21
1228.69050744859
31
0.0
  0
LINE
 8
Component#1
10
279.809198168236
20
1228.69050744859
30
0.0
11
279.688329325523
21
1228.64123463949
31
0.0
  0
LINE
 8
Component#1
10
279.688329325523
20
1228.64123463949
30
0.0
11
279.584331730155
21
1228.56235760219
31
0.0
  0
LINE
 8
Component#1
10
279.584331730155
20
1228.56235760219
30
0.0
11
279.504292646392
21
1228.45925167644
31
0.0
  0
LINE
 8
Component#1
10
279.504292646392
20
1228.45925167644
30
0.0
11
279.45366660552
21
1228.33894336067
31
0.0
  0
LINE
 8
Component#1
10
279.45366660552
20
1228.33894336067
30
0.0
11
279.435903688563
21
1228.20963146781
31
0.0
  0
LINE
 8
Component#1
10
279.435903688563
20
1228.20963146781
30
0.0
11
279.452214408955
21
1228.08012838964
31
0.0
  0
LINE
 8
Component#1
10
279.452214408955
20
1228.08012838964
30
0.0
11
279.501487218058
21
1227.95925954693
31
0.0
  0
LINE
 8
Component#1
10
279.501487218058
20
1227.95925954693
30
0.0
11
279.580364255357
21
1227.85526195156
31
0.0
  0
LINE
 8
Component#1
10
279.580364255357
20
1227.85526195156
30
0.0
11
279.683470181112
21
1227.77522286779
31
0.0
  0
LINE
 8
Component#1
10
279.683470181112
20
1227.77522286779
30
0.0
11
279.803778496872
21
1227.72459682692
31
0.0
  0
LINE
 8
Component#1
10
279.803778496872
20
1227.72459682692
30
0.0
11
279.933090389738
21
1227.70683390996
31
0.0
  0
LINE
 8
Component#1
10
279.933090389738
20
1227.70683390996
30
0.0
11
280.062593467909
21
1227.72314463036
31
0.0
  0
LINE
 8
Component#1
10
280.062593467909
20
1227.72314463036
30
0.0
11
280.183462310622
21
1227.77241743946
31
0.0
  0
LINE
 8
Component#1
10
280.183462310622
20
1227.77241743946
30
0.0
11
280.28745990599
21
1227.85129447676
31
0.0
  0
LINE
 8
Component#1
10
280.28745990599
20
1227.85129447676
30
0.0
11
280.367498989753
21
1227.95440040251
31
0.0
  0
LINE
 8
Component#1
10
280.367498989753
20
1227.95440040251
30
0.0
11
280.418125030625
21
1228.07470871827
31
0.0
  0
LINE
 8
Component#1
10
280.418125030625
20
1228.07470871827
30
0.0
11
280.435887947582
21
1228.20402061114
31
0.0
  0
LINE
 8
Component#1
10
280.435887947582
20
1228.20402061114
30
0.0
11
280.41957722719
21
1228.33352368931
31
0.0
  0
LINE
 8
Component#1
10
280.41957722719
20
1228.33352368931
30
0.0
11
280.370304418087
21
1228.45439253202
31
0.0
  0
LINE
 8
Component#1
10
280.370304418087
20
1228.45439253202
30
0.0
11
280.291427380788
21
1228.55839012739
31
0.0
  0
LINE
 8
Component#1
10
280.291427380788
20
1243.55839012739
30
0.0
11
280.188321455033
21
1243.63842921116
31
0.0
  0
LINE
 8
Component#1
10
280.188321455033
20
1243.63842921116
30
0.0
11
280.068013139273
21
1243.68905525203
31
0.0
  0
LINE
 8
Component#1
10
280.068013139273
20
1243.68905525203
30
0.0
11
279.938701246407
21
1243.70681816898
31
0.0
  0
LINE
 8
Component#1
10
279.938701246407
20
1243.70681816898
30
0.0
11
279.809198168236
21
1243.69050744859
31
0.0
  0
LINE
 8
Component#1
10
279.809198168236
20
1243.69050744859
30
0.0
11
279.688329325523
21
1243.64123463949
31
0.0
  0
LINE
 8
Component#1
10
279.688329325523
20
1243.64123463949
30
0.0
11
279.584331730155
21
1243.56235760219
31
0.0
  0
LINE
 8
Component#1
10
279.584331730155
20
1243.56235760219
30
0.0
11
279.504292646392
21
1243.45925167644
31
0.0
  0
LINE
 8
Component#1
10
279.504292646392
20
1243.45925167644
30
0.0
11
279.45366660552
21
1243.33894336067
31
0.0
  0
LINE
 8
Component#1
10
279.45366660552
20
1243.33894336067
30
0.0
11
279.435903688563
21
1243.20963146781
31
0.0
  0
LINE
 8
Component#1
10
279.435903688563
20
1243.20963146781
30
0.0
11
279.452214408955
21
1243.08012838964
31
0.0
  0
LINE
 8
Component#1
10
279.452214408955
20
1243.08012838964
30
0.0
11
279.501487218058
21
1242.95925954693
31
0.0
  0
LINE
 8
Component#1
10
279.501487218058
20
1242.95925954693
30
0.0
11
279.580364255357
21
1242.85526195156
31
0.0
  0
LINE
 8
Component#1
10
279.580364255357
20
1242.85526195156
30
0.0
11
279.683470181112
21
1242.77522286779
31
0.0
  0
LINE
 8
Component#1
10
279.683470181112
20
1242.77522286779
30
0.0
11
279.803778496872
21
1242.72459682692
31
0.0
  0
LINE
 8
Component#1
10
279.803778496872
20
1242.72459682692
30
0.0
11
279.933090389738
21
1242.70683390996
31
0.0
  0
LINE
 8
Component#1
10
279.933090389738
20
1242.70683390996
30
0.0
11
280.062593467909
21
1242.72314463036
31
0.0
  0
LINE
 8
Component#1
10
280.062593467909
20
1242.72314463036
30
0.0
11
280.183462310622
21
1242.77241743946
31
0.0
  0
LINE
 8
Component#1
10
280.183462310622
20
1242.77241743946
30
0.0
11
280.28745990599
21
1242.85129447676
31
0.0
  0
LINE
 8
Component#1
10
280.28745990599
20
1242.85129447676
30
0.0
11
280.367498989753
21
1242.95440040251
31
0.0
  0
LINE
 8
Component#1
10
280.367498989753
20
1242.95440040251
30
0.0
11
280.418125030625
21
1243.07470871827
31
0.0
  0
LINE
 8
Component#1
10
280.418125030625
20
1243.07470871827
30
0.0
11
280.435887947582
21
1243.20402061114
31
0.0
  0
LINE
 8
Component#1
10
280.435887947582
20
1243.20402061114
30
0.0
11
280.41957722719
21
1243.33352368931
31
0.0
  0
LINE
 8
Component#1
10
280.41957722719
20
1243.33352368931
30
0.0
11
280.370304418087
21
1243.45439253202
31
0.0
  0
LINE
 8
Component#1
10
280.370304418087
20
1243.45439253202
30
0.0
11
280.291427380788
21
1243.55839012739
31
0.0
  0
LINE
 8
Component#1
10
280.291427380788
20
1253.55839012739
30
0.0
11
280.188321455033
21
1253.63842921116
31
0.0
  0
LINE
 8
Component#1
10
280.188321455033
20
1253.63842921116
30
0.0
11
280.068013139273
21
1253.68905525203
31
0.0
  0
LINE
 8
Component#1
10
280.068013139273
20
1253.68905525203
30
0.0
11
279.938701246407
21
1253.70681816898
31
0.0
  0
LINE
 8
Component#1
10
279.938701246407
20
1253.70681816898
30
0.0
11
279.809198168236
21
1253.69050744859
31
0.0
  0
LINE
 8
Component#1
10
279.809198168236
20
1253.69050744859
30
0.0
11
279.688329325523
21
1253.64123463949
31
0.0
  0
LINE
 8
Component#1
10
279.688329325523
20
1253.64123463949
30
0.0
11
279.584331730155
21
1253.56235760219
31
0.0
  0
LINE
 8
Component#1
10
279.584331730155
20
1253.56235760219
30
0.0
11
279.504292646392
21
1253.45925167644
31
0.0
  0
LINE
 8
Component#1
10
279.504292646392
20
1253.45925167644
30
0.0
11
279.45366660552
21
1253.33894336067
31
0.0
  0
LINE
 8
Component#1
10
279.45366660552
20
1253.33894336067
30
0.0
11
279.435903688563
21
1253.20963146781
31
0.0
  0
LINE
 8
Component#1
10
279.435903688563
20
1253.20963146781
30
0.0
11
279.452214408955
21
1253.08012838964
31
0.0
  0
LINE
 8
Component#1
10
279.452214408955
20
1253.08012838964
30
0.0
11
279.501487218058
21
1252.95925954693
31
0.0
  0
LINE
 8
Component#1
10
279.501487218058
20
1252.95925954693
30
0.0
11
279.580364255357
21
1252.85526195156
31
0.0
  0
LINE
 8
Component#1
10
279.580364255357
20
1252.85526195156
30
0.0
11
279.683470181112
21
1252.77522286779
31
0.0
  0
LINE
 8
Component#1
10
279.683470181112
20
1252.77522286779
30
0.0
11
279.803778496872
21
1252.72459682692
31
0.0
  0
LINE
 8
Component#1
10
279.803778496872
20
1252.72459682692
30
0.0
11
279.933090389738
21
1252.70683390996
31
0.0
  0
LINE
 8
Component#1
10
279.933090389738
20
1252.70683390996
30
0.0
11
280.062593467909
21
1252.72314463036
31
0.0
  0
LINE
 8
Component#1
10
280.062593467909
20
1252.72314463036
30
0.0
11
280.183462310622
21
1252.77241743946
31
0.0
  0
LINE
 8
Component#1
10
280.183462310622
20
1252.77241743946
30
0.0
11
280.28745990599
21
1252.85129447676
31
0.0
  0
LINE
 8
Component#1
10
280.28745990599
20
1252.85129447676
30
0.0
11
280.367498989753
21
1252.95440040251
31
0.0
  0
LINE
 8
Component#1
10
280.367498989753
20
1252.95440040251
30
0.0
11
280.418125030625
21
1253.07470871827
31
0.0
  0
LINE
 8
Component#1
10
280.418125030625
20
1253.07470871827
30
0.0
11
280.435887947582
21
1253.20402061114
31
0.0
  0
LINE
 8
Component#1
10
280.435887947582
20
1253.20402061114
30
0.0
11
280.41957722719
21
1253.33352368931
31
0.0
  0
LINE
 8
Component#1
10
280.41957722719
20
1253.33352368931
30
0.0
11
280.370304418087
21
1253.45439253202
31
0.0
  0
LINE
 8
Component#1
10
280.370304418087
20
1253.45439253202
30
0.0
11
280.291427380788
21
1253.55839012739
31
0.0
  0
LINE
 8
Component#1
10
280.291427380788
20
1258.55839012739
30
0.0
11
280.188321455033
21
1258.63842921116
31
0.0
  0
LINE
 8
Component#1
10
280.188321455033
20
1258.63842921116
30
0.0
11
280.068013139273
21
1258.68905525203
31
0.0
  0
LINE
 8
Component#1
10
280.068013139273
20
1258.68905525203
30
0.0
11
279.938701246407
21
1258.70681816898
31
0.0
  0
LINE
 8
Component#1
10
279.938701246407
20
1258.70681816898
30
0.0
11
279.809198168236
21
1258.69050744859
31
0.0
  0
LINE
 8
Component#1
10
279.809198168236
20
1258.69050744859
30
0.0
11
279.688329325523
21
1258.64123463949
31
0.0
  0
LINE
 8
Component#1
10
279.688329325523
20
1258.64123463949
30
0.0
11
279.584331730155
21
1258.56235760219
31
0.0
  0
LINE
 8
Component#1
10
279.584331730155
20
1258.56235760219
30
0.0
11
279.504292646392
21
1258.45925167644
31
0.0
  0
LINE
 8
Component#1
10
279.504292646392
20
1258.45925167644
30
0.0
11
279.45366660552
21
1258.33894336067
31
0.0
  0
LINE
 8
Component#1
10
279.45366660552
20
1258.33894336067
30
0.0
11
279.435903688563
21
1258.20963146781
31
0.0
  0
LINE
 8
Component#1
10
279.435903688563
20
1258.20963146781
30
0.0
11
279.452214408955
21
1258.08012838964
31
0.0
  0
LINE
 8
Component#1
10
279.452214408955
20
1258.08012838964
30
0.0
11
279.501487218058
21
1257.95925954693
31
0.0
  0
LINE
 8
Component#1
10
279.501487218058
20
1257.95925954693
30
0.0
11
279.580364255357
21
1257.85526195156
31
0.0
  0
LINE
 8
Component#1
10
279.580364255357
20
1257.85526195156
30
0.0
11
279.683470181112
21
1257.77522286779
31
0.0
  0
LINE
 8
Component#1
10
279.683470181112
20
1257.77522286779
30
0.0
11
279.803778496872
21
1257.72459682692
31
0.0
  0
LINE
 8
Component#1
10
279.803778496872
20
1257.72459682692
30
0.0
11
279.933090389738
21
1257.70683390996
31
0.0
  0
LINE
 8
Component#1
10
279.933090389738
20
1257.70683390996
30
0.0
11
280.062593467909
21
1257.72314463036
31
0.0
  0
LINE
 8
Component#1
10
280.062593467909
20
1257.72314463036
30
0.0
11
280.183462310622
21
1257.77241743946
31
0.0
  0
LINE
 8
Component#1
10
280.183462310622
20
1257.77241743946
30
0.0
11
280.28745990599
21
1257.85129447676
31
0.0
  0
LINE
 8
Component#1
10
280.28745990599
20
1257.85129447676
30
0.0
11
280.367498989753
21
1257.95440040251
31
0.0
  0
LINE
 8
Component#1
10
280.367498989753
20
1257.95440040251
30
0.0
11
280.418125030625
21
1258.07470871827
31
0.0
  0
LINE
 8
Component#1
10
280.418125030625
20
1258.07470871827
30
0.0
11
280.435887947582
21
1258.20402061114
31
0.0
  0
LINE
 8
Component#1
10
280.435887947582
20
1258.20402061114
30
0.0
11
280.41957722719
21
1258.33352368931
31
0.0
  0
LINE
 8
Component#1
10
280.41957722719
20
1258.33352368931
30
0.0
11
280.370304418087
21
1258.45439253202
31
0.0
  0
LINE
 8
Component#1
10
280.370304418087
20
1258.45439253202
30
0.0
11
280.291427380788
21
1258.55839012739
31
0.0
  0
LINE
 8
Component#1
10
280.291427380788
20
1248.55839012739
30
0.0
11
280.188321455033
21
1248.63842921116
31
0.0
  0
LINE
 8
Component#1
10
280.188321455033
20
1248.63842921116
30
0.0
11
280.068013139273
21
1248.68905525203
31
0.0
  0
LINE
 8
Component#1
10
280.068013139273
20
1248.68905525203
30
0.0
11
279.938701246407
21
1248.70681816898
31
0.0
  0
LINE
 8
Component#1
10
279.938701246407
20
1248.70681816898
30
0.0
11
279.809198168236
21
1248.69050744859
31
0.0
  0
LINE
 8
Component#1
10
279.809198168236
20
1248.69050744859
30
0.0
11
279.688329325523
21
1248.64123463949
31
0.0
  0
LINE
 8
Component#1
10
279.688329325523
20
1248.64123463949
30
0.0
11
279.584331730155
21
1248.56235760219
31
0.0
  0
LINE
 8
Component#1
10
279.584331730155
20
1248.56235760219
30
0.0
11
279.504292646392
21
1248.45925167644
31
0.0
  0
LINE
 8
Component#1
10
279.504292646392
20
1248.45925167644
30
0.0
11
279.45366660552
21
1248.33894336067
31
0.0
  0
LINE
 8
Component#1
10
279.45366660552
20
1248.33894336067
30
0.0
11
279.435903688563
21
1248.20963146781
31
0.0
  0
LINE
 8
Component#1
10
279.435903688563
20
1248.20963146781
30
0.0
11
279.452214408955
21
1248.08012838964
31
0.0
  0
LINE
 8
Component#1
10
279.452214408955
20
1248.08012838964
30
0.0
11
279.501487218058
21
1247.95925954693
31
0.0
  0
LINE
 8
Component#1
10
279.501487218058
20
1247.95925954693
30
0.0
11
279.580364255357
21
1247.85526195156
31
0.0
  0
LINE
 8
Component#1
10
279.580364255357
20
1247.85526195156
30
0.0
11
279.683470181112
21
1247.77522286779
31
0.0
  0
LINE
 8
Component#1
10
279.683470181112
20
1247.77522286779
30
0.0
11
279.803778496872
21
1247.72459682692
31
0.0
  0
LINE
 8
Component#1
10
279.803778496872
20
1247.72459682692
30
0.0
11
279.933090389738
21
1247.70683390996
31
0.0
  0
LINE
 8
Component#1
10
279.933090389738
20
1247.70683390996
30
0.0
11
280.062593467909
21
1247.72314463036
31
0.0
  0
LINE
 8
Component#1
10
280.062593467909
20
1247.72314463036
30
0.0
11
280.183462310622
21
1247.77241743946
31
0.0
  0
LINE
 8
Component#1
10
280.183462310622
20
1247.77241743946
30
0.0
11
280.28745990599
21
1247.85129447676
31
0.0
  0
LINE
 8
Component#1
10
280.28745990599
20
1247.85129447676
30
0.0
11
280.367498989753
21
1247.95440040251
31
0.0
  0
LINE
 8
Component#1
10
280.367498989753
20
1247.95440040251
30
0.0
11
280.418125030625
21
1248.07470871827
31
0.0
  0
LINE
 8
Component#1
10
280.418125030625
20
1248.07470871827
30
0.0
11
280.435887947582
21
1248.20402061114
31
0.0
  0
LINE
 8
Component#1
10
280.435887947582
20
1248.20402061114
30
0.0
11
280.41957722719
21
1248.33352368931
31
0.0
  0
LINE
 8
Component#1
10
280.41957722719
20
1248.33352368931
30
0.0
11
280.370304418087
21
1248.45439253202
31
0.0
  0
LINE
 8
Component#1
10
280.370304418087
20
1248.45439253202
30
0.0
11
280.291427380788
21
1248.55839012739
31
0.0
  0
LINE
 8
Component#1
10
285.291427380788
20
1257.85525408107
30
0.0
11
285.188321455033
21
1257.7752149973
31
0.0
  0
LINE
 8
Component#1
10
285.188321455033
20
1257.7752149973
30
0.0
11
285.068013139273
21
1257.72458895643
31
0.0
  0
LINE
 8
Component#1
10
285.068013139273
20
1257.72458895643
30
0.0
11
284.938701246407
21
1257.70682603947
31
0.0
  0
LINE
 8
Component#1
10
284.938701246407
20
1257.70682603947
30
0.0
11
284.809198168236
21
1257.72313675987
31
0.0
  0
LINE
 8
Component#1
10
284.809198168236
20
1257.72313675987
30
0.0
11
284.688329325523
21
1257.77240956897
31
0.0
  0
LINE
 8
Component#1
10
284.688329325523
20
1257.77240956897
30
0.0
11
284.584331730155
21
1257.85128660627
31
0.0
  0
LINE
 8
Component#1
10
284.584331730155
20
1257.85128660627
30
0.0
11
284.504292646392
21
1257.95439253202
31
0.0
  0
LINE
 8
Component#1
10
284.504292646392
20
1257.95439253202
30
0.0
11
284.45366660552
21
1258.07470084778
31
0.0
  0
LINE
 8
Component#1
10
284.45366660552
20
1258.07470084778
30
0.0
11
284.435903688563
21
1258.20401274065
31
0.0
  0
LINE
 8
Component#1
10
284.435903688563
20
1258.20401274065
30
0.0
11
284.452214408955
21
1258.33351581882
31
0.0
  0
LINE
 8
Component#1
10
284.452214408955
20
1258.33351581882
30
0.0
11
284.501487218057
21
1258.45438466153
31
0.0
  0
LINE
 8
Component#1
10
284.501487218057
20
1258.45438466153
30
0.0
11
284.580364255357
21
1258.5583822569
31
0.0
  0
LINE
 8
Component#1
10
284.580364255357
20
1258.5583822569
30
0.0
11
284.683470181112
21
1258.63842134067
31
0.0
  0
LINE
 8
Component#1
10
284.683470181112
20
1258.63842134067
30
0.0
11
284.803778496872
21
1258.68904738154
31
0.0
  0
LINE
 8
Component#1
10
284.803778496872
20
1258.68904738154
30
0.0
11
284.933090389738
21
1258.70681029849
31
0.0
  0
LINE
 8
Component#1
10
284.933090389738
20
1258.70681029849
30
0.0
11
285.062593467909
21
1258.6904995781
31
0.0
  0
LINE
 8
Component#1
10
285.062593467909
20
1258.6904995781
30
0.0
11
285.183462310621
21
1258.641226769
31
0.0
  0
LINE
 8
Component#1
10
285.183462310621
20
1258.641226769
30
0.0
11
285.28745990599
21
1258.5623497317
31
0.0
  0
LINE
 8
Component#1
10
285.28745990599
20
1258.5623497317
30
0.0
11
285.367498989753
21
1258.45924380595
31
0.0
  0
LINE
 8
Component#1
10
285.367498989753
20
1258.45924380595
30
0.0
11
285.418125030625
21
1258.33893549018
31
0.0
  0
LINE
 8
Component#1
10
285.418125030625
20
1258.33893549018
30
0.0
11
285.435887947582
21
1258.20962359732
31
0.0
  0
LINE
 8
Component#1
10
285.435887947582
20
1258.20962359732
30
0.0
11
285.41957722719
21
1258.08012051915
31
0.0
  0
LINE
 8
Component#1
10
285.41957722719
20
1258.08012051915
30
0.0
11
285.370304418087
21
1257.95925167644
31
0.0
  0
LINE
 8
Component#1
10
285.370304418087
20
1257.95925167644
30
0.0
11
285.291427380788
21
1257.85525408107
31
0.0
  0
LINE
 8
Component#1
10
295.291427380788
20
1257.85525408107
30
0.0
11
295.188321455033
21
1257.7752149973
31
0.0
  0
LINE
 8
Component#1
10
295.188321455033
20
1257.7752149973
30
0.0
11
295.068013139273
21
1257.72458895643
31
0.0
  0
LINE
 8
Component#1
10
295.068013139273
20
1257.72458895643
30
0.0
11
294.938701246406
21
1257.70682603947
31
0.0
  0
LINE
 8
Component#1
10
294.938701246406
20
1257.70682603947
30
0.0
11
294.809198168236
21
1257.72313675987
31
0.0
  0
LINE
 8
Component#1
10
294.809198168236
20
1257.72313675987
30
0.0
11
294.688329325523
21
1257.77240956897
31
0.0
  0
LINE
 8
Component#1
10
294.688329325523
20
1257.77240956897
30
0.0
11
294.584331730155
21
1257.85128660627
31
0.0
  0
LINE
 8
Component#1
10
294.584331730155
20
1257.85128660627
30
0.0
11
294.504292646392
21
1257.95439253202
31
0.0
  0
LINE
 8
Component#1
10
294.504292646392
20
1257.95439253202
30
0.0
11
294.45366660552
21
1258.07470084778
31
0.0
  0
LINE
 8
Component#1
10
294.45366660552
20
1258.07470084778
30
0.0
11
294.435903688563
21
1258.20401274065
31
0.0
  0
LINE
 8
Component#1
10
294.435903688563
20
1258.20401274065
30
0.0
11
294.452214408955
21
1258.33351581882
31
0.0
  0
LINE
 8
Component#1
10
294.452214408955
20
1258.33351581882
30
0.0
11
294.501487218057
21
1258.45438466153
31
0.0
  0
LINE
 8
Component#1
10
294.501487218057
20
1258.45438466153
30
0.0
11
294.580364255357
21
1258.5583822569
31
0.0
  0
LINE
 8
Component#1
10
294.580364255357
20
1258.5583822569
30
0.0
11
294.683470181112
21
1258.63842134067
31
0.0
  0
LINE
 8
Component#1
10
294.683470181112
20
1258.63842134067
30
0.0
11
294.803778496872
21
1258.68904738154
31
0.0
  0
LINE
 8
Component#1
10
294.803778496872
20
1258.68904738154
30
0.0
11
294.933090389738
21
1258.70681029849
31
0.0
  0
LINE
 8
Component#1
10
294.933090389738
20
1258.70681029849
30
0.0
11
295.062593467909
21
1258.6904995781
31
0.0
  0
LINE
 8
Component#1
10
295.062593467909
20
1258.6904995781
30
0.0
11
295.183462310621
21
1258.641226769
31
0.0
  0
LINE
 8
Component#1
10
295.183462310621
20
1258.641226769
30
0.0
11
295.28745990599
21
1258.5623497317
31
0.0
  0
LINE
 8
Component#1
10
295.28745990599
20
1258.5623497317
30
0.0
11
295.367498989753
21
1258.45924380595
31
0.0
  0
LINE
 8
Component#1
10
295.367498989753
20
1258.45924380595
30
0.0
11
295.418125030625
21
1258.33893549018
31
0.0
  0
LINE
 8
Component#1
10
295.418125030625
20
1258.33893549018
30
0.0
11
295.435887947582
21
1258.20962359732
31
0.0
  0
LINE
 8
Component#1
10
295.435887947582
20
1258.20962359732
30
0.0
11
295.41957722719
21
1258.08012051915
31
0.0
  0
LINE
 8
Component#1
10
295.41957722719
20
1258.08012051915
30
0.0
11
295.370304418087
21
1257.95925167644
31
0.0
  0
LINE
 8
Component#1
10
295.370304418087
20
1257.95925167644
30
0.0
11
295.291427380788
21
1257.85525408107
31
0.0
  0
LINE
 8
Component#1
10
290.291427380788
20
1257.85525408107
30
0.0
11
290.188321455033
21
1257.7752149973
31
0.0
  0
LINE
 8
Component#1
10
290.188321455033
20
1257.7752149973
30
0.0
11
290.068013139273
21
1257.72458895643
31
0.0
  0
LINE
 8
Component#1
10
290.068013139273
20
1257.72458895643
30
0.0
11
289.938701246406
21
1257.70682603947
31
0.0
  0
LINE
 8
Component#1
10
289.938701246406
20
1257.70682603947
30
0.0
11
289.809198168236
21
1257.72313675987
31
0.0
  0
LINE
 8
Component#1
10
289.809198168236
20
1257.72313675987
30
0.0
11
289.688329325523
21
1257.77240956897
31
0.0
  0
LINE
 8
Component#1
10
289.688329325523
20
1257.77240956897
30
0.0
11
289.584331730155
21
1257.85128660627
31
0.0
  0
LINE
 8
Component#1
10
289.584331730155
20
1257.85128660627
30
0.0
11
289.504292646392
21
1257.95439253202
31
0.0
  0
LINE
 8
Component#1
10
289.504292646392
20
1257.95439253202
30
0.0
11
289.45366660552
21
1258.07470084778
31
0.0
  0
LINE
 8
Component#1
10
289.45366660552
20
1258.07470084778
30
0.0
11
289.435903688563
21
1258.20401274065
31
0.0
  0
LINE
 8
Component#1
10
289.435903688563
20
1258.20401274065
30
0.0
11
289.452214408955
21
1258.33351581882
31
0.0
  0
LINE
 8
Component#1
10
289.452214408955
20
1258.33351581882
30
0.0
11
289.501487218057
21
1258.45438466153
31
0.0
  0
LINE
 8
Component#1
10
289.501487218057
20
1258.45438466153
30
0.0
11
289.580364255357
21
1258.5583822569
31
0.0
  0
LINE
 8
Component#1
10
289.580364255357
20
1258.5583822569
30
0.0
11
289.683470181112
21
1258.63842134067
31
0.0
  0
LINE
 8
Component#1
10
289.683470181112
20
1258.63842134067
30
0.0
11
289.803778496872
21
1258.68904738154
31
0.0
  0
LINE
 8
Component#1
10
289.803778496872
20
1258.68904738154
30
0.0
11
289.933090389738
21
1258.70681029849
31
0.0
  0
LINE
 8
Component#1
10
289.933090389738
20
1258.70681029849
30
0.0
11
290.062593467909
21
1258.6904995781
31
0.0
  0
LINE
 8
Component#1
10
290.062593467909
20
1258.6904995781
30
0.0
11
290.183462310621
21
1258.641226769
31
0.0
  0
LINE
 8
Component#1
10
290.183462310621
20
1258.641226769
30
0.0
11
290.28745990599
21
1258.5623497317
31
0.0
  0
LINE
 8
Component#1
10
290.28745990599
20
1258.5623497317
30
0.0
11
290.367498989753
21
1258.45924380595
31
0.0
  0
LINE
 8
Component#1
10
290.367498989753
20
1258.45924380595
30
0.0
11
290.418125030625
21
1258.33893549018
31
0.0
  0
LINE
 8
Component#1
10
290.418125030625
20
1258.33893549018
30
0.0
11
290.435887947582
21
1258.20962359732
31
0.0
  0
LINE
 8
Component#1
10
290.435887947582
20
1258.20962359732
30
0.0
11
290.41957722719
21
1258.08012051915
31
0.0
  0
LINE
 8
Component#1
10
290.41957722719
20
1258.08012051915
30
0.0
11
290.370304418087
21
1257.95925167644
31
0.0
  0
LINE
 8
Component#1
10
290.370304418087
20
1257.95925167644
30
0.0
11
290.291427380788
21
1257.85525408107
31
0.0
  0
LINE
 8
Component#1
10
305.291427380788
20
1257.85525408107
30
0.0
11
305.188321455033
21
1257.7752149973
31
0.0
  0
LINE
 8
Component#1
10
305.188321455033
20
1257.7752149973
30
0.0
11
305.068013139273
21
1257.72458895643
31
0.0
  0
LINE
 8
Component#1
10
305.068013139273
20
1257.72458895643
30
0.0
11
304.938701246407
21
1257.70682603947
31
0.0
  0
LINE
 8
Component#1
10
304.938701246407
20
1257.70682603947
30
0.0
11
304.809198168236
21
1257.72313675987
31
0.0
  0
LINE
 8
Component#1
10
304.809198168236
20
1257.72313675987
30
0.0
11
304.688329325523
21
1257.77240956897
31
0.0
  0
LINE
 8
Component#1
10
304.688329325523
20
1257.77240956897
30
0.0
11
304.584331730155
21
1257.85128660627
31
0.0
  0
LINE
 8
Component#1
10
304.584331730155
20
1257.85128660627
30
0.0
11
304.504292646392
21
1257.95439253202
31
0.0
  0
LINE
 8
Component#1
10
304.504292646392
20
1257.95439253202
30
0.0
11
304.45366660552
21
1258.07470084778
31
0.0
  0
LINE
 8
Component#1
10
304.45366660552
20
1258.07470084778
30
0.0
11
304.435903688563
21
1258.20401274065
31
0.0
  0
LINE
 8
Component#1
10
304.435903688563
20
1258.20401274065
30
0.0
11
304.452214408955
21
1258.33351581882
31
0.0
  0
LINE
 8
Component#1
10
304.452214408955
20
1258.33351581882
30
0.0
11
304.501487218058
21
1258.45438466153
31
0.0
  0
LINE
 8
Component#1
10
304.501487218058
20
1258.45438466153
30
0.0
11
304.580364255357
21
1258.5583822569
31
0.0
  0
LINE
 8
Component#1
10
304.580364255357
20
1258.5583822569
30
0.0
11
304.683470181112
21
1258.63842134067
31
0.0
  0
LINE
 8
Component#1
10
304.683470181112
20
1258.63842134067
30
0.0
11
304.803778496872
21
1258.68904738154
31
0.0
  0
LINE
 8
Component#1
10
304.803778496872
20
1258.68904738154
30
0.0
11
304.933090389738
21
1258.70681029849
31
0.0
  0
LINE
 8
Component#1
10
304.933090389738
20
1258.70681029849
30
0.0
11
305.062593467909
21
1258.6904995781
31
0.0
  0
LINE
 8
Component#1
10
305.062593467909
20
1258.6904995781
30
0.0
11
305.183462310622
21
1258.641226769
31
0.0
  0
LINE
 8
Component#1
10
305.183462310622
20
1258.641226769
30
0.0
11
305.28745990599
21
1258.5623497317
31
0.0
  0
LINE
 8
Component#1
10
305.28745990599
20
1258.5623497317
30
0.0
11
305.367498989753
21
1258.45924380595
31
0.0
  0
LINE
 8
Component#1
10
305.367498989753
20
1258.45924380595
30
0.0
11
305.418125030625
21
1258.33893549018
31
0.0
  0
LINE
 8
Component#1
10
305.418125030625
20
1258.33893549018
30
0.0
11
305.435887947582
21
1258.20962359732
31
0.0
  0
LINE
 8
Component#1
10
305.435887947582
20
1258.20962359732
30
0.0
11
305.41957722719
21
1258.08012051915
31
0.0
  0
LINE
 8
Component#1
10
305.41957722719
20
1258.08012051915
30
0.0
11
305.370304418087
21
1257.95925167644
31
0.0
  0
LINE
 8
Component#1
10
305.370304418087
20
1257.95925167644
30
0.0
11
305.291427380788
21
1257.85525408107
31
0.0
  0
LINE
 8
Component#1
10
300.291427380788
20
1257.85525408107
30
0.0
11
300.188321455033
21
1257.7752149973
31
0.0
  0
LINE
 8
Component#1
10
300.188321455033
20
1257.7752149973
30
0.0
11
300.068013139273
21
1257.72458895643
31
0.0
  0
LINE
 8
Component#1
10
300.068013139273
20
1257.72458895643
30
0.0
11
299.938701246407
21
1257.70682603947
31
0.0
  0
LINE
 8
Component#1
10
299.938701246407
20
1257.70682603947
30
0.0
11
299.809198168236
21
1257.72313675987
31
0.0
  0
LINE
 8
Component#1
10
299.809198168236
20
1257.72313675987
30
0.0
11
299.688329325523
21
1257.77240956897
31
0.0
  0
LINE
 8
Component#1
10
299.688329325523
20
1257.77240956897
30
0.0
11
299.584331730155
21
1257.85128660627
31
0.0
  0
LINE
 8
Component#1
10
299.584331730155
20
1257.85128660627
30
0.0
11
299.504292646392
21
1257.95439253202
31
0.0
  0
LINE
 8
Component#1
10
299.504292646392
20
1257.95439253202
30
0.0
11
299.45366660552
21
1258.07470084778
31
0.0
  0
LINE
 8
Component#1
10
299.45366660552
20
1258.07470084778
30
0.0
11
299.435903688563
21
1258.20401274065
31
0.0
  0
LINE
 8
Component#1
10
299.435903688563
20
1258.20401274065
30
0.0
11
299.452214408955
21
1258.33351581882
31
0.0
  0
LINE
 8
Component#1
10
299.452214408955
20
1258.33351581882
30
0.0
11
299.501487218058
21
1258.45438466153
31
0.0
  0
LINE
 8
Component#1
10
299.501487218058
20
1258.45438466153
30
0.0
11
299.580364255357
21
1258.5583822569
31
0.0
  0
LINE
 8
Component#1
10
299.580364255357
20
1258.5583822569
30
0.0
11
299.683470181112
21
1258.63842134067
31
0.0
  0
LINE
 8
Component#1
10
299.683470181112
20
1258.63842134067
30
0.0
11
299.803778496872
21
1258.68904738154
31
0.0
  0
LINE
 8
Component#1
10
299.803778496872
20
1258.68904738154
30
0.0
11
299.933090389738
21
1258.70681029849
31
0.0
  0
LINE
 8
Component#1
10
299.933090389738
20
1258.70681029849
30
0.0
11
300.062593467909
21
1258.6904995781
31
0.0
  0
LINE
 8
Component#1
10
300.062593467909
20
1258.6904995781
30
0.0
11
300.183462310622
21
1258.641226769
31
0.0
  0
LINE
 8
Component#1
10
300.183462310622
20
1258.641226769
30
0.0
11
300.28745990599
21
1258.5623497317
31
0.0
  0
LINE
 8
Component#1
10
300.28745990599
20
1258.5623497317
30
0.0
11
300.367498989753
21
1258.45924380595
31
0.0
  0
LINE
 8
Component#1
10
300.367498989753
20
1258.45924380595
30
0.0
11
300.418125030625
21
1258.33893549018
31
0.0
  0
LINE
 8
Component#1
10
300.418125030625
20
1258.33893549018
30
0.0
11
300.435887947582
21
1258.20962359732
31
0.0
  0
LINE
 8
Component#1
10
300.435887947582
20
1258.20962359732
30
0.0
11
300.41957722719
21
1258.08012051915
31
0.0
  0
LINE
 8
Component#1
10
300.41957722719
20
1258.08012051915
30
0.0
11
300.370304418087
21
1257.95925167644
31
0.0
  0
LINE
 8
Component#1
10
300.370304418087
20
1257.95925167644
30
0.0
11
300.291427380788
21
1257.85525408107
31
0.0
  0
LINE
 8
Component#1
10
315.291427380788
20
1257.85525408107
30
0.0
11
315.188321455033
21
1257.7752149973
31
0.0
  0
LINE
 8
Component#1
10
315.188321455033
20
1257.7752149973
30
0.0
11
315.068013139273
21
1257.72458895643
31
0.0
  0
LINE
 8
Component#1
10
315.068013139273
20
1257.72458895643
30
0.0
11
314.938701246406
21
1257.70682603947
31
0.0
  0
LINE
 8
Component#1
10
314.938701246406
20
1257.70682603947
30
0.0
11
314.809198168236
21
1257.72313675987
31
0.0
  0
LINE
 8
Component#1
10
314.809198168236
20
1257.72313675987
30
0.0
11
314.688329325523
21
1257.77240956897
31
0.0
  0
LINE
 8
Component#1
10
314.688329325523
20
1257.77240956897
30
0.0
11
314.584331730155
21
1257.85128660627
31
0.0
  0
LINE
 8
Component#1
10
314.584331730155
20
1257.85128660627
30
0.0
11
314.504292646392
21
1257.95439253202
31
0.0
  0
LINE
 8
Component#1
10
314.504292646392
20
1257.95439253202
30
0.0
11
314.45366660552
21
1258.07470084778
31
0.0
  0
LINE
 8
Component#1
10
314.45366660552
20
1258.07470084778
30
0.0
11
314.435903688563
21
1258.20401274065
31
0.0
  0
LINE
 8
Component#1
10
314.435903688563
20
1258.20401274065
30
0.0
11
314.452214408955
21
1258.33351581882
31
0.0
  0
LINE
 8
Component#1
10
314.452214408955
20
1258.33351581882
30
0.0
11
314.501487218057
21
1258.45438466153
31
0.0
  0
LINE
 8
Component#1
10
314.501487218057
20
1258.45438466153
30
0.0
11
314.580364255357
21
1258.5583822569
31
0.0
  0
LINE
 8
Component#1
10
314.580364255357
20
1258.5583822569
30
0.0
11
314.683470181112
21
1258.63842134067
31
0.0
  0
LINE
 8
Component#1
10
314.683470181112
20
1258.63842134067
30
0.0
11
314.803778496872
21
1258.68904738154
31
0.0
  0
LINE
 8
Component#1
10
314.803778496872
20
1258.68904738154
30
0.0
11
314.933090389738
21
1258.70681029849
31
0.0
  0
LINE
 8
Component#1
10
314.933090389738
20
1258.70681029849
30
0.0
11
315.062593467909
21
1258.6904995781
31
0.0
  0
LINE
 8
Component#1
10
315.062593467909
20
1258.6904995781
30
0.0
11
315.183462310621
21
1258.641226769
31
0.0
  0
LINE
 8
Component#1
10
315.183462310621
20
1258.641226769
30
0.0
11
315.28745990599
21
1258.5623497317
31
0.0
  0
LINE
 8
Component#1
10
315.28745990599
20
1258.5623497317
30
0.0
11
315.367498989753
21
1258.45924380595
31
0.0
  0
LINE
 8
Component#1
10
315.367498989753
20
1258.45924380595
30
0.0
11
315.418125030625
21
1258.33893549018
31
0.0
  0
LINE
 8
Component#1
10
315.418125030625
20
1258.33893549018
30
0.0
11
315.435887947582
21
1258.20962359732
31
0.0
  0
LINE
 8
Component#1
10
315.435887947582
20
1258.20962359732
30
0.0
11
315.41957722719
21
1258.08012051915
31
0.0
  0
LINE
 8
Component#1
10
315.41957722719
20
1258.08012051915
30
0.0
11
315.370304418087
21
1257.95925167644
31
0.0
  0
LINE
 8
Component#1
10
315.370304418087
20
1257.95925167644
30
0.0
11
315.291427380788
21
1257.85525408107
31
0.0
  0
LINE
 8
Component#1
10
310.291427380788
20
1257.85525408107
30
0.0
11
310.188321455033
21
1257.7752149973
31
0.0
  0
LINE
 8
Component#1
10
310.188321455033
20
1257.7752149973
30
0.0
11
310.068013139273
21
1257.72458895643
31
0.0
  0
LINE
 8
Component#1
10
310.068013139273
20
1257.72458895643
30
0.0
11
309.938701246407
21
1257.70682603947
31
0.0
  0
LINE
 8
Component#1
10
309.938701246407
20
1257.70682603947
30
0.0
11
309.809198168236
21
1257.72313675987
31
0.0
  0
LINE
 8
Component#1
10
309.809198168236
20
1257.72313675987
30
0.0
11
309.688329325523
21
1257.77240956897
31
0.0
  0
LINE
 8
Component#1
10
309.688329325523
20
1257.77240956897
30
0.0
11
309.584331730155
21
1257.85128660627
31
0.0
  0
LINE
 8
Component#1
10
309.584331730155
20
1257.85128660627
30
0.0
11
309.504292646392
21
1257.95439253202
31
0.0
  0
LINE
 8
Component#1
10
309.504292646392
20
1257.95439253202
30
0.0
11
309.45366660552
21
1258.07470084778
31
0.0
  0
LINE
 8
Component#1
10
309.45366660552
20
1258.07470084778
30
0.0
11
309.435903688563
21
1258.20401274065
31
0.0
  0
LINE
 8
Component#1
10
309.435903688563
20
1258.20401274065
30
0.0
11
309.452214408955
21
1258.33351581882
31
0.0
  0
LINE
 8
Component#1
10
309.452214408955
20
1258.33351581882
30
0.0
11
309.501487218057
21
1258.45438466153
31
0.0
  0
LINE
 8
Component#1
10
309.501487218057
20
1258.45438466153
30
0.0
11
309.580364255357
21
1258.5583822569
31
0.0
  0
LINE
 8
Component#1
10
309.580364255357
20
1258.5583822569
30
0.0
11
309.683470181112
21
1258.63842134067
31
0.0
  0
LINE
 8
Component#1
10
309.683470181112
20
1258.63842134067
30
0.0
11
309.803778496872
21
1258.68904738154
31
0.0
  0
LINE
 8
Component#1
10
309.803778496872
20
1258.68904738154
30
0.0
11
309.933090389738
21
1258.70681029849
31
0.0
  0
LINE
 8
Component#1
10
309.933090389738
20
1258.70681029849
30
0.0
11
310.062593467909
21
1258.6904995781
31
0.0
  0
LINE
 8
Component#1
10
310.062593467909
20
1258.6904995781
30
0.0
11
310.183462310621
21
1258.641226769
31
0.0
  0
LINE
 8
Component#1
10
310.183462310621
20
1258.641226769
30
0.0
11
310.28745990599
21
1258.5623497317
31
0.0
  0
LINE
 8
Component#1
10
310.28745990599
20
1258.5623497317
30
0.0
11
310.367498989753
21
1258.45924380595
31
0.0
  0
LINE
 8
Component#1
10
310.367498989753
20
1258.45924380595
30
0.0
11
310.418125030625
21
1258.33893549018
31
0.0
  0
LINE
 8
Component#1
10
310.418125030625
20
1258.33893549018
30
0.0
11
310.435887947582
21
1258.20962359732
31
0.0
  0
LINE
 8
Component#1
10
310.435887947582
20
1258.20962359732
30
0.0
11
310.41957722719
21
1258.08012051915
31
0.0
  0
LINE
 8
Component#1
10
310.41957722719
20
1258.08012051915
30
0.0
11
310.370304418087
21
1257.95925167644
31
0.0
  0
LINE
 8
Component#1
10
310.370304418087
20
1257.95925167644
30
0.0
11
310.291427380788
21
1257.85525408107
31
0.0
  0
LINE
 8
Component#1
10
340.291427380788
20
1257.85525408107
30
0.0
11
340.188321455033
21
1257.7752149973
31
0.0
  0
LINE
 8
Component#1
10
340.188321455033
20
1257.7752149973
30
0.0
11
340.068013139273
21
1257.72458895643
31
0.0
  0
LINE
 8
Component#1
10
340.068013139273
20
1257.72458895643
30
0.0
11
339.938701246407
21
1257.70682603947
31
0.0
  0
LINE
 8
Component#1
10
339.938701246407
20
1257.70682603947
30
0.0
11
339.809198168236
21
1257.72313675987
31
0.0
  0
LINE
 8
Component#1
10
339.809198168236
20
1257.72313675987
30
0.0
11
339.688329325523
21
1257.77240956897
31
0.0
  0
LINE
 8
Component#1
10
339.688329325523
20
1257.77240956897
30
0.0
11
339.584331730155
21
1257.85128660627
31
0.0
  0
LINE
 8
Component#1
10
339.584331730155
20
1257.85128660627
30
0.0
11
339.504292646392
21
1257.95439253202
31
0.0
  0
LINE
 8
Component#1
10
339.504292646392
20
1257.95439253202
30
0.0
11
339.45366660552
21
1258.07470084778
31
0.0
  0
LINE
 8
Component#1
10
339.45366660552
20
1258.07470084778
30
0.0
11
339.435903688563
21
1258.20401274065
31
0.0
  0
LINE
 8
Component#1
10
339.435903688563
20
1258.20401274065
30
0.0
11
339.452214408955
21
1258.33351581882
31
0.0
  0
LINE
 8
Component#1
10
339.452214408955
20
1258.33351581882
30
0.0
11
339.501487218058
21
1258.45438466153
31
0.0
  0
LINE
 8
Component#1
10
339.501487218058
20
1258.45438466153
30
0.0
11
339.580364255357
21
1258.5583822569
31
0.0
  0
LINE
 8
Component#1
10
339.580364255357
20
1258.5583822569
30
0.0
11
339.683470181112
21
1258.63842134067
31
0.0
  0
LINE
 8
Component#1
10
339.683470181112
20
1258.63842134067
30
0.0
11
339.803778496872
21
1258.68904738154
31
0.0
  0
LINE
 8
Component#1
10
339.803778496872
20
1258.68904738154
30
0.0
11
339.933090389738
21
1258.70681029849
31
0.0
  0
LINE
 8
Component#1
10
339.933090389738
20
1258.70681029849
30
0.0
11
340.062593467909
21
1258.6904995781
31
0.0
  0
LINE
 8
Component#1
10
340.062593467909
20
1258.6904995781
30
0.0
11
340.183462310622
21
1258.641226769
31
0.0
  0
LINE
 8
Component#1
10
340.183462310622
20
1258.641226769
30
0.0
11
340.28745990599
21
1258.5623497317
31
0.0
  0
LINE
 8
Component#1
10
340.28745990599
20
1258.5623497317
30
0.0
11
340.367498989753
21
1258.45924380595
31
0.0
  0
LINE
 8
Component#1
10
340.367498989753
20
1258.45924380595
30
0.0
11
340.418125030625
21
1258.33893549018
31
0.0
  0
LINE
 8
Component#1
10
340.418125030625
20
1258.33893549018
30
0.0
11
340.435887947582
21
1258.20962359732
31
0.0
  0
LINE
 8
Component#1
10
340.435887947582
20
1258.20962359732
30
0.0
11
340.41957722719
21
1258.08012051915
31
0.0
  0
LINE
 8
Component#1
10
340.41957722719
20
1258.08012051915
30
0.0
11
340.370304418087
21
1257.95925167644
31
0.0
  0
LINE
 8
Component#1
10
340.370304418087
20
1257.95925167644
30
0.0
11
340.291427380788
21
1257.85525408107
31
0.0
  0
LINE
 8
Component#1
10
355.291427380788
20
1257.85525408107
30
0.0
11
355.188321455033
21
1257.7752149973
31
0.0
  0
LINE
 8
Component#1
10
355.188321455033
20
1257.7752149973
30
0.0
11
355.068013139273
21
1257.72458895643
31
0.0
  0
LINE
 8
Component#1
10
355.068013139273
20
1257.72458895643
30
0.0
11
354.938701246407
21
1257.70682603947
31
0.0
  0
LINE
 8
Component#1
10
354.938701246407
20
1257.70682603947
30
0.0
11
354.809198168236
21
1257.72313675987
31
0.0
  0
LINE
 8
Component#1
10
354.809198168236
20
1257.72313675987
30
0.0
11
354.688329325523
21
1257.77240956897
31
0.0
  0
LINE
 8
Component#1
10
354.688329325523
20
1257.77240956897
30
0.0
11
354.584331730155
21
1257.85128660627
31
0.0
  0
LINE
 8
Component#1
10
354.584331730155
20
1257.85128660627
30
0.0
11
354.504292646392
21
1257.95439253202
31
0.0
  0
LINE
 8
Component#1
10
354.504292646392
20
1257.95439253202
30
0.0
11
354.45366660552
21
1258.07470084778
31
0.0
  0
LINE
 8
Component#1
10
354.45366660552
20
1258.07470084778
30
0.0
11
354.435903688563
21
1258.20401274065
31
0.0
  0
LINE
 8
Component#1
10
354.435903688563
20
1258.20401274065
30
0.0
11
354.452214408955
21
1258.33351581882
31
0.0
  0
LINE
 8
Component#1
10
354.452214408955
20
1258.33351581882
30
0.0
11
354.501487218058
21
1258.45438466153
31
0.0
  0
LINE
 8
Component#1
10
354.501487218058
20
1258.45438466153
30
0.0
11
354.580364255357
21
1258.5583822569
31
0.0
  0
LINE
 8
Component#1
10
354.580364255357
20
1258.5583822569
30
0.0
11
354.683470181112
21
1258.63842134067
31
0.0
  0
LINE
 8
Component#1
10
354.683470181112
20
1258.63842134067
30
0.0
11
354.803778496872
21
1258.68904738154
31
0.0
  0
LINE
 8
Component#1
10
354.803778496872
20
1258.68904738154
30
0.0
11
354.933090389738
21
1258.70681029849
31
0.0
  0
LINE
 8
Component#1
10
354.933090389738
20
1258.70681029849
30
0.0
11
355.062593467909
21
1258.6904995781
31
0.0
  0
LINE
 8
Component#1
10
355.062593467909
20
1258.6904995781
30
0.0
11
355.183462310622
21
1258.641226769
31
0.0
  0
LINE
 8
Component#1
10
355.183462310622
20
1258.641226769
30
0.0
11
355.28745990599
21
1258.5623497317
31
0.0
  0
LINE
 8
Component#1
10
355.28745990599
20
1258.5623497317
30
0.0
11
355.367498989753
21
1258.45924380595
31
0.0
  0
LINE
 8
Component#1
10
355.367498989753
20
1258.45924380595
30
0.0
11
355.418125030625
21
1258.33893549018
31
0.0
  0
LINE
 8
Component#1
10
355.418125030625
20
1258.33893549018
30
0.0
11
355.435887947582
21
1258.20962359732
31
0.0
  0
LINE
 8
Component#1
10
355.435887947582
20
1258.20962359732
30
0.0
11
355.41957722719
21
1258.08012051915
31
0.0
  0
LINE
 8
Component#1
10
355.41957722719
20
1258.08012051915
30
0.0
11
355.370304418087
21
1257.95925167644
31
0.0
  0
LINE
 8
Component#1
10
355.370304418087
20
1257.95925167644
30
0.0
11
355.291427380788
21
1257.85525408107
31
0.0
  0
LINE
 8
Component#1
10
350.291427380788
20
1257.85525408107
30
0.0
11
350.188321455033
21
1257.7752149973
31
0.0
  0
LINE
 8
Component#1
10
350.188321455033
20
1257.7752149973
30
0.0
11
350.068013139273
21
1257.72458895643
31
0.0
  0
LINE
 8
Component#1
10
350.068013139273
20
1257.72458895643
30
0.0
11
349.938701246407
21
1257.70682603947
31
0.0
  0
LINE
 8
Component#1
10
349.938701246407
20
1257.70682603947
30
0.0
11
349.809198168236
21
1257.72313675987
31
0.0
  0
LINE
 8
Component#1
10
349.809198168236
20
1257.72313675987
30
0.0
11
349.688329325523
21
1257.77240956897
31
0.0
  0
LINE
 8
Component#1
10
349.688329325523
20
1257.77240956897
30
0.0
11
349.584331730155
21
1257.85128660627
31
0.0
  0
LINE
 8
Component#1
10
349.584331730155
20
1257.85128660627
30
0.0
11
349.504292646392
21
1257.95439253202
31
0.0
  0
LINE
 8
Component#1
10
349.504292646392
20
1257.95439253202
30
0.0
11
349.45366660552
21
1258.07470084778
31
0.0
  0
LINE
 8
Component#1
10
349.45366660552
20
1258.07470084778
30
0.0
11
349.435903688563
21
1258.20401274065
31
0.0
  0
LINE
 8
Component#1
10
349.435903688563
20
1258.20401274065
30
0.0
11
349.452214408955
21
1258.33351581882
31
0.0
  0
LINE
 8
Component#1
10
349.452214408955
20
1258.33351581882
30
0.0
11
349.501487218058
21
1258.45438466153
31
0.0
  0
LINE
 8
Component#1
10
349.501487218058
20
1258.45438466153
30
0.0
11
349.580364255357
21
1258.5583822569
31
0.0
  0
LINE
 8
Component#1
10
349.580364255357
20
1258.5583822569
30
0.0
11
349.683470181112
21
1258.63842134067
31
0.0
  0
LINE
 8
Component#1
10
349.683470181112
20
1258.63842134067
30
0.0
11
349.803778496872
21
1258.68904738154
31
0.0
  0
LINE
 8
Component#1
10
349.803778496872
20
1258.68904738154
30
0.0
11
349.933090389738
21
1258.70681029849
31
0.0
  0
LINE
 8
Component#1
10
349.933090389738
20
1258.70681029849
30
0.0
11
350.062593467909
21
1258.6904995781
31
0.0
  0
LINE
 8
Component#1
10
350.062593467909
20
1258.6904995781
30
0.0
11
350.183462310622
21
1258.641226769
31
0.0
  0
LINE
 8
Component#1
10
350.183462310622
20
1258.641226769
30
0.0
11
350.28745990599
21
1258.5623497317
31
0.0
  0
LINE
 8
Component#1
10
350.28745990599
20
1258.5623497317
30
0.0
11
350.367498989753
21
1258.45924380595
31
0.0
  0
LINE
 8
Component#1
10
350.367498989753
20
1258.45924380595
30
0.0
11
350.418125030625
21
1258.33893549018
31
0.0
  0
LINE
 8
Component#1
10
350.418125030625
20
1258.33893549018
30
0.0
11
350.435887947582
21
1258.20962359732
31
0.0
  0
LINE
 8
Component#1
10
350.435887947582
20
1258.20962359732
30
0.0
11
350.41957722719
21
1258.08012051915
31
0.0
  0
LINE
 8
Component#1
10
350.41957722719
20
1258.08012051915
30
0.0
11
350.370304418087
21
1257.95925167644
31
0.0
  0
LINE
 8
Component#1
10
350.370304418087
20
1257.95925167644
30
0.0
11
350.291427380788
21
1257.85525408107
31
0.0
  0
LINE
 8
Component#1
10
365.291427380788
20
1257.85525408107
30
0.0
11
365.188321455033
21
1257.7752149973
31
0.0
  0
LINE
 8
Component#1
10
365.188321455033
20
1257.7752149973
30
0.0
11
365.068013139273
21
1257.72458895643
31
0.0
  0
LINE
 8
Component#1
10
365.068013139273
20
1257.72458895643
30
0.0
11
364.938701246407
21
1257.70682603947
31
0.0
  0
LINE
 8
Component#1
10
364.938701246407
20
1257.70682603947
30
0.0
11
364.809198168236
21
1257.72313675987
31
0.0
  0
LINE
 8
Component#1
10
364.809198168236
20
1257.72313675987
30
0.0
11
364.688329325523
21
1257.77240956897
31
0.0
  0
LINE
 8
Component#1
10
364.688329325523
20
1257.77240956897
30
0.0
11
364.584331730155
21
1257.85128660627
31
0.0
  0
LINE
 8
Component#1
10
364.584331730155
20
1257.85128660627
30
0.0
11
364.504292646392
21
1257.95439253202
31
0.0
  0
LINE
 8
Component#1
10
364.504292646392
20
1257.95439253202
30
0.0
11
364.45366660552
21
1258.07470084778
31
0.0
  0
LINE
 8
Component#1
10
364.45366660552
20
1258.07470084778
30
0.0
11
364.435903688563
21
1258.20401274065
31
0.0
  0
LINE
 8
Component#1
10
364.435903688563
20
1258.20401274065
30
0.0
11
364.452214408955
21
1258.33351581882
31
0.0
  0
LINE
 8
Component#1
10
364.452214408955
20
1258.33351581882
30
0.0
11
364.501487218058
21
1258.45438466153
31
0.0
  0
LINE
 8
Component#1
10
364.501487218058
20
1258.45438466153
30
0.0
11
364.580364255357
21
1258.5583822569
31
0.0
  0
LINE
 8
Component#1
10
364.580364255357
20
1258.5583822569
30
0.0
11
364.683470181112
21
1258.63842134067
31
0.0
  0
LINE
 8
Component#1
10
364.683470181112
20
1258.63842134067
30
0.0
11
364.803778496872
21
1258.68904738154
31
0.0
  0
LINE
 8
Component#1
10
364.803778496872
20
1258.68904738154
30
0.0
11
364.933090389738
21
1258.70681029849
31
0.0
  0
LINE
 8
Component#1
10
364.933090389738
20
1258.70681029849
30
0.0
11
365.062593467909
21
1258.6904995781
31
0.0
  0
LINE
 8
Component#1
10
365.062593467909
20
1258.6904995781
30
0.0
11
365.183462310622
21
1258.641226769
31
0.0
  0
LINE
 8
Component#1
10
365.183462310622
20
1258.641226769
30
0.0
11
365.28745990599
21
1258.5623497317
31
0.0
  0
LINE
 8
Component#1
10
365.28745990599
20
1258.5623497317
30
0.0
11
365.367498989753
21
1258.45924380595
31
0.0
  0
LINE
 8
Component#1
10
365.367498989753
20
1258.45924380595
30
0.0
11
365.418125030625
21
1258.33893549018
31
0.0
  0
LINE
 8
Component#1
10
365.418125030625
20
1258.33893549018
30
0.0
11
365.435887947582
21
1258.20962359732
31
0.0
  0
LINE
 8
Component#1
10
365.435887947582
20
1258.20962359732
30
0.0
11
365.41957722719
21
1258.08012051915
31
0.0
  0
LINE
 8
Component#1
10
365.41957722719
20
1258.08012051915
30
0.0
11
365.370304418087
21
1257.95925167644
31
0.0
  0
LINE
 8
Component#1
10
365.370304418087
20
1257.95925167644
30
0.0
11
365.291427380788
21
1257.85525408107
31
0.0
  0
LINE
 8
Component#1
10
360.291427380788
20
1257.85525408107
30
0.0
11
360.188321455033
21
1257.7752149973
31
0.0
  0
LINE
 8
Component#1
10
360.188321455033
20
1257.7752149973
30
0.0
11
360.068013139273
21
1257.72458895643
31
0.0
  0
LINE
 8
Component#1
10
360.068013139273
20
1257.72458895643
30
0.0
11
359.938701246407
21
1257.70682603947
31
0.0
  0
LINE
 8
Component#1
10
359.938701246407
20
1257.70682603947
30
0.0
11
359.809198168236
21
1257.72313675987
31
0.0
  0
LINE
 8
Component#1
10
359.809198168236
20
1257.72313675987
30
0.0
11
359.688329325523
21
1257.77240956897
31
0.0
  0
LINE
 8
Component#1
10
359.688329325523
20
1257.77240956897
30
0.0
11
359.584331730155
21
1257.85128660627
31
0.0
  0
LINE
 8
Component#1
10
359.584331730155
20
1257.85128660627
30
0.0
11
359.504292646392
21
1257.95439253202
31
0.0
  0
LINE
 8
Component#1
10
359.504292646392
20
1257.95439253202
30
0.0
11
359.45366660552
21
1258.07470084778
31
0.0
  0
LINE
 8
Component#1
10
359.45366660552
20
1258.07470084778
30
0.0
11
359.435903688563
21
1258.20401274065
31
0.0
  0
LINE
 8
Component#1
10
359.435903688563
20
1258.20401274065
30
0.0
11
359.452214408955
21
1258.33351581882
31
0.0
  0
LINE
 8
Component#1
10
359.452214408955
20
1258.33351581882
30
0.0
11
359.501487218058
21
1258.45438466153
31
0.0
  0
LINE
 8
Component#1
10
359.501487218058
20
1258.45438466153
30
0.0
11
359.580364255357
21
1258.5583822569
31
0.0
  0
LINE
 8
Component#1
10
359.580364255357
20
1258.5583822569
30
0.0
11
359.683470181112
21
1258.63842134067
31
0.0
  0
LINE
 8
Component#1
10
359.683470181112
20
1258.63842134067
30
0.0
11
359.803778496872
21
1258.68904738154
31
0.0
  0
LINE
 8
Component#1
10
359.803778496872
20
1258.68904738154
30
0.0
11
359.933090389738
21
1258.70681029849
31
0.0
  0
LINE
 8
Component#1
10
359.933090389738
20
1258.70681029849
30
0.0
11
360.062593467909
21
1258.6904995781
31
0.0
  0
LINE
 8
Component#1
10
360.062593467909
20
1258.6904995781
30
0.0
11
360.183462310622
21
1258.641226769
31
0.0
  0
LINE
 8
Component#1
10
360.183462310622
20
1258.641226769
30
0.0
11
360.28745990599
21
1258.5623497317
31
0.0
  0
LINE
 8
Component#1
10
360.28745990599
20
1258.5623497317
30
0.0
11
360.367498989753
21
1258.45924380595
31
0.0
  0
LINE
 8
Component#1
10
360.367498989753
20
1258.45924380595
30
0.0
11
360.418125030625
21
1258.33893549018
31
0.0
  0
LINE
 8
Component#1
10
360.418125030625
20
1258.33893549018
30
0.0
11
360.435887947582
21
1258.20962359732
31
0.0
  0
LINE
 8
Component#1
10
360.435887947582
20
1258.20962359732
30
0.0
11
360.41957722719
21
1258.08012051915
31
0.0
  0
LINE
 8
Component#1
10
360.41957722719
20
1258.08012051915
30
0.0
11
360.370304418087
21
1257.95925167644
31
0.0
  0
LINE
 8
Component#1
10
360.370304418087
20
1257.95925167644
30
0.0
11
360.291427380788
21
1257.85525408107
31
0.0
  0
LINE
 8
Component#1
10
370.291427380788
20
1257.85525408107
30
0.0
11
370.188321455033
21
1257.7752149973
31
0.0
  0
LINE
 8
Component#1
10
370.188321455033
20
1257.7752149973
30
0.0
11
370.068013139273
21
1257.72458895643
31
0.0
  0
LINE
 8
Component#1
10
370.068013139273
20
1257.72458895643
30
0.0
11
369.938701246407
21
1257.70682603947
31
0.0
  0
LINE
 8
Component#1
10
369.938701246407
20
1257.70682603947
30
0.0
11
369.809198168236
21
1257.72313675987
31
0.0
  0
LINE
 8
Component#1
10
369.809198168236
20
1257.72313675987
30
0.0
11
369.688329325523
21
1257.77240956897
31
0.0
  0
LINE
 8
Component#1
10
369.688329325523
20
1257.77240956897
30
0.0
11
369.584331730155
21
1257.85128660627
31
0.0
  0
LINE
 8
Component#1
10
369.584331730155
20
1257.85128660627
30
0.0
11
369.504292646392
21
1257.95439253202
31
0.0
  0
LINE
 8
Component#1
10
369.504292646392
20
1257.95439253202
30
0.0
11
369.45366660552
21
1258.07470084778
31
0.0
  0
LINE
 8
Component#1
10
369.45366660552
20
1258.07470084778
30
0.0
11
369.435903688563
21
1258.20401274065
31
0.0
  0
LINE
 8
Component#1
10
369.435903688563
20
1258.20401274065
30
0.0
11
369.452214408955
21
1258.33351581882
31
0.0
  0
LINE
 8
Component#1
10
369.452214408955
20
1258.33351581882
30
0.0
11
369.501487218058
21
1258.45438466153
31
0.0
  0
LINE
 8
Component#1
10
369.501487218058
20
1258.45438466153
30
0.0
11
369.580364255357
21
1258.5583822569
31
0.0
  0
LINE
 8
Component#1
10
369.580364255357
20
1258.5583822569
30
0.0
11
369.683470181112
21
1258.63842134067
31
0.0
  0
LINE
 8
Component#1
10
369.683470181112
20
1258.63842134067
30
0.0
11
369.803778496872
21
1258.68904738154
31
0.0
  0
LINE
 8
Component#1
10
369.803778496872
20
1258.68904738154
30
0.0
11
369.933090389738
21
1258.70681029849
31
0.0
  0
LINE
 8
Component#1
10
369.933090389738
20
1258.70681029849
30
0.0
11
370.062593467909
21
1258.6904995781
31
0.0
  0
LINE
 8
Component#1
10
370.062593467909
20
1258.6904995781
30
0.0
11
370.183462310622
21
1258.641226769
31
0.0
  0
LINE
 8
Component#1
10
370.183462310622
20
1258.641226769
30
0.0
11
370.28745990599
21
1258.5623497317
31
0.0
  0
LINE
 8
Component#1
10
370.28745990599
20
1258.5623497317
30
0.0
11
370.367498989753
21
1258.45924380595
31
0.0
  0
LINE
 8
Component#1
10
370.367498989753
20
1258.45924380595
30
0.0
11
370.418125030625
21
1258.33893549018
31
0.0
  0
LINE
 8
Component#1
10
370.418125030625
20
1258.33893549018
30
0.0
11
370.435887947582
21
1258.20962359732
31
0.0
  0
LINE
 8
Component#1
10
370.435887947582
20
1258.20962359732
30
0.0
11
370.41957722719
21
1258.08012051915
31
0.0
  0
LINE
 8
Component#1
10
370.41957722719
20
1258.08012051915
30
0.0
11
370.370304418087
21
1257.95925167644
31
0.0
  0
LINE
 8
Component#1
10
370.370304418087
20
1257.95925167644
30
0.0
11
370.291427380788
21
1257.85525408107
31
0.0
  0
LINE
 8
Component#1
10
325.291427380788
20
1257.85525408107
30
0.0
11
325.188321455033
21
1257.7752149973
31
0.0
  0
LINE
 8
Component#1
10
325.188321455033
20
1257.7752149973
30
0.0
11
325.068013139273
21
1257.72458895643
31
0.0
  0
LINE
 8
Component#1
10
325.068013139273
20
1257.72458895643
30
0.0
11
324.938701246407
21
1257.70682603947
31
0.0
  0
LINE
 8
Component#1
10
324.938701246407
20
1257.70682603947
30
0.0
11
324.809198168236
21
1257.72313675987
31
0.0
  0
LINE
 8
Component#1
10
324.809198168236
20
1257.72313675987
30
0.0
11
324.688329325523
21
1257.77240956897
31
0.0
  0
LINE
 8
Component#1
10
324.688329325523
20
1257.77240956897
30
0.0
11
324.584331730155
21
1257.85128660627
31
0.0
  0
LINE
 8
Component#1
10
324.584331730155
20
1257.85128660627
30
0.0
11
324.504292646392
21
1257.95439253202
31
0.0
  0
LINE
 8
Component#1
10
324.504292646392
20
1257.95439253202
30
0.0
11
324.45366660552
21
1258.07470084778
31
0.0
  0
LINE
 8
Component#1
10
324.45366660552
20
1258.07470084778
30
0.0
11
324.435903688563
21
1258.20401274065
31
0.0
  0
LINE
 8
Component#1
10
324.435903688563
20
1258.20401274065
30
0.0
11
324.452214408955
21
1258.33351581882
31
0.0
  0
LINE
 8
Component#1
10
324.452214408955
20
1258.33351581882
30
0.0
11
324.501487218058
21
1258.45438466153
31
0.0
  0
LINE
 8
Component#1
10
324.501487218058
20
1258.45438466153
30
0.0
11
324.580364255357
21
1258.5583822569
31
0.0
  0
LINE
 8
Component#1
10
324.580364255357
20
1258.5583822569
30
0.0
11
324.683470181112
21
1258.63842134067
31
0.0
  0
LINE
 8
Component#1
10
324.683470181112
20
1258.63842134067
30
0.0
11
324.803778496872
21
1258.68904738154
31
0.0
  0
LINE
 8
Component#1
10
324.803778496872
20
1258.68904738154
30
0.0
11
324.933090389738
21
1258.70681029849
31
0.0
  0
LINE
 8
Component#1
10
324.933090389738
20
1258.70681029849
30
0.0
11
325.062593467909
21
1258.6904995781
31
0.0
  0
LINE
 8
Component#1
10
325.062593467909
20
1258.6904995781
30
0.0
11
325.183462310622
21
1258.641226769
31
0.0
  0
LINE
 8
Component#1
10
325.183462310622
20
1258.641226769
30
0.0
11
325.28745990599
21
1258.5623497317
31
0.0
  0
LINE
 8
Component#1
10
325.28745990599
20
1258.5623497317
30
0.0
11
325.367498989753
21
1258.45924380595
31
0.0
  0
LINE
 8
Component#1
10
325.367498989753
20
1258.45924380595
30
0.0
11
325.418125030625
21
1258.33893549018
31
0.0
  0
LINE
 8
Component#1
10
325.418125030625
20
1258.33893549018
30
0.0
11
325.435887947582
21
1258.20962359732
31
0.0
  0
LINE
 8
Component#1
10
325.435887947582
20
1258.20962359732
30
0.0
11
325.41957722719
21
1258.08012051915
31
0.0
  0
LINE
 8
Component#1
10
325.41957722719
20
1258.08012051915
30
0.0
11
325.370304418087
21
1257.95925167644
31
0.0
  0
LINE
 8
Component#1
10
325.370304418087
20
1257.95925167644
30
0.0
11
325.291427380788
21
1257.85525408107
31
0.0
  0
LINE
 8
Component#1
10
320.291427380788
20
1257.85525408107
30
0.0
11
320.188321455033
21
1257.7752149973
31
0.0
  0
LINE
 8
Component#1
10
320.188321455033
20
1257.7752149973
30
0.0
11
320.068013139273
21
1257.72458895643
31
0.0
  0
LINE
 8
Component#1
10
320.068013139273
20
1257.72458895643
30
0.0
11
319.938701246407
21
1257.70682603947
31
0.0
  0
LINE
 8
Component#1
10
319.938701246407
20
1257.70682603947
30
0.0
11
319.809198168236
21
1257.72313675987
31
0.0
  0
LINE
 8
Component#1
10
319.809198168236
20
1257.72313675987
30
0.0
11
319.688329325523
21
1257.77240956897
31
0.0
  0
LINE
 8
Component#1
10
319.688329325523
20
1257.77240956897
30
0.0
11
319.584331730155
21
1257.85128660627
31
0.0
  0
LINE
 8
Component#1
10
319.584331730155
20
1257.85128660627
30
0.0
11
319.504292646392
21
1257.95439253202
31
0.0
  0
LINE
 8
Component#1
10
319.504292646392
20
1257.95439253202
30
0.0
11
319.45366660552
21
1258.07470084778
31
0.0
  0
LINE
 8
Component#1
10
319.45366660552
20
1258.07470084778
30
0.0
11
319.435903688563
21
1258.20401274065
31
0.0
  0
LINE
 8
Component#1
10
319.435903688563
20
1258.20401274065
30
0.0
11
319.452214408955
21
1258.33351581882
31
0.0
  0
LINE
 8
Component#1
10
319.452214408955
20
1258.33351581882
30
0.0
11
319.501487218058
21
1258.45438466153
31
0.0
  0
LINE
 8
Component#1
10
319.501487218058
20
1258.45438466153
30
0.0
11
319.580364255357
21
1258.5583822569
31
0.0
  0
LINE
 8
Component#1
10
319.580364255357
20
1258.5583822569
30
0.0
11
319.683470181112
21
1258.63842134067
31
0.0
  0
LINE
 8
Component#1
10
319.683470181112
20
1258.63842134067
30
0.0
11
319.803778496872
21
1258.68904738154
31
0.0
  0
LINE
 8
Component#1
10
319.803778496872
20
1258.68904738154
30
0.0
11
319.933090389738
21
1258.70681029849
31
0.0
  0
LINE
 8
Component#1
10
319.933090389738
20
1258.70681029849
30
0.0
11
320.062593467909
21
1258.6904995781
31
0.0
  0
LINE
 8
Component#1
10
320.062593467909
20
1258.6904995781
30
0.0
11
320.183462310622
21
1258.641226769
31
0.0
  0
LINE
 8
Component#1
10
320.183462310622
20
1258.641226769
30
0.0
11
320.28745990599
21
1258.5623497317
31
0.0
  0
LINE
 8
Component#1
10
320.28745990599
20
1258.5623497317
30
0.0
11
320.367498989753
21
1258.45924380595
31
0.0
  0
LINE
 8
Component#1
10
320.367498989753
20
1258.45924380595
30
0.0
11
320.418125030625
21
1258.33893549018
31
0.0
  0
LINE
 8
Component#1
10
320.418125030625
20
1258.33893549018
30
0.0
11
320.435887947582
21
1258.20962359732
31
0.0
  0
LINE
 8
Component#1
10
320.435887947582
20
1258.20962359732
30
0.0
11
320.41957722719
21
1258.08012051915
31
0.0
  0
LINE
 8
Component#1
10
320.41957722719
20
1258.08012051915
30
0.0
11
320.370304418087
21
1257.95925167644
31
0.0
  0
LINE
 8
Component#1
10
320.370304418087
20
1257.95925167644
30
0.0
11
320.291427380788
21
1257.85525408107
31
0.0
  0
LINE
 8
Component#1
10
335.291427380788
20
1257.85525408107
30
0.0
11
335.188321455033
21
1257.7752149973
31
0.0
  0
LINE
 8
Component#1
10
335.188321455033
20
1257.7752149973
30
0.0
11
335.068013139273
21
1257.72458895643
31
0.0
  0
LINE
 8
Component#1
10
335.068013139273
20
1257.72458895643
30
0.0
11
334.938701246407
21
1257.70682603947
31
0.0
  0
LINE
 8
Component#1
10
334.938701246407
20
1257.70682603947
30
0.0
11
334.809198168236
21
1257.72313675987
31
0.0
  0
LINE
 8
Component#1
10
334.809198168236
20
1257.72313675987
30
0.0
11
334.688329325523
21
1257.77240956897
31
0.0
  0
LINE
 8
Component#1
10
334.688329325523
20
1257.77240956897
30
0.0
11
334.584331730155
21
1257.85128660627
31
0.0
  0
LINE
 8
Component#1
10
334.584331730155
20
1257.85128660627
30
0.0
11
334.504292646392
21
1257.95439253202
31
0.0
  0
LINE
 8
Component#1
10
334.504292646392
20
1257.95439253202
30
0.0
11
334.45366660552
21
1258.07470084778
31
0.0
  0
LINE
 8
Component#1
10
334.45366660552
20
1258.07470084778
30
0.0
11
334.435903688563
21
1258.20401274065
31
0.0
  0
LINE
 8
Component#1
10
334.435903688563
20
1258.20401274065
30
0.0
11
334.452214408955
21
1258.33351581882
31
0.0
  0
LINE
 8
Component#1
10
334.452214408955
20
1258.33351581882
30
0.0
11
334.501487218057
21
1258.45438466153
31
0.0
  0
LINE
 8
Component#1
10
334.501487218057
20
1258.45438466153
30
0.0
11
334.580364255357
21
1258.5583822569
31
0.0
  0
LINE
 8
Component#1
10
334.580364255357
20
1258.5583822569
30
0.0
11
334.683470181112
21
1258.63842134067
31
0.0
  0
LINE
 8
Component#1
10
334.683470181112
20
1258.63842134067
30
0.0
11
334.803778496872
21
1258.68904738154
31
0.0
  0
LINE
 8
Component#1
10
334.803778496872
20
1258.68904738154
30
0.0
11
334.933090389738
21
1258.70681029849
31
0.0
  0
LINE
 8
Component#1
10
334.933090389738
20
1258.70681029849
30
0.0
11
335.062593467909
21
1258.6904995781
31
0.0
  0
LINE
 8
Component#1
10
335.062593467909
20
1258.6904995781
30
0.0
11
335.183462310621
21
1258.641226769
31
0.0
  0
LINE
 8
Component#1
10
335.183462310621
20
1258.641226769
30
0.0
11
335.28745990599
21
1258.5623497317
31
0.0
  0
LINE
 8
Component#1
10
335.28745990599
20
1258.5623497317
30
0.0
11
335.367498989753
21
1258.45924380595
31
0.0
  0
LINE
 8
Component#1
10
335.367498989753
20
1258.45924380595
30
0.0
11
335.418125030625
21
1258.33893549018
31
0.0
  0
LINE
 8
Component#1
10
335.418125030625
20
1258.33893549018
30
0.0
11
335.435887947582
21
1258.20962359732
31
0.0
  0
LINE
 8
Component#1
10
335.435887947582
20
1258.20962359732
30
0.0
11
335.41957722719
21
1258.08012051915
31
0.0
  0
LINE
 8
Component#1
10
335.41957722719
20
1258.08012051915
30
0.0
11
335.370304418087
21
1257.95925167644
31
0.0
  0
LINE
 8
Component#1
10
335.370304418087
20
1257.95925167644
30
0.0
11
335.291427380788
21
1257.85525408107
31
0.0
  0
LINE
 8
Layer0
10
366.435895818072
20
1189.70681816898
30
0.0
11
276.435895818072
21
1189.70681816898
31
0.0
  0
LINE
 8
Layer0
10
276.435895818072
20
1186.37556230242
30
0.0
11
276.435895818072
21
1189.70681816898
31
0.0
  0
LINE
 8
Layer0
10
370.435887947582
20
1189.70681816898
30
0.0
11
366.435895818072
21
1189.70681816898
31
0.0
  0
LINE
 8
Component#1
10
280.291427380788
20
1203.55839012739
30
0.0
11
280.188321455033
21
1203.63842921116
31
0.0
  0
LINE
 8
Component#1
10
280.188321455033
20
1203.63842921116
30
0.0
11
280.068013139273
21
1203.68905525203
31
0.0
  0
LINE
 8
Component#1
10
280.068013139273
20
1203.68905525203
30
0.0
11
279.938701246407
21
1203.70681816898
31
0.0
  0
LINE
 8
Component#1
10
279.938701246407
20
1203.70681816898
30
0.0
11
279.809198168236
21
1203.69050744859
31
0.0
  0
LINE
 8
Component#1
10
279.809198168236
20
1203.69050744859
30
0.0
11
279.688329325523
21
1203.64123463949
31
0.0
  0
LINE
 8
Component#1
10
279.688329325523
20
1203.64123463949
30
0.0
11
279.584331730155
21
1203.56235760219
31
0.0
  0
LINE
 8
Component#1
10
279.584331730155
20
1203.56235760219
30
0.0
11
279.504292646392
21
1203.45925167644
31
0.0
  0
LINE
 8
Component#1
10
279.504292646392
20
1203.45925167644
30
0.0
11
279.45366660552
21
1203.33894336067
31
0.0
  0
LINE
 8
Component#1
10
279.45366660552
20
1203.33894336067
30
0.0
11
279.435903688563
21
1203.20963146781
31
0.0
  0
LINE
 8
Component#1
10
279.435903688563
20
1203.20963146781
30
0.0
11
279.452214408955
21
1203.08012838964
31
0.0
  0
LINE
 8
Component#1
10
279.452214408955
20
1203.08012838964
30
0.0
11
279.501487218058
21
1202.95925954693
31
0.0
  0
LINE
 8
Component#1
10
279.501487218058
20
1202.95925954693
30
0.0
11
279.580364255357
21
1202.85526195156
31
0.0
  0
LINE
 8
Component#1
10
279.580364255357
20
1202.85526195156
30
0.0
11
279.683470181112
21
1202.77522286779
31
0.0
  0
LINE
 8
Component#1
10
279.683470181112
20
1202.77522286779
30
0.0
11
279.803778496872
21
1202.72459682692
31
0.0
  0
LINE
 8
Component#1
10
279.803778496872
20
1202.72459682692
30
0.0
11
279.933090389738
21
1202.70683390996
31
0.0
  0
LINE
 8
Component#1
10
279.933090389738
20
1202.70683390996
30
0.0
11
280.062593467909
21
1202.72314463036
31
0.0
  0
LINE
 8
Component#1
10
280.062593467909
20
1202.72314463036
30
0.0
11
280.183462310622
21
1202.77241743946
31
0.0
  0
LINE
 8
Component#1
10
280.183462310622
20
1202.77241743946
30
0.0
11
280.28745990599
21
1202.85129447676
31
0.0
  0
LINE
 8
Component#1
10
280.28745990599
20
1202.85129447676
30
0.0
11
280.367498989753
21
1202.95440040251
31
0.0
  0
LINE
 8
Component#1
10
280.367498989753
20
1202.95440040251
30
0.0
11
280.418125030625
21
1203.07470871827
31
0.0
  0
LINE
 8
Component#1
10
280.418125030625
20
1203.07470871827
30
0.0
11
280.435887947582
21
1203.20402061114
31
0.0
  0
LINE
 8
Component#1
10
280.435887947582
20
1203.20402061114
30
0.0
11
280.41957722719
21
1203.33352368931
31
0.0
  0
LINE
 8
Component#1
10
280.41957722719
20
1203.33352368931
30
0.0
11
280.370304418087
21
1203.45439253202
31
0.0
  0
LINE
 8
Component#1
10
280.370304418087
20
1203.45439253202
30
0.0
11
280.291427380788
21
1203.55839012739
31
0.0
  0
LINE
 8
Component#1
10
330.291427380788
20
1185.85525408107
30
0.0
11
330.188321455033
21
1185.7752149973
31
0.0
  0
LINE
 8
Component#1
10
330.188321455033
20
1185.7752149973
30
0.0
11
330.068013139273
21
1185.72458895643
31
0.0
  0
LINE
 8
Component#1
10
330.068013139273
20
1185.72458895643
30
0.0
11
329.938701246407
21
1185.70682603947
31
0.0
  0
LINE
 8
Component#1
10
329.938701246407
20
1185.70682603947
30
0.0
11
329.809198168236
21
1185.72313675987
31
0.0
  0
LINE
 8
Component#1
10
329.809198168236
20
1185.72313675987
30
0.0
11
329.688329325523
21
1185.77240956897
31
0.0
  0
LINE
 8
Component#1
10
329.688329325523
20
1185.77240956897
30
0.0
11
329.584331730155
21
1185.85128660627
31
0.0
  0
LINE
 8
Component#1
10
329.584331730155
20
1185.85128660627
30
0.0
11
329.504292646392
21
1185.95439253202
31
0.0
  0
LINE
 8
Component#1
10
329.504292646392
20
1185.95439253202
30
0.0
11
329.45366660552
21
1186.07470084778
31
0.0
  0
LINE
 8
Component#1
10
329.45366660552
20
1186.07470084778
30
0.0
11
329.435903688563
21
1186.20401274065
31
0.0
  0
LINE
 8
Component#1
10
329.435903688563
20
1186.20401274065
30
0.0
11
329.452214408955
21
1186.33351581882
31
0.0
  0
LINE
 8
Component#1
10
329.452214408955
20
1186.33351581882
30
0.0
11
329.501487218058
21
1186.45438466153
31
0.0
  0
LINE
 8
Component#1
10
329.501487218058
20
1186.45438466153
30
0.0
11
329.580364255357
21
1186.5583822569
31
0.0
  0
LINE
 8
Component#1
10
329.580364255357
20
1186.5583822569
30
0.0
11
329.683470181112
21
1186.63842134067
31
0.0
  0
LINE
 8
Component#1
10
329.683470181112
20
1186.63842134067
30
0.0
11
329.803778496872
21
1186.68904738154
31
0.0
  0
LINE
 8
Component#1
10
329.803778496872
20
1186.68904738154
30
0.0
11
329.933090389738
21
1186.70681029849
31
0.0
  0
LINE
 8
Component#1
10
329.933090389738
20
1186.70681029849
30
0.0
11
330.062593467909
21
1186.6904995781
31
0.0
  0
LINE
 8
Component#1
10
330.062593467909
20
1186.6904995781
30
0.0
11
330.183462310622
21
1186.641226769
31
0.0
  0
LINE
 8
Component#1
10
330.183462310622
20
1186.641226769
30
0.0
11
330.28745990599
21
1186.5623497317
31
0.0
  0
LINE
 8
Component#1
10
330.28745990599
20
1186.5623497317
30
0.0
11
330.367498989753
21
1186.45924380595
31
0.0
  0
LINE
 8
Component#1
10
330.367498989753
20
1186.45924380595
30
0.0
11
330.418125030625
21
1186.33893549018
31
0.0
  0
LINE
 8
Component#1
10
330.418125030625
20
1186.33893549018
30
0.0
11
330.435887947582
21
1186.20962359732
31
0.0
  0
LINE
 8
Component#1
10
330.435887947582
20
1186.20962359732
30
0.0
11
330.41957722719
21
1186.08012051915
31
0.0
  0
LINE
 8
Component#1
10
330.41957722719
20
1186.08012051915
30
0.0
11
330.370304418087
21
1185.95925167644
31
0.0
  0
LINE
 8
Component#1
10
330.370304418087
20
1185.95925167644
30
0.0
11
330.291427380788
21
1185.85525408107
31
0.0
  0
LINE
 8
Component#1
10
345.291427380788
20
1185.85525408107
30
0.0
11
345.188321455033
21
1185.7752149973
31
0.0
  0
LINE
 8
Component#1
10
345.188321455033
20
1185.7752149973
30
0.0
11
345.068013139273
21
1185.72458895643
31
0.0
  0
LINE
 8
Component#1
10
345.068013139273
20
1185.72458895643
30
0.0
11
344.938701246407
21
1185.70682603947
31
0.0
  0
LINE
 8
Component#1
10
344.938701246407
20
1185.70682603947
30
0.0
11
344.809198168236
21
1185.72313675987
31
0.0
  0
LINE
 8
Component#1
10
344.809198168236
20
1185.72313675987
30
0.0
11
344.688329325523
21
1185.77240956897
31
0.0
  0
LINE
 8
Component#1
10
344.688329325523
20
1185.77240956897
30
0.0
11
344.584331730155
21
1185.85128660627
31
0.0
  0
LINE
 8
Component#1
10
344.584331730155
20
1185.85128660627
30
0.0
11
344.504292646392
21
1185.95439253202
31
0.0
  0
LINE
 8
Component#1
10
344.504292646392
20
1185.95439253202
30
0.0
11
344.45366660552
21
1186.07470084778
31
0.0
  0
LINE
 8
Component#1
10
344.45366660552
20
1186.07470084778
30
0.0
11
344.435903688563
21
1186.20401274065
31
0.0
  0
LINE
 8
Component#1
10
344.435903688563
20
1186.20401274065
30
0.0
11
344.452214408955
21
1186.33351581882
31
0.0
  0
LINE
 8
Component#1
10
344.452214408955
20
1186.33351581882
30
0.0
11
344.501487218058
21
1186.45438466153
31
0.0
  0
LINE
 8
Component#1
10
344.501487218058
20
1186.45438466153
30
0.0
11
344.580364255357
21
1186.5583822569
31
0.0
  0
LINE
 8
Component#1
10
344.580364255357
20
1186.5583822569
30
0.0
11
344.683470181112
21
1186.63842134067
31
0.0
  0
LINE
 8
Component#1
10
344.683470181112
20
1186.63842134067
30
0.0
11
344.803778496872
21
1186.68904738154
31
0.0
  0
LINE
 8
Component#1
10
344.803778496872
20
1186.68904738154
30
0.0
11
344.933090389738
21
1186.70681029849
31
0.0
  0
LINE
 8
Component#1
10
344.933090389738
20
1186.70681029849
30
0.0
11
345.062593467909
21
1186.6904995781
31
0.0
  0
LINE
 8
Component#1
10
345.062593467909
20
1186.6904995781
30
0.0
11
345.183462310622
21
1186.641226769
31
0.0
  0
LINE
 8
Component#1
10
345.183462310622
20
1186.641226769
30
0.0
11
345.28745990599
21
1186.5623497317
31
0.0
  0
LINE
 8
Component#1
10
345.28745990599
20
1186.5623497317
30
0.0
11
345.367498989753
21
1186.45924380595
31
0.0
  0
LINE
 8
Component#1
10
345.367498989753
20
1186.45924380595
30
0.0
11
345.418125030625
21
1186.33893549018
31
0.0
  0
LINE
 8
Component#1
10
345.418125030625
20
1186.33893549018
30
0.0
11
345.435887947582
21
1186.20962359732
31
0.0
  0
LINE
 8
Component#1
10
345.435887947582
20
1186.20962359732
30
0.0
11
345.41957722719
21
1186.08012051915
31
0.0
  0
LINE
 8
Component#1
10
345.41957722719
20
1186.08012051915
30
0.0
11
345.370304418087
21
1185.95925167644
31
0.0
  0
LINE
 8
Component#1
10
345.370304418087
20
1185.95925167644
30
0.0
11
345.291427380788
21
1185.85525408107
31
0.0
  0
LINE
 8
Component#1
10
295.291427380788
20
1126.55839012739
30
0.0
11
295.188321455033
21
1126.63842921116
31
0.0
  0
LINE
 8
Component#1
10
295.188321455033
20
1126.63842921116
30
0.0
11
295.068013139273
21
1126.68905525203
31
0.0
  0
LINE
 8
Component#1
10
295.068013139273
20
1126.68905525203
30
0.0
11
294.938701246406
21
1126.70681816898
31
0.0
  0
LINE
 8
Component#1
10
294.938701246406
20
1126.70681816898
30
0.0
11
294.809198168236
21
1126.69050744859
31
0.0
  0
LINE
 8
Component#1
10
294.809198168236
20
1126.69050744859
30
0.0
11
294.688329325523
21
1126.64123463949
31
0.0
  0
LINE
 8
Component#1
10
294.688329325523
20
1126.64123463949
30
0.0
11
294.584331730155
21
1126.56235760219
31
0.0
  0
LINE
 8
Component#1
10
294.584331730155
20
1126.56235760219
30
0.0
11
294.504292646392
21
1126.45925167644
31
0.0
  0
LINE
 8
Component#1
10
294.504292646392
20
1126.45925167644
30
0.0
11
294.45366660552
21
1126.33894336067
31
0.0
  0
LINE
 8
Component#1
10
294.45366660552
20
1126.33894336067
30
0.0
11
294.435903688563
21
1126.20963146781
31
0.0
  0
LINE
 8
Component#1
10
294.435903688563
20
1126.20963146781
30
0.0
11
294.452214408955
21
1126.08012838964
31
0.0
  0
LINE
 8
Component#1
10
294.452214408955
20
1126.08012838964
30
0.0
11
294.501487218057
21
1125.95925954693
31
0.0
  0
LINE
 8
Component#1
10
294.501487218057
20
1125.95925954693
30
0.0
11
294.580364255357
21
1125.85526195156
31
0.0
  0
LINE
 8
Component#1
10
294.580364255357
20
1125.85526195156
30
0.0
11
294.683470181112
21
1125.77522286779
31
0.0
  0
LINE
 8
Component#1
10
294.683470181112
20
1125.77522286779
30
0.0
11
294.803778496872
21
1125.72459682692
31
0.0
  0
LINE
 8
Component#1
10
294.803778496872
20
1125.72459682692
30
0.0
11
294.933090389738
21
1125.70683390996
31
0.0
  0
LINE
 8
Component#1
10
294.933090389738
20
1125.70683390996
30
0.0
11
295.062593467909
21
1125.72314463036
31
0.0
  0
LINE
 8
Component#1
10
295.062593467909
20
1125.72314463036
30
0.0
11
295.183462310621
21
1125.77241743946
31
0.0
  0
LINE
 8
Component#1
10
295.183462310621
20
1125.77241743946
30
0.0
11
295.28745990599
21
1125.85129447676
31
0.0
  0
LINE
 8
Component#1
10
295.28745990599
20
1125.85129447676
30
0.0
11
295.367498989753
21
1125.95440040251
31
0.0
  0
LINE
 8
Component#1
10
295.367498989753
20
1125.95440040251
30
0.0
11
295.418125030625
21
1126.07470871827
31
0.0
  0
LINE
 8
Component#1
10
295.418125030625
20
1126.07470871827
30
0.0
11
295.435887947582
21
1126.20402061114
31
0.0
  0
LINE
 8
Component#1
10
295.435887947582
20
1126.20402061114
30
0.0
11
295.41957722719
21
1126.33352368931
31
0.0
  0
LINE
 8
Component#1
10
295.41957722719
20
1126.33352368931
30
0.0
11
295.370304418087
21
1126.45439253202
31
0.0
  0
LINE
 8
Component#1
10
295.370304418087
20
1126.45439253202
30
0.0
11
295.291427380788
21
1126.55839012739
31
0.0
  0
LINE
 8
Component#1
10
280.291427380788
20
1126.55839012739
30
0.0
11
280.188321455033
21
1126.63842921116
31
0.0
  0
LINE
 8
Component#1
10
280.188321455033
20
1126.63842921116
30
0.0
11
280.068013139273
21
1126.68905525203
31
0.0
  0
LINE
 8
Component#1
10
280.068013139273
20
1126.68905525203
30
0.0
11
279.938701246407
21
1126.70681816898
31
0.0
  0
LINE
 8
Component#1
10
279.938701246407
20
1126.70681816898
30
0.0
11
279.809198168236
21
1126.69050744859
31
0.0
  0
LINE
 8
Component#1
10
279.809198168236
20
1126.69050744859
30
0.0
11
279.688329325523
21
1126.64123463949
31
0.0
  0
LINE
 8
Component#1
10
279.688329325523
20
1126.64123463949
30
0.0
11
279.584331730155
21
1126.56235760219
31
0.0
  0
LINE
 8
Component#1
10
279.584331730155
20
1126.56235760219
30
0.0
11
279.504292646392
21
1126.45925167644
31
0.0
  0
LINE
 8
Component#1
10
279.504292646392
20
1126.45925167644
30
0.0
11
279.45366660552
21
1126.33894336067
31
0.0
  0
LINE
 8
Component#1
10
279.45366660552
20
1126.33894336067
30
0.0
11
279.435903688563
21
1126.20963146781
31
0.0
  0
LINE
 8
Component#1
10
279.435903688563
20
1126.20963146781
30
0.0
11
279.452214408955
21
1126.08012838964
31
0.0
  0
LINE
 8
Component#1
10
279.452214408955
20
1126.08012838964
30
0.0
11
279.501487218058
21
1125.95925954693
31
0.0
  0
LINE
 8
Component#1
10
279.501487218058
20
1125.95925954693
30
0.0
11
279.580364255357
21
1125.85526195156
31
0.0
  0
LINE
 8
Component#1
10
279.580364255357
20
1125.85526195156
30
0.0
11
279.683470181112
21
1125.77522286779
31
0.0
  0
LINE
 8
Component#1
10
279.683470181112
20
1125.77522286779
30
0.0
11
279.803778496872
21
1125.72459682692
31
0.0
  0
LINE
 8
Component#1
10
279.803778496872
20
1125.72459682692
30
0.0
11
279.933090389738
21
1125.70683390996
31
0.0
  0
LINE
 8
Component#1
10
279.933090389738
20
1125.70683390996
30
0.0
11
280.062593467909
21
1125.72314463036
31
0.0
  0
LINE
 8
Component#1
10
280.062593467909
20
1125.72314463036
30
0.0
11
280.183462310622
21
1125.77241743946
31
0.0
  0
LINE
 8
Component#1
10
280.183462310622
20
1125.77241743946
30
0.0
11
280.28745990599
21
1125.85129447676
31
0.0
  0
LINE
 8
Component#1
10
280.28745990599
20
1125.85129447676
30
0.0
11
280.367498989753
21
1125.95440040251
31
0.0
  0
LINE
 8
Component#1
10
280.367498989753
20
1125.95440040251
30
0.0
11
280.418125030625
21
1126.07470871827
31
0.0
  0
LINE
 8
Component#1
10
280.418125030625
20
1126.07470871827
30
0.0
11
280.435887947582
21
1126.20402061114
31
0.0
  0
LINE
 8
Component#1
10
280.435887947582
20
1126.20402061114
30
0.0
11
280.41957722719
21
1126.33352368931
31
0.0
  0
LINE
 8
Component#1
10
280.41957722719
20
1126.33352368931
30
0.0
11
280.370304418087
21
1126.45439253202
31
0.0
  0
LINE
 8
Component#1
10
280.370304418087
20
1126.45439253202
30
0.0
11
280.291427380788
21
1126.55839012739
31
0.0
  0
LINE
 8
Component#1
10
285.291427380788
20
1126.55839012739
30
0.0
11
285.188321455033
21
1126.63842921116
31
0.0
  0
LINE
 8
Component#1
10
285.188321455033
20
1126.63842921116
30
0.0
11
285.068013139273
21
1126.68905525203
31
0.0
  0
LINE
 8
Component#1
10
285.068013139273
20
1126.68905525203
30
0.0
11
284.938701246407
21
1126.70681816898
31
0.0
  0
LINE
 8
Component#1
10
284.938701246407
20
1126.70681816898
30
0.0
11
284.809198168236
21
1126.69050744859
31
0.0
  0
LINE
 8
Component#1
10
284.809198168236
20
1126.69050744859
30
0.0
11
284.688329325523
21
1126.64123463949
31
0.0
  0
LINE
 8
Component#1
10
284.688329325523
20
1126.64123463949
30
0.0
11
284.584331730155
21
1126.56235760219
31
0.0
  0
LINE
 8
Component#1
10
284.584331730155
20
1126.56235760219
30
0.0
11
284.504292646392
21
1126.45925167644
31
0.0
  0
LINE
 8
Component#1
10
284.504292646392
20
1126.45925167644
30
0.0
11
284.45366660552
21
1126.33894336067
31
0.0
  0
LINE
 8
Component#1
10
284.45366660552
20
1126.33894336067
30
0.0
11
284.435903688563
21
1126.20963146781
31
0.0
  0
LINE
 8
Component#1
10
284.435903688563
20
1126.20963146781
30
0.0
11
284.452214408955
21
1126.08012838964
31
0.0
  0
LINE
 8
Component#1
10
284.452214408955
20
1126.08012838964
30
0.0
11
284.501487218057
21
1125.95925954693
31
0.0
  0
LINE
 8
Component#1
10
284.501487218057
20
1125.95925954693
30
0.0
11
284.580364255357
21
1125.85526195156
31
0.0
  0
LINE
 8
Component#1
10
284.580364255357
20
1125.85526195156
30
0.0
11
284.683470181112
21
1125.77522286779
31
0.0
  0
LINE
 8
Component#1
10
284.683470181112
20
1125.77522286779
30
0.0
11
284.803778496872
21
1125.72459682692
31
0.0
  0
LINE
 8
Component#1
10
284.803778496872
20
1125.72459682692
30
0.0
11
284.933090389738
21
1125.70683390996
31
0.0
  0
LINE
 8
Component#1
10
284.933090389738
20
1125.70683390996
30
0.0
11
285.062593467909
21
1125.72314463036
31
0.0
  0
LINE
 8
Component#1
10
285.062593467909
20
1125.72314463036
30
0.0
11
285.183462310621
21
1125.77241743946
31
0.0
  0
LINE
 8
Component#1
10
285.183462310621
20
1125.77241743946
30
0.0
11
285.28745990599
21
1125.85129447676
31
0.0
  0
LINE
 8
Component#1
10
285.28745990599
20
1125.85129447676
30
0.0
11
285.367498989753
21
1125.95440040251
31
0.0
  0
LINE
 8
Component#1
10
285.367498989753
20
1125.95440040251
30
0.0
11
285.418125030625
21
1126.07470871827
31
0.0
  0
LINE
 8
Component#1
10
285.418125030625
20
1126.07470871827
30
0.0
11
285.435887947582
21
1126.20402061114
31
0.0
  0
LINE
 8
Component#1
10
285.435887947582
20
1126.20402061114
30
0.0
11
285.41957722719
21
1126.33352368931
31
0.0
  0
LINE
 8
Component#1
10
285.41957722719
20
1126.33352368931
30
0.0
11
285.370304418087
21
1126.45439253202
31
0.0
  0
LINE
 8
Component#1
10
285.370304418087
20
1126.45439253202
30
0.0
11
285.291427380788
21
1126.55839012739
31
0.0
  0
LINE
 8
Component#1
10
305.291427380788
20
1126.55839012739
30
0.0
11
305.188321455033
21
1126.63842921116
31
0.0
  0
LINE
 8
Component#1
10
305.188321455033
20
1126.63842921116
30
0.0
11
305.068013139273
21
1126.68905525203
31
0.0
  0
LINE
 8
Component#1
10
305.068013139273
20
1126.68905525203
30
0.0
11
304.938701246407
21
1126.70681816898
31
0.0
  0
LINE
 8
Component#1
10
304.938701246407
20
1126.70681816898
30
0.0
11
304.809198168236
21
1126.69050744859
31
0.0
  0
LINE
 8
Component#1
10
304.809198168236
20
1126.69050744859
30
0.0
11
304.688329325523
21
1126.64123463949
31
0.0
  0
LINE
 8
Component#1
10
304.688329325523
20
1126.64123463949
30
0.0
11
304.584331730155
21
1126.56235760219
31
0.0
  0
LINE
 8
Component#1
10
304.584331730155
20
1126.56235760219
30
0.0
11
304.504292646392
21
1126.45925167644
31
0.0
  0
LINE
 8
Component#1
10
304.504292646392
20
1126.45925167644
30
0.0
11
304.45366660552
21
1126.33894336067
31
0.0
  0
LINE
 8
Component#1
10
304.45366660552
20
1126.33894336067
30
0.0
11
304.435903688563
21
1126.20963146781
31
0.0
  0
LINE
 8
Component#1
10
304.435903688563
20
1126.20963146781
30
0.0
11
304.452214408955
21
1126.08012838964
31
0.0
  0
LINE
 8
Component#1
10
304.452214408955
20
1126.08012838964
30
0.0
11
304.501487218058
21
1125.95925954693
31
0.0
  0
LINE
 8
Component#1
10
304.501487218058
20
1125.95925954693
30
0.0
11
304.580364255357
21
1125.85526195156
31
0.0
  0
LINE
 8
Component#1
10
304.580364255357
20
1125.85526195156
30
0.0
11
304.683470181112
21
1125.77522286779
31
0.0
  0
LINE
 8
Component#1
10
304.683470181112
20
1125.77522286779
30
0.0
11
304.803778496872
21
1125.72459682692
31
0.0
  0
LINE
 8
Component#1
10
304.803778496872
20
1125.72459682692
30
0.0
11
304.933090389738
21
1125.70683390996
31
0.0
  0
LINE
 8
Component#1
10
304.933090389738
20
1125.70683390996
30
0.0
11
305.062593467909
21
1125.72314463036
31
0.0
  0
LINE
 8
Component#1
10
305.062593467909
20
1125.72314463036
30
0.0
11
305.183462310622
21
1125.77241743946
31
0.0
  0
LINE
 8
Component#1
10
305.183462310622
20
1125.77241743946
30
0.0
11
305.28745990599
21
1125.85129447676
31
0.0
  0
LINE
 8
Component#1
10
305.28745990599
20
1125.85129447676
30
0.0
11
305.367498989753
21
1125.95440040251
31
0.0
  0
LINE
 8
Component#1
10
305.367498989753
20
1125.95440040251
30
0.0
11
305.418125030625
21
1126.07470871827
31
0.0
  0
LINE
 8
Component#1
10
305.418125030625
20
1126.07470871827
30
0.0
11
305.435887947582
21
1126.20402061114
31
0.0
  0
LINE
 8
Component#1
10
305.435887947582
20
1126.20402061114
30
0.0
11
305.41957722719
21
1126.33352368931
31
0.0
  0
LINE
 8
Component#1
10
305.41957722719
20
1126.33352368931
30
0.0
11
305.370304418087
21
1126.45439253202
31
0.0
  0
LINE
 8
Component#1
10
305.370304418087
20
1126.45439253202
30
0.0
11
305.291427380788
21
1126.55839012739
31
0.0
  0
LINE
 8
Component#1
10
315.291427380788
20
1126.55839012739
30
0.0
11
315.188321455033
21
1126.63842921116
31
0.0
  0
LINE
 8
Component#1
10
315.188321455033
20
1126.63842921116
30
0.0
11
315.068013139273
21
1126.68905525203
31
0.0
  0
LINE
 8
Component#1
10
315.068013139273
20
1126.68905525203
30
0.0
11
314.938701246406
21
1126.70681816898
31
0.0
  0
LINE
 8
Component#1
10
314.938701246406
20
1126.70681816898
30
0.0
11
314.809198168236
21
1126.69050744859
31
0.0
  0
LINE
 8
Component#1
10
314.809198168236
20
1126.69050744859
30
0.0
11
314.688329325523
21
1126.64123463949
31
0.0
  0
LINE
 8
Component#1
10
314.688329325523
20
1126.64123463949
30
0.0
11
314.584331730155
21
1126.56235760219
31
0.0
  0
LINE
 8
Component#1
10
314.584331730155
20
1126.56235760219
30
0.0
11
314.504292646392
21
1126.45925167644
31
0.0
  0
LINE
 8
Component#1
10
314.504292646392
20
1126.45925167644
30
0.0
11
314.45366660552
21
1126.33894336067
31
0.0
  0
LINE
 8
Component#1
10
314.45366660552
20
1126.33894336067
30
0.0
11
314.435903688563
21
1126.20963146781
31
0.0
  0
LINE
 8
Component#1
10
314.435903688563
20
1126.20963146781
30
0.0
11
314.452214408955
21
1126.08012838964
31
0.0
  0
LINE
 8
Component#1
10
314.452214408955
20
1126.08012838964
30
0.0
11
314.501487218057
21
1125.95925954693
31
0.0
  0
LINE
 8
Component#1
10
314.501487218057
20
1125.95925954693
30
0.0
11
314.580364255357
21
1125.85526195156
31
0.0
  0
LINE
 8
Component#1
10
314.580364255357
20
1125.85526195156
30
0.0
11
314.683470181112
21
1125.77522286779
31
0.0
  0
LINE
 8
Component#1
10
314.683470181112
20
1125.77522286779
30
0.0
11
314.803778496872
21
1125.72459682692
31
0.0
  0
LINE
 8
Component#1
10
314.803778496872
20
1125.72459682692
30
0.0
11
314.933090389738
21
1125.70683390996
31
0.0
  0
LINE
 8
Component#1
10
314.933090389738
20
1125.70683390996
30
0.0
11
315.062593467909
21
1125.72314463036
31
0.0
  0
LINE
 8
Component#1
10
315.062593467909
20
1125.72314463036
30
0.0
11
315.183462310621
21
1125.77241743946
31
0.0
  0
LINE
 8
Component#1
10
315.183462310621
20
1125.77241743946
30
0.0
11
315.28745990599
21
1125.85129447676
31
0.0
  0
LINE
 8
Component#1
10
315.28745990599
20
1125.85129447676
30
0.0
11
315.367498989753
21
1125.95440040251
31
0.0
  0
LINE
 8
Component#1
10
315.367498989753
20
1125.95440040251
30
0.0
11
315.418125030625
21
1126.07470871827
31
0.0
  0
LINE
 8
Component#1
10
315.418125030625
20
1126.07470871827
30
0.0
11
315.435887947582
21
1126.20402061114
31
0.0
  0
LINE
 8
Component#1
10
315.435887947582
20
1126.20402061114
30
0.0
11
315.41957722719
21
1126.33352368931
31
0.0
  0
LINE
 8
Component#1
10
315.41957722719
20
1126.33352368931
30
0.0
11
315.370304418087
21
1126.45439253202
31
0.0
  0
LINE
 8
Component#1
10
315.370304418087
20
1126.45439253202
30
0.0
11
315.291427380788
21
1126.55839012739
31
0.0
  0
LINE
 8
Component#1
10
340.291427380788
20
1126.55839012739
30
0.0
11
340.188321455033
21
1126.63842921116
31
0.0
  0
LINE
 8
Component#1
10
340.188321455033
20
1126.63842921116
30
0.0
11
340.068013139273
21
1126.68905525203
31
0.0
  0
LINE
 8
Component#1
10
340.068013139273
20
1126.68905525203
30
0.0
11
339.938701246407
21
1126.70681816898
31
0.0
  0
LINE
 8
Component#1
10
339.938701246407
20
1126.70681816898
30
0.0
11
339.809198168236
21
1126.69050744859
31
0.0
  0
LINE
 8
Component#1
10
339.809198168236
20
1126.69050744859
30
0.0
11
339.688329325523
21
1126.64123463949
31
0.0
  0
LINE
 8
Component#1
10
339.688329325523
20
1126.64123463949
30
0.0
11
339.584331730155
21
1126.56235760219
31
0.0
  0
LINE
 8
Component#1
10
339.584331730155
20
1126.56235760219
30
0.0
11
339.504292646392
21
1126.45925167644
31
0.0
  0
LINE
 8
Component#1
10
339.504292646392
20
1126.45925167644
30
0.0
11
339.45366660552
21
1126.33894336067
31
0.0
  0
LINE
 8
Component#1
10
339.45366660552
20
1126.33894336067
30
0.0
11
339.435903688563
21
1126.20963146781
31
0.0
  0
LINE
 8
Component#1
10
339.435903688563
20
1126.20963146781
30
0.0
11
339.452214408955
21
1126.08012838964
31
0.0
  0
LINE
 8
Component#1
10
339.452214408955
20
1126.08012838964
30
0.0
11
339.501487218058
21
1125.95925954693
31
0.0
  0
LINE
 8
Component#1
10
339.501487218058
20
1125.95925954693
30
0.0
11
339.580364255357
21
1125.85526195156
31
0.0
  0
LINE
 8
Component#1
10
339.580364255357
20
1125.85526195156
30
0.0
11
339.683470181112
21
1125.77522286779
31
0.0
  0
LINE
 8
Component#1
10
339.683470181112
20
1125.77522286779
30
0.0
11
339.803778496872
21
1125.72459682692
31
0.0
  0
LINE
 8
Component#1
10
339.803778496872
20
1125.72459682692
30
0.0
11
339.933090389738
21
1125.70683390996
31
0.0
  0
LINE
 8
Component#1
10
339.933090389738
20
1125.70683390996
30
0.0
11
340.062593467909
21
1125.72314463036
31
0.0
  0
LINE
 8
Component#1
10
340.062593467909
20
1125.72314463036
30
0.0
11
340.183462310622
21
1125.77241743946
31
0.0
  0
LINE
 8
Component#1
10
340.183462310622
20
1125.77241743946
30
0.0
11
340.28745990599
21
1125.85129447676
31
0.0
  0
LINE
 8
Component#1
10
340.28745990599
20
1125.85129447676
30
0.0
11
340.367498989753
21
1125.95440040251
31
0.0
  0
LINE
 8
Component#1
10
340.367498989753
20
1125.95440040251
30
0.0
11
340.418125030625
21
1126.07470871827
31
0.0
  0
LINE
 8
Component#1
10
340.418125030625
20
1126.07470871827
30
0.0
11
340.435887947582
21
1126.20402061114
31
0.0
  0
LINE
 8
Component#1
10
340.435887947582
20
1126.20402061114
30
0.0
11
340.41957722719
21
1126.33352368931
31
0.0
  0
LINE
 8
Component#1
10
340.41957722719
20
1126.33352368931
30
0.0
11
340.370304418087
21
1126.45439253202
31
0.0
  0
LINE
 8
Component#1
10
340.370304418087
20
1126.45439253202
30
0.0
11
340.291427380788
21
1126.55839012739
31
0.0
  0
LINE
 8
Component#1
10
290.291427380788
20
1126.55839012739
30
0.0
11
290.188321455033
21
1126.63842921116
31
0.0
  0
LINE
 8
Component#1
10
290.188321455033
20
1126.63842921116
30
0.0
11
290.068013139273
21
1126.68905525203
31
0.0
  0
LINE
 8
Component#1
10
290.068013139273
20
1126.68905525203
30
0.0
11
289.938701246406
21
1126.70681816898
31
0.0
  0
LINE
 8
Component#1
10
289.938701246406
20
1126.70681816898
30
0.0
11
289.809198168236
21
1126.69050744859
31
0.0
  0
LINE
 8
Component#1
10
289.809198168236
20
1126.69050744859
30
0.0
11
289.688329325523
21
1126.64123463949
31
0.0
  0
LINE
 8
Component#1
10
289.688329325523
20
1126.64123463949
30
0.0
11
289.584331730155
21
1126.56235760219
31
0.0
  0
LINE
 8
Component#1
10
289.584331730155
20
1126.56235760219
30
0.0
11
289.504292646392
21
1126.45925167644
31
0.0
  0
LINE
 8
Component#1
10
289.504292646392
20
1126.45925167644
30
0.0
11
289.45366660552
21
1126.33894336067
31
0.0
  0
LINE
 8
Component#1
10
289.45366660552
20
1126.33894336067
30
0.0
11
289.435903688563
21
1126.20963146781
31
0.0
  0
LINE
 8
Component#1
10
289.435903688563
20
1126.20963146781
30
0.0
11
289.452214408955
21
1126.08012838964
31
0.0
  0
LINE
 8
Component#1
10
289.452214408955
20
1126.08012838964
30
0.0
11
289.501487218057
21
1125.95925954693
31
0.0
  0
LINE
 8
Component#1
10
289.501487218057
20
1125.95925954693
30
0.0
11
289.580364255357
21
1125.85526195156
31
0.0
  0
LINE
 8
Component#1
10
289.580364255357
20
1125.85526195156
30
0.0
11
289.683470181112
21
1125.77522286779
31
0.0
  0
LINE
 8
Component#1
10
289.683470181112
20
1125.77522286779
30
0.0
11
289.803778496872
21
1125.72459682692
31
0.0
  0
LINE
 8
Component#1
10
289.803778496872
20
1125.72459682692
30
0.0
11
289.933090389738
21
1125.70683390996
31
0.0
  0
LINE
 8
Component#1
10
289.933090389738
20
1125.70683390996
30
0.0
11
290.062593467909
21
1125.72314463036
31
0.0
  0
LINE
 8
Component#1
10
290.062593467909
20
1125.72314463036
30
0.0
11
290.183462310621
21
1125.77241743946
31
0.0
  0
LINE
 8
Component#1
10
290.183462310621
20
1125.77241743946
30
0.0
11
290.28745990599
21
1125.85129447676
31
0.0
  0
LINE
 8
Component#1
10
290.28745990599
20
1125.85129447676
30
0.0
11
290.367498989753
21
1125.95440040251
31
0.0
  0
LINE
 8
Component#1
10
290.367498989753
20
1125.95440040251
30
0.0
11
290.418125030625
21
1126.07470871827
31
0.0
  0
LINE
 8
Component#1
10
290.418125030625
20
1126.07470871827
30
0.0
11
290.435887947582
21
1126.20402061114
31
0.0
  0
LINE
 8
Component#1
10
290.435887947582
20
1126.20402061114
30
0.0
11
290.41957722719
21
1126.33352368931
31
0.0
  0
LINE
 8
Component#1
10
290.41957722719
20
1126.33352368931
30
0.0
11
290.370304418087
21
1126.45439253202
31
0.0
  0
LINE
 8
Component#1
10
290.370304418087
20
1126.45439253202
30
0.0
11
290.291427380788
21
1126.55839012739
31
0.0
  0
LINE
 8
Component#1
10
310.291427380788
20
1126.55839012739
30
0.0
11
310.188321455033
21
1126.63842921116
31
0.0
  0
LINE
 8
Component#1
10
310.188321455033
20
1126.63842921116
30
0.0
11
310.068013139273
21
1126.68905525203
31
0.0
  0
LINE
 8
Component#1
10
310.068013139273
20
1126.68905525203
30
0.0
11
309.938701246407
21
1126.70681816898
31
0.0
  0
LINE
 8
Component#1
10
309.938701246407
20
1126.70681816898
30
0.0
11
309.809198168236
21
1126.69050744859
31
0.0
  0
LINE
 8
Component#1
10
309.809198168236
20
1126.69050744859
30
0.0
11
309.688329325523
21
1126.64123463949
31
0.0
  0
LINE
 8
Component#1
10
309.688329325523
20
1126.64123463949
30
0.0
11
309.584331730155
21
1126.56235760219
31
0.0
  0
LINE
 8
Component#1
10
309.584331730155
20
1126.56235760219
30
0.0
11
309.504292646392
21
1126.45925167644
31
0.0
  0
LINE
 8
Component#1
10
309.504292646392
20
1126.45925167644
30
0.0
11
309.45366660552
21
1126.33894336067
31
0.0
  0
LINE
 8
Component#1
10
309.45366660552
20
1126.33894336067
30
0.0
11
309.435903688563
21
1126.20963146781
31
0.0
  0
LINE
 8
Component#1
10
309.435903688563
20
1126.20963146781
30
0.0
11
309.452214408955
21
1126.08012838964
31
0.0
  0
LINE
 8
Component#1
10
309.452214408955
20
1126.08012838964
30
0.0
11
309.501487218057
21
1125.95925954693
31
0.0
  0
LINE
 8
Component#1
10
309.501487218057
20
1125.95925954693
30
0.0
11
309.580364255357
21
1125.85526195156
31
0.0
  0
LINE
 8
Component#1
10
309.580364255357
20
1125.85526195156
30
0.0
11
309.683470181112
21
1125.77522286779
31
0.0
  0
LINE
 8
Component#1
10
309.683470181112
20
1125.77522286779
30
0.0
11
309.803778496872
21
1125.72459682692
31
0.0
  0
LINE
 8
Component#1
10
309.803778496872
20
1125.72459682692
30
0.0
11
309.933090389738
21
1125.70683390996
31
0.0
  0
LINE
 8
Component#1
10
309.933090389738
20
1125.70683390996
30
0.0
11
310.062593467909
21
1125.72314463036
31
0.0
  0
LINE
 8
Component#1
10
310.062593467909
20
1125.72314463036
30
0.0
11
310.183462310621
21
1125.77241743946
31
0.0
  0
LINE
 8
Component#1
10
310.183462310621
20
1125.77241743946
30
0.0
11
310.28745990599
21
1125.85129447676
31
0.0
  0
LINE
 8
Component#1
10
310.28745990599
20
1125.85129447676
30
0.0
11
310.367498989753
21
1125.95440040251
31
0.0
  0
LINE
 8
Component#1
10
310.367498989753
20
1125.95440040251
30
0.0
11
310.418125030625
21
1126.07470871827
31
0.0
  0
LINE
 8
Component#1
10
310.418125030625
20
1126.07470871827
30
0.0
11
310.435887947582
21
1126.20402061114
31
0.0
  0
LINE
 8
Component#1
10
310.435887947582
20
1126.20402061114
30
0.0
11
310.41957722719
21
1126.33352368931
31
0.0
  0
LINE
 8
Component#1
10
310.41957722719
20
1126.33352368931
30
0.0
11
310.370304418087
21
1126.45439253202
31
0.0
  0
LINE
 8
Component#1
10
310.370304418087
20
1126.45439253202
30
0.0
11
310.291427380788
21
1126.55839012739
31
0.0
  0
LINE
 8
Component#1
10
300.291427380788
20
1126.55839012739
30
0.0
11
300.188321455033
21
1126.63842921116
31
0.0
  0
LINE
 8
Component#1
10
300.188321455033
20
1126.63842921116
30
0.0
11
300.068013139273
21
1126.68905525203
31
0.0
  0
LINE
 8
Component#1
10
300.068013139273
20
1126.68905525203
30
0.0
11
299.938701246407
21
1126.70681816898
31
0.0
  0
LINE
 8
Component#1
10
299.938701246407
20
1126.70681816898
30
0.0
11
299.809198168236
21
1126.69050744859
31
0.0
  0
LINE
 8
Component#1
10
299.809198168236
20
1126.69050744859
30
0.0
11
299.688329325523
21
1126.64123463949
31
0.0
  0
LINE
 8
Component#1
10
299.688329325523
20
1126.64123463949
30
0.0
11
299.584331730155
21
1126.56235760219
31
0.0
  0
LINE
 8
Component#1
10
299.584331730155
20
1126.56235760219
30
0.0
11
299.504292646392
21
1126.45925167644
31
0.0
  0
LINE
 8
Component#1
10
299.504292646392
20
1126.45925167644
30
0.0
11
299.45366660552
21
1126.33894336067
31
0.0
  0
LINE
 8
Component#1
10
299.45366660552
20
1126.33894336067
30
0.0
11
299.435903688563
21
1126.20963146781
31
0.0
  0
LINE
 8
Component#1
10
299.435903688563
20
1126.20963146781
30
0.0
11
299.452214408955
21
1126.08012838964
31
0.0
  0
LINE
 8
Component#1
10
299.452214408955
20
1126.08012838964
30
0.0
11
299.501487218058
21
1125.95925954693
31
0.0
  0
LINE
 8
Component#1
10
299.501487218058
20
1125.95925954693
30
0.0
11
299.580364255357
21
1125.85526195156
31
0.0
  0
LINE
 8
Component#1
10
299.580364255357
20
1125.85526195156
30
0.0
11
299.683470181112
21
1125.77522286779
31
0.0
  0
LINE
 8
Component#1
10
299.683470181112
20
1125.77522286779
30
0.0
11
299.803778496872
21
1125.72459682692
31
0.0
  0
LINE
 8
Component#1
10
299.803778496872
20
1125.72459682692
30
0.0
11
299.933090389738
21
1125.70683390996
31
0.0
  0
LINE
 8
Component#1
10
299.933090389738
20
1125.70683390996
30
0.0
11
300.062593467909
21
1125.72314463036
31
0.0
  0
LINE
 8
Component#1
10
300.062593467909
20
1125.72314463036
30
0.0
11
300.183462310622
21
1125.77241743946
31
0.0
  0
LINE
 8
Component#1
10
300.183462310622
20
1125.77241743946
30
0.0
11
300.28745990599
21
1125.85129447676
31
0.0
  0
LINE
 8
Component#1
10
300.28745990599
20
1125.85129447676
30
0.0
11
300.367498989753
21
1125.95440040251
31
0.0
  0
LINE
 8
Component#1
10
300.367498989753
20
1125.95440040251
30
0.0
11
300.418125030625
21
1126.07470871827
31
0.0
  0
LINE
 8
Component#1
10
300.418125030625
20
1126.07470871827
30
0.0
11
300.435887947582
21
1126.20402061114
31
0.0
  0
LINE
 8
Component#1
10
300.435887947582
20
1126.20402061114
30
0.0
11
300.41957722719
21
1126.33352368931
31
0.0
  0
LINE
 8
Component#1
10
300.41957722719
20
1126.33352368931
30
0.0
11
300.370304418087
21
1126.45439253202
31
0.0
  0
LINE
 8
Component#1
10
300.370304418087
20
1126.45439253202
30
0.0
11
300.291427380788
21
1126.55839012739
31
0.0
  0
LINE
 8
Component#1
10
355.291427380788
20
1126.55839012739
30
0.0
11
355.188321455033
21
1126.63842921116
31
0.0
  0
LINE
 8
Component#1
10
355.188321455033
20
1126.63842921116
30
0.0
11
355.068013139273
21
1126.68905525203
31
0.0
  0
LINE
 8
Component#1
10
355.068013139273
20
1126.68905525203
30
0.0
11
354.938701246407
21
1126.70681816898
31
0.0
  0
LINE
 8
Component#1
10
354.938701246407
20
1126.70681816898
30
0.0
11
354.809198168236
21
1126.69050744859
31
0.0
  0
LINE
 8
Component#1
10
354.809198168236
20
1126.69050744859
30
0.0
11
354.688329325523
21
1126.64123463949
31
0.0
  0
LINE
 8
Component#1
10
354.688329325523
20
1126.64123463949
30
0.0
11
354.584331730155
21
1126.56235760219
31
0.0
  0
LINE
 8
Component#1
10
354.584331730155
20
1126.56235760219
30
0.0
11
354.504292646392
21
1126.45925167644
31
0.0
  0
LINE
 8
Component#1
10
354.504292646392
20
1126.45925167644
30
0.0
11
354.45366660552
21
1126.33894336067
31
0.0
  0
LINE
 8
Component#1
10
354.45366660552
20
1126.33894336067
30
0.0
11
354.435903688563
21
1126.20963146781
31
0.0
  0
LINE
 8
Component#1
10
354.435903688563
20
1126.20963146781
30
0.0
11
354.452214408955
21
1126.08012838964
31
0.0
  0
LINE
 8
Component#1
10
354.452214408955
20
1126.08012838964
30
0.0
11
354.501487218058
21
1125.95925954693
31
0.0
  0
LINE
 8
Component#1
10
354.501487218058
20
1125.95925954693
30
0.0
11
354.580364255357
21
1125.85526195156
31
0.0
  0
LINE
 8
Component#1
10
354.580364255357
20
1125.85526195156
30
0.0
11
354.683470181112
21
1125.77522286779
31
0.0
  0
LINE
 8
Component#1
10
354.683470181112
20
1125.77522286779
30
0.0
11
354.803778496872
21
1125.72459682692
31
0.0
  0
LINE
 8
Component#1
10
354.803778496872
20
1125.72459682692
30
0.0
11
354.933090389738
21
1125.70683390996
31
0.0
  0
LINE
 8
Component#1
10
354.933090389738
20
1125.70683390996
30
0.0
11
355.062593467909
21
1125.72314463036
31
0.0
  0
LINE
 8
Component#1
10
355.062593467909
20
1125.72314463036
30
0.0
11
355.183462310622
21
1125.77241743946
31
0.0
  0
LINE
 8
Component#1
10
355.183462310622
20
1125.77241743946
30
0.0
11
355.28745990599
21
1125.85129447676
31
0.0
  0
LINE
 8
Component#1
10
355.28745990599
20
1125.85129447676
30
0.0
11
355.367498989753
21
1125.95440040251
31
0.0
  0
LINE
 8
Component#1
10
355.367498989753
20
1125.95440040251
30
0.0
11
355.418125030625
21
1126.07470871827
31
0.0
  0
LINE
 8
Component#1
10
355.418125030625
20
1126.07470871827
30
0.0
11
355.435887947582
21
1126.20402061114
31
0.0
  0
LINE
 8
Component#1
10
355.435887947582
20
1126.20402061114
30
0.0
11
355.41957722719
21
1126.33352368931
31
0.0
  0
LINE
 8
Component#1
10
355.41957722719
20
1126.33352368931
30
0.0
11
355.370304418087
21
1126.45439253202
31
0.0
  0
LINE
 8
Component#1
10
355.370304418087
20
1126.45439253202
30
0.0
11
355.291427380788
21
1126.55839012739
31
0.0
  0
LINE
 8
Component#1
10
350.291427380788
20
1126.55839012739
30
0.0
11
350.188321455033
21
1126.63842921116
31
0.0
  0
LINE
 8
Component#1
10
350.188321455033
20
1126.63842921116
30
0.0
11
350.068013139273
21
1126.68905525203
31
0.0
  0
LINE
 8
Component#1
10
350.068013139273
20
1126.68905525203
30
0.0
11
349.938701246407
21
1126.70681816898
31
0.0
  0
LINE
 8
Component#1
10
349.938701246407
20
1126.70681816898
30
0.0
11
349.809198168236
21
1126.69050744859
31
0.0
  0
LINE
 8
Component#1
10
349.809198168236
20
1126.69050744859
30
0.0
11
349.688329325523
21
1126.64123463949
31
0.0
  0
LINE
 8
Component#1
10
349.688329325523
20
1126.64123463949
30
0.0
11
349.584331730155
21
1126.56235760219
31
0.0
  0
LINE
 8
Component#1
10
349.584331730155
20
1126.56235760219
30
0.0
11
349.504292646392
21
1126.45925167644
31
0.0
  0
LINE
 8
Component#1
10
349.504292646392
20
1126.45925167644
30
0.0
11
349.45366660552
21
1126.33894336067
31
0.0
  0
LINE
 8
Component#1
10
349.45366660552
20
1126.33894336067
30
0.0
11
349.435903688563
21
1126.20963146781
31
0.0
  0
LINE
 8
Component#1
10
349.435903688563
20
1126.20963146781
30
0.0
11
349.452214408955
21
1126.08012838964
31
0.0
  0
LINE
 8
Component#1
10
349.452214408955
20
1126.08012838964
30
0.0
11
349.501487218058
21
1125.95925954693
31
0.0
  0
LINE
 8
Component#1
10
349.501487218058
20
1125.95925954693
30
0.0
11
349.580364255357
21
1125.85526195156
31
0.0
  0
LINE
 8
Component#1
10
349.580364255357
20
1125.85526195156
30
0.0
11
349.683470181112
21
1125.77522286779
31
0.0
  0
LINE
 8
Component#1
10
349.683470181112
20
1125.77522286779
30
0.0
11
349.803778496872
21
1125.72459682692
31
0.0
  0
LINE
 8
Component#1
10
349.803778496872
20
1125.72459682692
30
0.0
11
349.933090389738
21
1125.70683390996
31
0.0
  0
LINE
 8
Component#1
10
349.933090389738
20
1125.70683390996
30
0.0
11
350.062593467909
21
1125.72314463036
31
0.0
  0
LINE
 8
Component#1
10
350.062593467909
20
1125.72314463036
30
0.0
11
350.183462310622
21
1125.77241743946
31
0.0
  0
LINE
 8
Component#1
10
350.183462310622
20
1125.77241743946
30
0.0
11
350.28745990599
21
1125.85129447676
31
0.0
  0
LINE
 8
Component#1
10
350.28745990599
20
1125.85129447676
30
0.0
11
350.367498989753
21
1125.95440040251
31
0.0
  0
LINE
 8
Component#1
10
350.367498989753
20
1125.95440040251
30
0.0
11
350.418125030625
21
1126.07470871827
31
0.0
  0
LINE
 8
Component#1
10
350.418125030625
20
1126.07470871827
30
0.0
11
350.435887947582
21
1126.20402061114
31
0.0
  0
LINE
 8
Component#1
10
350.435887947582
20
1126.20402061114
30
0.0
11
350.41957722719
21
1126.33352368931
31
0.0
  0
LINE
 8
Component#1
10
350.41957722719
20
1126.33352368931
30
0.0
11
350.370304418087
21
1126.45439253202
31
0.0
  0
LINE
 8
Component#1
10
350.370304418087
20
1126.45439253202
30
0.0
11
350.291427380788
21
1126.55839012739
31
0.0
  0
LINE
 8
Component#1
10
325.291427380788
20
1126.55839012739
30
0.0
11
325.188321455033
21
1126.63842921116
31
0.0
  0
LINE
 8
Component#1
10
325.188321455033
20
1126.63842921116
30
0.0
11
325.068013139273
21
1126.68905525203
31
0.0
  0
LINE
 8
Component#1
10
325.068013139273
20
1126.68905525203
30
0.0
11
324.938701246407
21
1126.70681816898
31
0.0
  0
LINE
 8
Component#1
10
324.938701246407
20
1126.70681816898
30
0.0
11
324.809198168236
21
1126.69050744859
31
0.0
  0
LINE
 8
Component#1
10
324.809198168236
20
1126.69050744859
30
0.0
11
324.688329325523
21
1126.64123463949
31
0.0
  0
LINE
 8
Component#1
10
324.688329325523
20
1126.64123463949
30
0.0
11
324.584331730155
21
1126.56235760219
31
0.0
  0
LINE
 8
Component#1
10
324.584331730155
20
1126.56235760219
30
0.0
11
324.504292646392
21
1126.45925167644
31
0.0
  0
LINE
 8
Component#1
10
324.504292646392
20
1126.45925167644
30
0.0
11
324.45366660552
21
1126.33894336067
31
0.0
  0
LINE
 8
Component#1
10
324.45366660552
20
1126.33894336067
30
0.0
11
324.435903688563
21
1126.20963146781
31
0.0
  0
LINE
 8
Component#1
10
324.435903688563
20
1126.20963146781
30
0.0
11
324.452214408955
21
1126.08012838964
31
0.0
  0
LINE
 8
Component#1
10
324.452214408955
20
1126.08012838964
30
0.0
11
324.501487218058
21
1125.95925954693
31
0.0
  0
LINE
 8
Component#1
10
324.501487218058
20
1125.95925954693
30
0.0
11
324.580364255357
21
1125.85526195156
31
0.0
  0
LINE
 8
Component#1
10
324.580364255357
20
1125.85526195156
30
0.0
11
324.683470181112
21
1125.77522286779
31
0.0
  0
LINE
 8
Component#1
10
324.683470181112
20
1125.77522286779
30
0.0
11
324.803778496872
21
1125.72459682692
31
0.0
  0
LINE
 8
Component#1
10
324.803778496872
20
1125.72459682692
30
0.0
11
324.933090389738
21
1125.70683390996
31
0.0
  0
LINE
 8
Component#1
10
324.933090389738
20
1125.70683390996
30
0.0
11
325.062593467909
21
1125.72314463036
31
0.0
  0
LINE
 8
Component#1
10
325.062593467909
20
1125.72314463036
30
0.0
11
325.183462310622
21
1125.77241743946
31
0.0
  0
LINE
 8
Component#1
10
325.183462310622
20
1125.77241743946
30
0.0
11
325.28745990599
21
1125.85129447676
31
0.0
  0
LINE
 8
Component#1
10
325.28745990599
20
1125.85129447676
30
0.0
11
325.367498989753
21
1125.95440040251
31
0.0
  0
LINE
 8
Component#1
10
325.367498989753
20
1125.95440040251
30
0.0
11
325.418125030625
21
1126.07470871827
31
0.0
  0
LINE
 8
Component#1
10
325.418125030625
20
1126.07470871827
30
0.0
11
325.435887947582
21
1126.20402061114
31
0.0
  0
LINE
 8
Component#1
10
325.435887947582
20
1126.20402061114
30
0.0
11
325.41957722719
21
1126.33352368931
31
0.0
  0
LINE
 8
Component#1
10
325.41957722719
20
1126.33352368931
30
0.0
11
325.370304418087
21
1126.45439253202
31
0.0
  0
LINE
 8
Component#1
10
325.370304418087
20
1126.45439253202
30
0.0
11
325.291427380788
21
1126.55839012739
31
0.0
  0
LINE
 8
Component#1
10
320.291427380788
20
1126.55839012739
30
0.0
11
320.188321455033
21
1126.63842921116
31
0.0
  0
LINE
 8
Component#1
10
320.188321455033
20
1126.63842921116
30
0.0
11
320.068013139273
21
1126.68905525203
31
0.0
  0
LINE
 8
Component#1
10
320.068013139273
20
1126.68905525203
30
0.0
11
319.938701246407
21
1126.70681816898
31
0.0
  0
LINE
 8
Component#1
10
319.938701246407
20
1126.70681816898
30
0.0
11
319.809198168236
21
1126.69050744859
31
0.0
  0
LINE
 8
Component#1
10
319.809198168236
20
1126.69050744859
30
0.0
11
319.688329325523
21
1126.64123463949
31
0.0
  0
LINE
 8
Component#1
10
319.688329325523
20
1126.64123463949
30
0.0
11
319.584331730155
21
1126.56235760219
31
0.0
  0
LINE
 8
Component#1
10
319.584331730155
20
1126.56235760219
30
0.0
11
319.504292646392
21
1126.45925167644
31
0.0
  0
LINE
 8
Component#1
10
319.504292646392
20
1126.45925167644
30
0.0
11
319.45366660552
21
1126.33894336067
31
0.0
  0
LINE
 8
Component#1
10
319.45366660552
20
1126.33894336067
30
0.0
11
319.435903688563
21
1126.20963146781
31
0.0
  0
LINE
 8
Component#1
10
319.435903688563
20
1126.20963146781
30
0.0
11
319.452214408955
21
1126.08012838964
31
0.0
  0
LINE
 8
Component#1
10
319.452214408955
20
1126.08012838964
30
0.0
11
319.501487218058
21
1125.95925954693
31
0.0
  0
LINE
 8
Component#1
10
319.501487218058
20
1125.95925954693
30
0.0
11
319.580364255357
21
1125.85526195156
31
0.0
  0
LINE
 8
Component#1
10
319.580364255357
20
1125.85526195156
30
0.0
11
319.683470181112
21
1125.77522286779
31
0.0
  0
LINE
 8
Component#1
10
319.683470181112
20
1125.77522286779
30
0.0
11
319.803778496872
21
1125.72459682692
31
0.0
  0
LINE
 8
Component#1
10
319.803778496872
20
1125.72459682692
30
0.0
11
319.933090389738
21
1125.70683390996
31
0.0
  0
LINE
 8
Component#1
10
319.933090389738
20
1125.70683390996
30
0.0
11
320.062593467909
21
1125.72314463036
31
0.0
  0
LINE
 8
Component#1
10
320.062593467909
20
1125.72314463036
30
0.0
11
320.183462310622
21
1125.77241743946
31
0.0
  0
LINE
 8
Component#1
10
320.183462310622
20
1125.77241743946
30
0.0
11
320.28745990599
21
1125.85129447676
31
0.0
  0
LINE
 8
Component#1
10
320.28745990599
20
1125.85129447676
30
0.0
11
320.367498989753
21
1125.95440040251
31
0.0
  0
LINE
 8
Component#1
10
320.367498989753
20
1125.95440040251
30
0.0
11
320.418125030625
21
1126.07470871827
31
0.0
  0
LINE
 8
Component#1
10
320.418125030625
20
1126.07470871827
30
0.0
11
320.435887947582
21
1126.20402061114
31
0.0
  0
LINE
 8
Component#1
10
320.435887947582
20
1126.20402061114
30
0.0
11
320.41957722719
21
1126.33352368931
31
0.0
  0
LINE
 8
Component#1
10
320.41957722719
20
1126.33352368931
30
0.0
11
320.370304418087
21
1126.45439253202
31
0.0
  0
LINE
 8
Component#1
10
320.370304418087
20
1126.45439253202
30
0.0
11
320.291427380788
21
1126.55839012739
31
0.0
  0
LINE
 8
Component#1
10
335.291427380788
20
1126.55839012739
30
0.0
11
335.188321455033
21
1126.63842921116
31
0.0
  0
LINE
 8
Component#1
10
335.188321455033
20
1126.63842921116
30
0.0
11
335.068013139273
21
1126.68905525203
31
0.0
  0
LINE
 8
Component#1
10
335.068013139273
20
1126.68905525203
30
0.0
11
334.938701246407
21
1126.70681816898
31
0.0
  0
LINE
 8
Component#1
10
334.938701246407
20
1126.70681816898
30
0.0
11
334.809198168236
21
1126.69050744859
31
0.0
  0
LINE
 8
Component#1
10
334.809198168236
20
1126.69050744859
30
0.0
11
334.688329325523
21
1126.64123463949
31
0.0
  0
LINE
 8
Component#1
10
334.688329325523
20
1126.64123463949
30
0.0
11
334.584331730155
21
1126.56235760219
31
0.0
  0
LINE
 8
Component#1
10
334.584331730155
20
1126.56235760219
30
0.0
11
334.504292646392
21
1126.45925167644
31
0.0
  0
LINE
 8
Component#1
10
334.504292646392
20
1126.45925167644
30
0.0
11
334.45366660552
21
1126.33894336067
31
0.0
  0
LINE
 8
Component#1
10
334.45366660552
20
1126.33894336067
30
0.0
11
334.435903688563
21
1126.20963146781
31
0.0
  0
LINE
 8
Component#1
10
334.435903688563
20
1126.20963146781
30
0.0
11
334.452214408955
21
1126.08012838964
31
0.0
  0
LINE
 8
Component#1
10
334.452214408955
20
1126.08012838964
30
0.0
11
334.501487218057
21
1125.95925954693
31
0.0
  0
LINE
 8
Component#1
10
334.501487218057
20
1125.95925954693
30
0.0
11
334.580364255357
21
1125.85526195156
31
0.0
  0
LINE
 8
Component#1
10
334.580364255357
20
1125.85526195156
30
0.0
11
334.683470181112
21
1125.77522286779
31
0.0
  0
LINE
 8
Component#1
10
334.683470181112
20
1125.77522286779
30
0.0
11
334.803778496872
21
1125.72459682692
31
0.0
  0
LINE
 8
Component#1
10
334.803778496872
20
1125.72459682692
30
0.0
11
334.933090389738
21
1125.70683390996
31
0.0
  0
LINE
 8
Component#1
10
334.933090389738
20
1125.70683390996
30
0.0
11
335.062593467909
21
1125.72314463036
31
0.0
  0
LINE
 8
Component#1
10
335.062593467909
20
1125.72314463036
30
0.0
11
335.183462310621
21
1125.77241743946
31
0.0
  0
LINE
 8
Component#1
10
335.183462310621
20
1125.77241743946
30
0.0
11
335.28745990599
21
1125.85129447676
31
0.0
  0
LINE
 8
Component#1
10
335.28745990599
20
1125.85129447676
30
0.0
11
335.367498989753
21
1125.95440040251
31
0.0
  0
LINE
 8
Component#1
10
335.367498989753
20
1125.95440040251
30
0.0
11
335.418125030625
21
1126.07470871827
31
0.0
  0
LINE
 8
Component#1
10
335.418125030625
20
1126.07470871827
30
0.0
11
335.435887947582
21
1126.20402061114
31
0.0
  0
LINE
 8
Component#1
10
335.435887947582
20
1126.20402061114
30
0.0
11
335.41957722719
21
1126.33352368931
31
0.0
  0
LINE
 8
Component#1
10
335.41957722719
20
1126.33352368931
30
0.0
11
335.370304418087
21
1126.45439253202
31
0.0
  0
LINE
 8
Component#1
10
335.370304418087
20
1126.45439253202
30
0.0
11
335.291427380788
21
1126.55839012739
31
0.0
  0
LINE
 8
Component#1
10
330.291427380788
20
1126.55839012739
30
0.0
11
330.188321455033
21
1126.63842921116
31
0.0
  0
LINE
 8
Component#1
10
330.188321455033
20
1126.63842921116
30
0.0
11
330.068013139273
21
1126.68905525203
31
0.0
  0
LINE
 8
Component#1
10
330.068013139273
20
1126.68905525203
30
0.0
11
329.938701246407
21
1126.70681816898
31
0.0
  0
LINE
 8
Component#1
10
329.938701246407
20
1126.70681816898
30
0.0
11
329.809198168236
21
1126.69050744859
31
0.0
  0
LINE
 8
Component#1
10
329.809198168236
20
1126.69050744859
30
0.0
11
329.688329325523
21
1126.64123463949
31
0.0
  0
LINE
 8
Component#1
10
329.688329325523
20
1126.64123463949
30
0.0
11
329.584331730155
21
1126.56235760219
31
0.0
  0
LINE
 8
Component#1
10
329.584331730155
20
1126.56235760219
30
0.0
11
329.504292646392
21
1126.45925167644
31
0.0
  0
LINE
 8
Component#1
10
329.504292646392
20
1126.45925167644
30
0.0
11
329.45366660552
21
1126.33894336067
31
0.0
  0
LINE
 8
Component#1
10
329.45366660552
20
1126.33894336067
30
0.0
11
329.435903688563
21
1126.20963146781
31
0.0
  0
LINE
 8
Component#1
10
329.435903688563
20
1126.20963146781
30
0.0
11
329.452214408955
21
1126.08012838964
31
0.0
  0
LINE
 8
Component#1
10
329.452214408955
20
1126.08012838964
30
0.0
11
329.501487218058
21
1125.95925954693
31
0.0
  0
LINE
 8
Component#1
10
329.501487218058
20
1125.95925954693
30
0.0
11
329.580364255357
21
1125.85526195156
31
0.0
  0
LINE
 8
Component#1
10
329.580364255357
20
1125.85526195156
30
0.0
11
329.683470181112
21
1125.77522286779
31
0.0
  0
LINE
 8
Component#1
10
329.683470181112
20
1125.77522286779
30
0.0
11
329.803778496872
21
1125.72459682692
31
0.0
  0
LINE
 8
Component#1
10
329.803778496872
20
1125.72459682692
30
0.0
11
329.933090389738
21
1125.70683390996
31
0.0
  0
LINE
 8
Component#1
10
329.933090389738
20
1125.70683390996
30
0.0
11
330.062593467909
21
1125.72314463036
31
0.0
  0
LINE
 8
Component#1
10
330.062593467909
20
1125.72314463036
30
0.0
11
330.183462310622
21
1125.77241743946
31
0.0
  0
LINE
 8
Component#1
10
330.183462310622
20
1125.77241743946
30
0.0
11
330.28745990599
21
1125.85129447676
31
0.0
  0
LINE
 8
Component#1
10
330.28745990599
20
1125.85129447676
30
0.0
11
330.367498989753
21
1125.95440040251
31
0.0
  0
LINE
 8
Component#1
10
330.367498989753
20
1125.95440040251
30
0.0
11
330.418125030625
21
1126.07470871827
31
0.0
  0
LINE
 8
Component#1
10
330.418125030625
20
1126.07470871827
30
0.0
11
330.435887947582
21
1126.20402061114
31
0.0
  0
LINE
 8
Component#1
10
330.435887947582
20
1126.20402061114
30
0.0
11
330.41957722719
21
1126.33352368931
31
0.0
  0
LINE
 8
Component#1
10
330.41957722719
20
1126.33352368931
30
0.0
11
330.370304418087
21
1126.45439253202
31
0.0
  0
LINE
 8
Component#1
10
330.370304418087
20
1126.45439253202
30
0.0
11
330.291427380788
21
1126.55839012739
31
0.0
  0
LINE
 8
Component#1
10
345.291427380788
20
1126.55839012739
30
0.0
11
345.188321455033
21
1126.63842921116
31
0.0
  0
LINE
 8
Component#1
10
345.188321455033
20
1126.63842921116
30
0.0
11
345.068013139273
21
1126.68905525203
31
0.0
  0
LINE
 8
Component#1
10
345.068013139273
20
1126.68905525203
30
0.0
11
344.938701246407
21
1126.70681816898
31
0.0
  0
LINE
 8
Component#1
10
344.938701246407
20
1126.70681816898
30
0.0
11
344.809198168236
21
1126.69050744859
31
0.0
  0
LINE
 8
Component#1
10
344.809198168236
20
1126.69050744859
30
0.0
11
344.688329325523
21
1126.64123463949
31
0.0
  0
LINE
 8
Component#1
10
344.688329325523
20
1126.64123463949
30
0.0
11
344.584331730155
21
1126.56235760219
31
0.0
  0
LINE
 8
Component#1
10
344.584331730155
20
1126.56235760219
30
0.0
11
344.504292646392
21
1126.45925167644
31
0.0
  0
LINE
 8
Component#1
10
344.504292646392
20
1126.45925167644
30
0.0
11
344.45366660552
21
1126.33894336067
31
0.0
  0
LINE
 8
Component#1
10
344.45366660552
20
1126.33894336067
30
0.0
11
344.435903688563
21
1126.20963146781
31
0.0
  0
LINE
 8
Component#1
10
344.435903688563
20
1126.20963146781
30
0.0
11
344.452214408955
21
1126.08012838964
31
0.0
  0
LINE
 8
Component#1
10
344.452214408955
20
1126.08012838964
30
0.0
11
344.501487218058
21
1125.95925954693
31
0.0
  0
LINE
 8
Component#1
10
344.501487218058
20
1125.95925954693
30
0.0
11
344.580364255357
21
1125.85526195156
31
0.0
  0
LINE
 8
Component#1
10
344.580364255357
20
1125.85526195156
30
0.0
11
344.683470181112
21
1125.77522286779
31
0.0
  0
LINE
 8
Component#1
10
344.683470181112
20
1125.77522286779
30
0.0
11
344.803778496872
21
1125.72459682692
31
0.0
  0
LINE
 8
Component#1
10
344.803778496872
20
1125.72459682692
30
0.0
11
344.933090389738
21
1125.70683390996
31
0.0
  0
LINE
 8
Component#1
10
344.933090389738
20
1125.70683390996
30
0.0
11
345.062593467909
21
1125.72314463036
31
0.0
  0
LINE
 8
Component#1
10
345.062593467909
20
1125.72314463036
30
0.0
11
345.183462310622
21
1125.77241743946
31
0.0
  0
LINE
 8
Component#1
10
345.183462310622
20
1125.77241743946
30
0.0
11
345.28745990599
21
1125.85129447676
31
0.0
  0
LINE
 8
Component#1
10
345.28745990599
20
1125.85129447676
30
0.0
11
345.367498989753
21
1125.95440040251
31
0.0
  0
LINE
 8
Component#1
10
345.367498989753
20
1125.95440040251
30
0.0
11
345.418125030625
21
1126.07470871827
31
0.0
  0
LINE
 8
Component#1
10
345.418125030625
20
1126.07470871827
30
0.0
11
345.435887947582
21
1126.20402061114
31
0.0
  0
LINE
 8
Component#1
10
345.435887947582
20
1126.20402061114
30
0.0
11
345.41957722719
21
1126.33352368931
31
0.0
  0
LINE
 8
Component#1
10
345.41957722719
20
1126.33352368931
30
0.0
11
345.370304418087
21
1126.45439253202
31
0.0
  0
LINE
 8
Component#1
10
345.370304418087
20
1126.45439253202
30
0.0
11
345.291427380788
21
1126.55839012739
31
0.0
  0
LINE
 8
Component#1
10
365.291427380788
20
1126.55839012739
30
0.0
11
365.188321455033
21
1126.63842921116
31
0.0
  0
LINE
 8
Component#1
10
365.188321455033
20
1126.63842921116
30
0.0
11
365.068013139273
21
1126.68905525203
31
0.0
  0
LINE
 8
Component#1
10
365.068013139273
20
1126.68905525203
30
0.0
11
364.938701246407
21
1126.70681816898
31
0.0
  0
LINE
 8
Component#1
10
364.938701246407
20
1126.70681816898
30
0.0
11
364.809198168236
21
1126.69050744859
31
0.0
  0
LINE
 8
Component#1
10
364.809198168236
20
1126.69050744859
30
0.0
11
364.688329325523
21
1126.64123463949
31
0.0
  0
LINE
 8
Component#1
10
364.688329325523
20
1126.64123463949
30
0.0
11
364.584331730155
21
1126.56235760219
31
0.0
  0
LINE
 8
Component#1
10
364.584331730155
20
1126.56235760219
30
0.0
11
364.504292646392
21
1126.45925167644
31
0.0
  0
LINE
 8
Component#1
10
364.504292646392
20
1126.45925167644
30
0.0
11
364.45366660552
21
1126.33894336067
31
0.0
  0
LINE
 8
Component#1
10
364.45366660552
20
1126.33894336067
30
0.0
11
364.435903688563
21
1126.20963146781
31
0.0
  0
LINE
 8
Component#1
10
364.435903688563
20
1126.20963146781
30
0.0
11
364.452214408955
21
1126.08012838964
31
0.0
  0
LINE
 8
Component#1
10
364.452214408955
20
1126.08012838964
30
0.0
11
364.501487218058
21
1125.95925954693
31
0.0
  0
LINE
 8
Component#1
10
364.501487218058
20
1125.95925954693
30
0.0
11
364.580364255357
21
1125.85526195156
31
0.0
  0
LINE
 8
Component#1
10
364.580364255357
20
1125.85526195156
30
0.0
11
364.683470181112
21
1125.77522286779
31
0.0
  0
LINE
 8
Component#1
10
364.683470181112
20
1125.77522286779
30
0.0
11
364.803778496872
21
1125.72459682692
31
0.0
  0
LINE
 8
Component#1
10
364.803778496872
20
1125.72459682692
30
0.0
11
364.933090389738
21
1125.70683390996
31
0.0
  0
LINE
 8
Component#1
10
364.933090389738
20
1125.70683390996
30
0.0
11
365.062593467909
21
1125.72314463036
31
0.0
  0
LINE
 8
Component#1
10
365.062593467909
20
1125.72314463036
30
0.0
11
365.183462310622
21
1125.77241743946
31
0.0
  0
LINE
 8
Component#1
10
365.183462310622
20
1125.77241743946
30
0.0
11
365.28745990599
21
1125.85129447676
31
0.0
  0
LINE
 8
Component#1
10
365.28745990599
20
1125.85129447676
30
0.0
11
365.367498989753
21
1125.95440040251
31
0.0
  0
LINE
 8
Component#1
10
365.367498989753
20
1125.95440040251
30
0.0
11
365.418125030625
21
1126.07470871827
31
0.0
  0
LINE
 8
Component#1
10
365.418125030625
20
1126.07470871827
30
0.0
11
365.435887947582
21
1126.20402061114
31
0.0
  0
LINE
 8
Component#1
10
365.435887947582
20
1126.20402061114
30
0.0
11
365.41957722719
21
1126.33352368931
31
0.0
  0
LINE
 8
Component#1
10
365.41957722719
20
1126.33352368931
30
0.0
11
365.370304418087
21
1126.45439253202
31
0.0
  0
LINE
 8
Component#1
10
365.370304418087
20
1126.45439253202
30
0.0
11
365.291427380788
21
1126.55839012739
31
0.0
  0
LINE
 8
Component#1
10
360.291427380788
20
1126.55839012739
30
0.0
11
360.188321455033
21
1126.63842921116
31
0.0
  0
LINE
 8
Component#1
10
360.188321455033
20
1126.63842921116
30
0.0
11
360.068013139273
21
1126.68905525203
31
0.0
  0
LINE
 8
Component#1
10
360.068013139273
20
1126.68905525203
30
0.0
11
359.938701246407
21
1126.70681816898
31
0.0
  0
LINE
 8
Component#1
10
359.938701246407
20
1126.70681816898
30
0.0
11
359.809198168236
21
1126.69050744859
31
0.0
  0
LINE
 8
Component#1
10
359.809198168236
20
1126.69050744859
30
0.0
11
359.688329325523
21
1126.64123463949
31
0.0
  0
LINE
 8
Component#1
10
359.688329325523
20
1126.64123463949
30
0.0
11
359.584331730155
21
1126.56235760219
31
0.0
  0
LINE
 8
Component#1
10
359.584331730155
20
1126.56235760219
30
0.0
11
359.504292646392
21
1126.45925167644
31
0.0
  0
LINE
 8
Component#1
10
359.504292646392
20
1126.45925167644
30
0.0
11
359.45366660552
21
1126.33894336067
31
0.0
  0
LINE
 8
Component#1
10
359.45366660552
20
1126.33894336067
30
0.0
11
359.435903688563
21
1126.20963146781
31
0.0
  0
LINE
 8
Component#1
10
359.435903688563
20
1126.20963146781
30
0.0
11
359.452214408955
21
1126.08012838964
31
0.0
  0
LINE
 8
Component#1
10
359.452214408955
20
1126.08012838964
30
0.0
11
359.501487218058
21
1125.95925954693
31
0.0
  0
LINE
 8
Component#1
10
359.501487218058
20
1125.95925954693
30
0.0
11
359.580364255357
21
1125.85526195156
31
0.0
  0
LINE
 8
Component#1
10
359.580364255357
20
1125.85526195156
30
0.0
11
359.683470181112
21
1125.77522286779
31
0.0
  0
LINE
 8
Component#1
10
359.683470181112
20
1125.77522286779
30
0.0
11
359.803778496872
21
1125.72459682692
31
0.0
  0
LINE
 8
Component#1
10
359.803778496872
20
1125.72459682692
30
0.0
11
359.933090389738
21
1125.70683390996
31
0.0
  0
LINE
 8
Component#1
10
359.933090389738
20
1125.70683390996
30
0.0
11
360.062593467909
21
1125.72314463036
31
0.0
  0
LINE
 8
Component#1
10
360.062593467909
20
1125.72314463036
30
0.0
11
360.183462310622
21
1125.77241743946
31
0.0
  0
LINE
 8
Component#1
10
360.183462310622
20
1125.77241743946
30
0.0
11
360.28745990599
21
1125.85129447676
31
0.0
  0
LINE
 8
Component#1
10
360.28745990599
20
1125.85129447676
30
0.0
11
360.367498989753
21
1125.95440040251
31
0.0
  0
LINE
 8
Component#1
10
360.367498989753
20
1125.95440040251
30
0.0
11
360.418125030625
21
1126.07470871827
31
0.0
  0
LINE
 8
Component#1
10
360.418125030625
20
1126.07470871827
30
0.0
11
360.435887947582
21
1126.20402061114
31
0.0
  0
LINE
 8
Component#1
10
360.435887947582
20
1126.20402061114
30
0.0
11
360.41957722719
21
1126.33352368931
31
0.0
  0
LINE
 8
Component#1
10
360.41957722719
20
1126.33352368931
30
0.0
11
360.370304418087
21
1126.45439253202
31
0.0
  0
LINE
 8
Component#1
10
360.370304418087
20
1126.45439253202
30
0.0
11
360.291427380788
21
1126.55839012739
31
0.0
  0
LINE
 8
Component#1
10
370.291427380788
20
1126.55839012739
30
0.0
11
370.188321455033
21
1126.63842921116
31
0.0
  0
LINE
 8
Component#1
10
370.188321455033
20
1126.63842921116
30
0.0
11
370.068013139273
21
1126.68905525203
31
0.0
  0
LINE
 8
Component#1
10
370.068013139273
20
1126.68905525203
30
0.0
11
369.938701246407
21
1126.70681816898
31
0.0
  0
LINE
 8
Component#1
10
369.938701246407
20
1126.70681816898
30
0.0
11
369.809198168236
21
1126.69050744859
31
0.0
  0
LINE
 8
Component#1
10
369.809198168236
20
1126.69050744859
30
0.0
11
369.688329325523
21
1126.64123463949
31
0.0
  0
LINE
 8
Component#1
10
369.688329325523
20
1126.64123463949
30
0.0
11
369.584331730155
21
1126.56235760219
31
0.0
  0
LINE
 8
Component#1
10
369.584331730155
20
1126.56235760219
30
0.0
11
369.504292646392
21
1126.45925167644
31
0.0
  0
LINE
 8
Component#1
10
369.504292646392
20
1126.45925167644
30
0.0
11
369.45366660552
21
1126.33894336067
31
0.0
  0
LINE
 8
Component#1
10
369.45366660552
20
1126.33894336067
30
0.0
11
369.435903688563
21
1126.20963146781
31
0.0
  0
LINE
 8
Component#1
10
369.435903688563
20
1126.20963146781
30
0.0
11
369.452214408955
21
1126.08012838964
31
0.0
  0
LINE
 8
Component#1
10
369.452214408955
20
1126.08012838964
30
0.0
11
369.501487218058
21
1125.95925954693
31
0.0
  0
LINE
 8
Component#1
10
369.501487218058
20
1125.95925954693
30
0.0
11
369.580364255357
21
1125.85526195156
31
0.0
  0
LINE
 8
Component#1
10
369.580364255357
20
1125.85526195156
30
0.0
11
369.683470181112
21
1125.77522286779
31
0.0
  0
LINE
 8
Component#1
10
369.683470181112
20
1125.77522286779
30
0.0
11
369.803778496872
21
1125.72459682692
31
0.0
  0
LINE
 8
Component#1
10
369.803778496872
20
1125.72459682692
30
0.0
11
369.933090389738
21
1125.70683390996
31
0.0
  0
LINE
 8
Component#1
10
369.933090389738
20
1125.70683390996
30
0.0
11
370.062593467909
21
1125.72314463036
31
0.0
  0
LINE
 8
Component#1
10
370.062593467909
20
1125.72314463036
30
0.0
11
370.183462310622
21
1125.77241743946
31
0.0
  0
LINE
 8
Component#1
10
370.183462310622
20
1125.77241743946
30
0.0
11
370.28745990599
21
1125.85129447676
31
0.0
  0
LINE
 8
Component#1
10
370.28745990599
20
1125.85129447676
30
0.0
11
370.367498989753
21
1125.95440040251
31
0.0
  0
LINE
 8
Component#1
10
370.367498989753
20
1125.95440040251
30
0.0
11
370.418125030625
21
1126.07470871827
31
0.0
  0
LINE
 8
Component#1
10
370.418125030625
20
1126.07470871827
30
0.0
11
370.435887947582
21
1126.20402061114
31
0.0
  0
LINE
 8
Component#1
10
370.435887947582
20
1126.20402061114
30
0.0
11
370.41957722719
21
1126.33352368931
31
0.0
  0
LINE
 8
Component#1
10
370.41957722719
20
1126.33352368931
30
0.0
11
370.370304418087
21
1126.45439253202
31
0.0
  0
LINE
 8
Component#1
10
370.370304418087
20
1126.45439253202
30
0.0
11
370.291427380788
21
1126.55839012739
31
0.0
  0
LINE
 8
Component#1
10
280.291427380788
20
1136.55839012739
30
0.0
11
280.188321455033
21
1136.63842921116
31
0.0
  0
LINE
 8
Component#1
10
280.188321455033
20
1136.63842921116
30
0.0
11
280.068013139273
21
1136.68905525203
31
0.0
  0
LINE
 8
Component#1
10
280.068013139273
20
1136.68905525203
30
0.0
11
279.938701246407
21
1136.70681816898
31
0.0
  0
LINE
 8
Component#1
10
279.938701246407
20
1136.70681816898
30
0.0
11
279.809198168236
21
1136.69050744859
31
0.0
  0
LINE
 8
Component#1
10
279.809198168236
20
1136.69050744859
30
0.0
11
279.688329325523
21
1136.64123463949
31
0.0
  0
LINE
 8
Component#1
10
279.688329325523
20
1136.64123463949
30
0.0
11
279.584331730155
21
1136.56235760219
31
0.0
  0
LINE
 8
Component#1
10
279.584331730155
20
1136.56235760219
30
0.0
11
279.504292646392
21
1136.45925167644
31
0.0
  0
LINE
 8
Component#1
10
279.504292646392
20
1136.45925167644
30
0.0
11
279.45366660552
21
1136.33894336067
31
0.0
  0
LINE
 8
Component#1
10
279.45366660552
20
1136.33894336067
30
0.0
11
279.435903688563
21
1136.20963146781
31
0.0
  0
LINE
 8
Component#1
10
279.435903688563
20
1136.20963146781
30
0.0
11
279.452214408955
21
1136.08012838964
31
0.0
  0
LINE
 8
Component#1
10
279.452214408955
20
1136.08012838964
30
0.0
11
279.501487218058
21
1135.95925954693
31
0.0
  0
LINE
 8
Component#1
10
279.501487218058
20
1135.95925954693
30
0.0
11
279.580364255357
21
1135.85526195156
31
0.0
  0
LINE
 8
Component#1
10
279.580364255357
20
1135.85526195156
30
0.0
11
279.683470181112
21
1135.77522286779
31
0.0
  0
LINE
 8
Component#1
10
279.683470181112
20
1135.77522286779
30
0.0
11
279.803778496872
21
1135.72459682692
31
0.0
  0
LINE
 8
Component#1
10
279.803778496872
20
1135.72459682692
30
0.0
11
279.933090389738
21
1135.70683390996
31
0.0
  0
LINE
 8
Component#1
10
279.933090389738
20
1135.70683390996
30
0.0
11
280.062593467909
21
1135.72314463036
31
0.0
  0
LINE
 8
Component#1
10
280.062593467909
20
1135.72314463036
30
0.0
11
280.183462310622
21
1135.77241743946
31
0.0
  0
LINE
 8
Component#1
10
280.183462310622
20
1135.77241743946
30
0.0
11
280.28745990599
21
1135.85129447676
31
0.0
  0
LINE
 8
Component#1
10
280.28745990599
20
1135.85129447676
30
0.0
11
280.367498989753
21
1135.95440040251
31
0.0
  0
LINE
 8
Component#1
10
280.367498989753
20
1135.95440040251
30
0.0
11
280.418125030625
21
1136.07470871827
31
0.0
  0
LINE
 8
Component#1
10
280.418125030625
20
1136.07470871827
30
0.0
11
280.435887947582
21
1136.20402061114
31
0.0
  0
LINE
 8
Component#1
10
280.435887947582
20
1136.20402061114
30
0.0
11
280.41957722719
21
1136.33352368931
31
0.0
  0
LINE
 8
Component#1
10
280.41957722719
20
1136.33352368931
30
0.0
11
280.370304418087
21
1136.45439253202
31
0.0
  0
LINE
 8
Component#1
10
280.370304418087
20
1136.45439253202
30
0.0
11
280.291427380788
21
1136.55839012739
31
0.0
  0
LINE
 8
Component#1
10
280.291427380788
20
1141.55839012739
30
0.0
11
280.188321455033
21
1141.63842921116
31
0.0
  0
LINE
 8
Component#1
10
280.188321455033
20
1141.63842921116
30
0.0
11
280.068013139273
21
1141.68905525203
31
0.0
  0
LINE
 8
Component#1
10
280.068013139273
20
1141.68905525203
30
0.0
11
279.938701246407
21
1141.70681816898
31
0.0
  0
LINE
 8
Component#1
10
279.938701246407
20
1141.70681816898
30
0.0
11
279.809198168236
21
1141.69050744859
31
0.0
  0
LINE
 8
Component#1
10
279.809198168236
20
1141.69050744859
30
0.0
11
279.688329325523
21
1141.64123463949
31
0.0
  0
LINE
 8
Component#1
10
279.688329325523
20
1141.64123463949
30
0.0
11
279.584331730155
21
1141.56235760219
31
0.0
  0
LINE
 8
Component#1
10
279.584331730155
20
1141.56235760219
30
0.0
11
279.504292646392
21
1141.45925167644
31
0.0
  0
LINE
 8
Component#1
10
279.504292646392
20
1141.45925167644
30
0.0
11
279.45366660552
21
1141.33894336067
31
0.0
  0
LINE
 8
Component#1
10
279.45366660552
20
1141.33894336067
30
0.0
11
279.435903688563
21
1141.20963146781
31
0.0
  0
LINE
 8
Component#1
10
279.435903688563
20
1141.20963146781
30
0.0
11
279.452214408955
21
1141.08012838964
31
0.0
  0
LINE
 8
Component#1
10
279.452214408955
20
1141.08012838964
30
0.0
11
279.501487218058
21
1140.95925954693
31
0.0
  0
LINE
 8
Component#1
10
279.501487218058
20
1140.95925954693
30
0.0
11
279.580364255357
21
1140.85526195156
31
0.0
  0
LINE
 8
Component#1
10
279.580364255357
20
1140.85526195156
30
0.0
11
279.683470181112
21
1140.77522286779
31
0.0
  0
LINE
 8
Component#1
10
279.683470181112
20
1140.77522286779
30
0.0
11
279.803778496872
21
1140.72459682692
31
0.0
  0
LINE
 8
Component#1
10
279.803778496872
20
1140.72459682692
30
0.0
11
279.933090389738
21
1140.70683390996
31
0.0
  0
LINE
 8
Component#1
10
279.933090389738
20
1140.70683390996
30
0.0
11
280.062593467909
21
1140.72314463036
31
0.0
  0
LINE
 8
Component#1
10
280.062593467909
20
1140.72314463036
30
0.0
11
280.183462310622
21
1140.77241743946
31
0.0
  0
LINE
 8
Component#1
10
280.183462310622
20
1140.77241743946
30
0.0
11
280.28745990599
21
1140.85129447676
31
0.0
  0
LINE
 8
Component#1
10
280.28745990599
20
1140.85129447676
30
0.0
11
280.367498989753
21
1140.95440040251
31
0.0
  0
LINE
 8
Component#1
10
280.367498989753
20
1140.95440040251
30
0.0
11
280.418125030625
21
1141.07470871827
31
0.0
  0
LINE
 8
Component#1
10
280.418125030625
20
1141.07470871827
30
0.0
11
280.435887947582
21
1141.20402061114
31
0.0
  0
LINE
 8
Component#1
10
280.435887947582
20
1141.20402061114
30
0.0
11
280.41957722719
21
1141.33352368931
31
0.0
  0
LINE
 8
Component#1
10
280.41957722719
20
1141.33352368931
30
0.0
11
280.370304418087
21
1141.45439253202
31
0.0
  0
LINE
 8
Component#1
10
280.370304418087
20
1141.45439253202
30
0.0
11
280.291427380788
21
1141.55839012739
31
0.0
  0
LINE
 8
Component#1
10
280.291427380788
20
1146.55839012739
30
0.0
11
280.188321455033
21
1146.63842921116
31
0.0
  0
LINE
 8
Component#1
10
280.188321455033
20
1146.63842921116
30
0.0
11
280.068013139273
21
1146.68905525203
31
0.0
  0
LINE
 8
Component#1
10
280.068013139273
20
1146.68905525203
30
0.0
11
279.938701246407
21
1146.70681816898
31
0.0
  0
LINE
 8
Component#1
10
279.938701246407
20
1146.70681816898
30
0.0
11
279.809198168236
21
1146.69050744859
31
0.0
  0
LINE
 8
Component#1
10
279.809198168236
20
1146.69050744859
30
0.0
11
279.688329325523
21
1146.64123463949
31
0.0
  0
LINE
 8
Component#1
10
279.688329325523
20
1146.64123463949
30
0.0
11
279.584331730155
21
1146.56235760219
31
0.0
  0
LINE
 8
Component#1
10
279.584331730155
20
1146.56235760219
30
0.0
11
279.504292646392
21
1146.45925167644
31
0.0
  0
LINE
 8
Component#1
10
279.504292646392
20
1146.45925167644
30
0.0
11
279.45366660552
21
1146.33894336067
31
0.0
  0
LINE
 8
Component#1
10
279.45366660552
20
1146.33894336067
30
0.0
11
279.435903688563
21
1146.20963146781
31
0.0
  0
LINE
 8
Component#1
10
279.435903688563
20
1146.20963146781
30
0.0
11
279.452214408955
21
1146.08012838964
31
0.0
  0
LINE
 8
Component#1
10
279.452214408955
20
1146.08012838964
30
0.0
11
279.501487218058
21
1145.95925954693
31
0.0
  0
LINE
 8
Component#1
10
279.501487218058
20
1145.95925954693
30
0.0
11
279.580364255357
21
1145.85526195156
31
0.0
  0
LINE
 8
Component#1
10
279.580364255357
20
1145.85526195156
30
0.0
11
279.683470181112
21
1145.77522286779
31
0.0
  0
LINE
 8
Component#1
10
279.683470181112
20
1145.77522286779
30
0.0
11
279.803778496872
21
1145.72459682692
31
0.0
  0
LINE
 8
Component#1
10
279.803778496872
20
1145.72459682692
30
0.0
11
279.933090389738
21
1145.70683390996
31
0.0
  0
LINE
 8
Component#1
10
279.933090389738
20
1145.70683390996
30
0.0
11
280.062593467909
21
1145.72314463036
31
0.0
  0
LINE
 8
Component#1
10
280.062593467909
20
1145.72314463036
30
0.0
11
280.183462310622
21
1145.77241743946
31
0.0
  0
LINE
 8
Component#1
10
280.183462310622
20
1145.77241743946
30
0.0
11
280.28745990599
21
1145.85129447676
31
0.0
  0
LINE
 8
Component#1
10
280.28745990599
20
1145.85129447676
30
0.0
11
280.367498989753
21
1145.95440040251
31
0.0
  0
LINE
 8
Component#1
10
280.367498989753
20
1145.95440040251
30
0.0
11
280.418125030625
21
1146.07470871827
31
0.0
  0
LINE
 8
Component#1
10
280.418125030625
20
1146.07470871827
30
0.0
11
280.435887947582
21
1146.20402061114
31
0.0
  0
LINE
 8
Component#1
10
280.435887947582
20
1146.20402061114
30
0.0
11
280.41957722719
21
1146.33352368931
31
0.0
  0
LINE
 8
Component#1
10
280.41957722719
20
1146.33352368931
30
0.0
11
280.370304418087
21
1146.45439253202
31
0.0
  0
LINE
 8
Component#1
10
280.370304418087
20
1146.45439253202
30
0.0
11
280.291427380788
21
1146.55839012739
31
0.0
  0
LINE
 8
Component#1
10
280.291427380788
20
1151.55839012739
30
0.0
11
280.188321455033
21
1151.63842921116
31
0.0
  0
LINE
 8
Component#1
10
280.188321455033
20
1151.63842921116
30
0.0
11
280.068013139273
21
1151.68905525203
31
0.0
  0
LINE
 8
Component#1
10
280.068013139273
20
1151.68905525203
30
0.0
11
279.938701246407
21
1151.70681816898
31
0.0
  0
LINE
 8
Component#1
10
279.938701246407
20
1151.70681816898
30
0.0
11
279.809198168236
21
1151.69050744859
31
0.0
  0
LINE
 8
Component#1
10
279.809198168236
20
1151.69050744859
30
0.0
11
279.688329325523
21
1151.64123463949
31
0.0
  0
LINE
 8
Component#1
10
279.688329325523
20
1151.64123463949
30
0.0
11
279.584331730155
21
1151.56235760219
31
0.0
  0
LINE
 8
Component#1
10
279.584331730155
20
1151.56235760219
30
0.0
11
279.504292646392
21
1151.45925167644
31
0.0
  0
LINE
 8
Component#1
10
279.504292646392
20
1151.45925167644
30
0.0
11
279.45366660552
21
1151.33894336067
31
0.0
  0
LINE
 8
Component#1
10
279.45366660552
20
1151.33894336067
30
0.0
11
279.435903688563
21
1151.20963146781
31
0.0
  0
LINE
 8
Component#1
10
279.435903688563
20
1151.20963146781
30
0.0
11
279.452214408955
21
1151.08012838964
31
0.0
  0
LINE
 8
Component#1
10
279.452214408955
20
1151.08012838964
30
0.0
11
279.501487218058
21
1150.95925954693
31
0.0
  0
LINE
 8
Component#1
10
279.501487218058
20
1150.95925954693
30
0.0
11
279.580364255357
21
1150.85526195156
31
0.0
  0
LINE
 8
Component#1
10
279.580364255357
20
1150.85526195156
30
0.0
11
279.683470181112
21
1150.77522286779
31
0.0
  0
LINE
 8
Component#1
10
279.683470181112
20
1150.77522286779
30
0.0
11
279.803778496872
21
1150.72459682692
31
0.0
  0
LINE
 8
Component#1
10
279.803778496872
20
1150.72459682692
30
0.0
11
279.933090389738
21
1150.70683390996
31
0.0
  0
LINE
 8
Component#1
10
279.933090389738
20
1150.70683390996
30
0.0
11
280.062593467909
21
1150.72314463036
31
0.0
  0
LINE
 8
Component#1
10
280.062593467909
20
1150.72314463036
30
0.0
11
280.183462310622
21
1150.77241743946
31
0.0
  0
LINE
 8
Component#1
10
280.183462310622
20
1150.77241743946
30
0.0
11
280.28745990599
21
1150.85129447676
31
0.0
  0
LINE
 8
Component#1
10
280.28745990599
20
1150.85129447676
30
0.0
11
280.367498989753
21
1150.95440040251
31
0.0
  0
LINE
 8
Component#1
10
280.367498989753
20
1150.95440040251
30
0.0
11
280.418125030625
21
1151.07470871827
31
0.0
  0
LINE
 8
Component#1
10
280.418125030625
20
1151.07470871827
30
0.0
11
280.435887947582
21
1151.20402061114
31
0.0
  0
LINE
 8
Component#1
10
280.435887947582
20
1151.20402061114
30
0.0
11
280.41957722719
21
1151.33352368931
31
0.0
  0
LINE
 8
Component#1
10
280.41957722719
20
1151.33352368931
30
0.0
11
280.370304418087
21
1151.45439253202
31
0.0
  0
LINE
 8
Component#1
10
280.370304418087
20
1151.45439253202
30
0.0
11
280.291427380788
21
1151.55839012739
31
0.0
  0
LINE
 8
Component#1
10
280.291427380788
20
1161.55839012739
30
0.0
11
280.188321455033
21
1161.63842921116
31
0.0
  0
LINE
 8
Component#1
10
280.188321455033
20
1161.63842921116
30
0.0
11
280.068013139273
21
1161.68905525203
31
0.0
  0
LINE
 8
Component#1
10
280.068013139273
20
1161.68905525203
30
0.0
11
279.938701246407
21
1161.70681816898
31
0.0
  0
LINE
 8
Component#1
10
279.938701246407
20
1161.70681816898
30
0.0
11
279.809198168236
21
1161.69050744859
31
0.0
  0
LINE
 8
Component#1
10
279.809198168236
20
1161.69050744859
30
0.0
11
279.688329325523
21
1161.64123463949
31
0.0
  0
LINE
 8
Component#1
10
279.688329325523
20
1161.64123463949
30
0.0
11
279.584331730155
21
1161.56235760219
31
0.0
  0
LINE
 8
Component#1
10
279.584331730155
20
1161.56235760219
30
0.0
11
279.504292646392
21
1161.45925167644
31
0.0
  0
LINE
 8
Component#1
10
279.504292646392
20
1161.45925167644
30
0.0
11
279.45366660552
21
1161.33894336067
31
0.0
  0
LINE
 8
Component#1
10
279.45366660552
20
1161.33894336067
30
0.0
11
279.435903688563
21
1161.20963146781
31
0.0
  0
LINE
 8
Component#1
10
279.435903688563
20
1161.20963146781
30
0.0
11
279.452214408955
21
1161.08012838964
31
0.0
  0
LINE
 8
Component#1
10
279.452214408955
20
1161.08012838964
30
0.0
11
279.501487218058
21
1160.95925954693
31
0.0
  0
LINE
 8
Component#1
10
279.501487218058
20
1160.95925954693
30
0.0
11
279.580364255357
21
1160.85526195156
31
0.0
  0
LINE
 8
Component#1
10
279.580364255357
20
1160.85526195156
30
0.0
11
279.683470181112
21
1160.77522286779
31
0.0
  0
LINE
 8
Component#1
10
279.683470181112
20
1160.77522286779
30
0.0
11
279.803778496872
21
1160.72459682692
31
0.0
  0
LINE
 8
Component#1
10
279.803778496872
20
1160.72459682692
30
0.0
11
279.933090389738
21
1160.70683390996
31
0.0
  0
LINE
 8
Component#1
10
279.933090389738
20
1160.70683390996
30
0.0
11
280.062593467909
21
1160.72314463036
31
0.0
  0
LINE
 8
Component#1
10
280.062593467909
20
1160.72314463036
30
0.0
11
280.183462310622
21
1160.77241743946
31
0.0
  0
LINE
 8
Component#1
10
280.183462310622
20
1160.77241743946
30
0.0
11
280.28745990599
21
1160.85129447676
31
0.0
  0
LINE
 8
Component#1
10
280.28745990599
20
1160.85129447676
30
0.0
11
280.367498989753
21
1160.95440040251
31
0.0
  0
LINE
 8
Component#1
10
280.367498989753
20
1160.95440040251
30
0.0
11
280.418125030625
21
1161.07470871827
31
0.0
  0
LINE
 8
Component#1
10
280.418125030625
20
1161.07470871827
30
0.0
11
280.435887947582
21
1161.20402061114
31
0.0
  0
LINE
 8
Component#1
10
280.435887947582
20
1161.20402061114
30
0.0
11
280.41957722719
21
1161.33352368931
31
0.0
  0
LINE
 8
Component#1
10
280.41957722719
20
1161.33352368931
30
0.0
11
280.370304418087
21
1161.45439253202
31
0.0
  0
LINE
 8
Component#1
10
280.370304418087
20
1161.45439253202
30
0.0
11
280.291427380788
21
1161.55839012739
31
0.0
  0
LINE
 8
Component#1
10
280.291427380788
20
1166.55839012739
30
0.0
11
280.188321455033
21
1166.63842921116
31
0.0
  0
LINE
 8
Component#1
10
280.188321455033
20
1166.63842921116
30
0.0
11
280.068013139273
21
1166.68905525203
31
0.0
  0
LINE
 8
Component#1
10
280.068013139273
20
1166.68905525203
30
0.0
11
279.938701246407
21
1166.70681816898
31
0.0
  0
LINE
 8
Component#1
10
279.938701246407
20
1166.70681816898
30
0.0
11
279.809198168236
21
1166.69050744859
31
0.0
  0
LINE
 8
Component#1
10
279.809198168236
20
1166.69050744859
30
0.0
11
279.688329325523
21
1166.64123463949
31
0.0
  0
LINE
 8
Component#1
10
279.688329325523
20
1166.64123463949
30
0.0
11
279.584331730155
21
1166.56235760219
31
0.0
  0
LINE
 8
Component#1
10
279.584331730155
20
1166.56235760219
30
0.0
11
279.504292646392
21
1166.45925167644
31
0.0
  0
LINE
 8
Component#1
10
279.504292646392
20
1166.45925167644
30
0.0
11
279.45366660552
21
1166.33894336067
31
0.0
  0
LINE
 8
Component#1
10
279.45366660552
20
1166.33894336067
30
0.0
11
279.435903688563
21
1166.20963146781
31
0.0
  0
LINE
 8
Component#1
10
279.435903688563
20
1166.20963146781
30
0.0
11
279.452214408955
21
1166.08012838964
31
0.0
  0
LINE
 8
Component#1
10
279.452214408955
20
1166.08012838964
30
0.0
11
279.501487218058
21
1165.95925954693
31
0.0
  0
LINE
 8
Component#1
10
279.501487218058
20
1165.95925954693
30
0.0
11
279.580364255357
21
1165.85526195156
31
0.0
  0
LINE
 8
Component#1
10
279.580364255357
20
1165.85526195156
30
0.0
11
279.683470181112
21
1165.77522286779
31
0.0
  0
LINE
 8
Component#1
10
279.683470181112
20
1165.77522286779
30
0.0
11
279.803778496872
21
1165.72459682692
31
0.0
  0
LINE
 8
Component#1
10
279.803778496872
20
1165.72459682692
30
0.0
11
279.933090389738
21
1165.70683390996
31
0.0
  0
LINE
 8
Component#1
10
279.933090389738
20
1165.70683390996
30
0.0
11
280.062593467909
21
1165.72314463036
31
0.0
  0
LINE
 8
Component#1
10
280.062593467909
20
1165.72314463036
30
0.0
11
280.183462310622
21
1165.77241743946
31
0.0
  0
LINE
 8
Component#1
10
280.183462310622
20
1165.77241743946
30
0.0
11
280.28745990599
21
1165.85129447676
31
0.0
  0
LINE
 8
Component#1
10
280.28745990599
20
1165.85129447676
30
0.0
11
280.367498989753
21
1165.95440040251
31
0.0
  0
LINE
 8
Component#1
10
280.367498989753
20
1165.95440040251
30
0.0
11
280.418125030625
21
1166.07470871827
31
0.0
  0
LINE
 8
Component#1
10
280.418125030625
20
1166.07470871827
30
0.0
11
280.435887947582
21
1166.20402061114
31
0.0
  0
LINE
 8
Component#1
10
280.435887947582
20
1166.20402061114
30
0.0
11
280.41957722719
21
1166.33352368931
31
0.0
  0
LINE
 8
Component#1
10
280.41957722719
20
1166.33352368931
30
0.0
11
280.370304418087
21
1166.45439253202
31
0.0
  0
LINE
 8
Component#1
10
280.370304418087
20
1166.45439253202
30
0.0
11
280.291427380788
21
1166.55839012739
31
0.0
  0
LINE
 8
Component#1
10
280.291427380788
20
1156.55839012739
30
0.0
11
280.188321455033
21
1156.63842921116
31
0.0
  0
LINE
 8
Component#1
10
280.188321455033
20
1156.63842921116
30
0.0
11
280.068013139273
21
1156.68905525203
31
0.0
  0
LINE
 8
Component#1
10
280.068013139273
20
1156.68905525203
30
0.0
11
279.938701246407
21
1156.70681816898
31
0.0
  0
LINE
 8
Component#1
10
279.938701246407
20
1156.70681816898
30
0.0
11
279.809198168236
21
1156.69050744859
31
0.0
  0
LINE
 8
Component#1
10
279.809198168236
20
1156.69050744859
30
0.0
11
279.688329325523
21
1156.64123463949
31
0.0
  0
LINE
 8
Component#1
10
279.688329325523
20
1156.64123463949
30
0.0
11
279.584331730155
21
1156.56235760219
31
0.0
  0
LINE
 8
Component#1
10
279.584331730155
20
1156.56235760219
30
0.0
11
279.504292646392
21
1156.45925167644
31
0.0
  0
LINE
 8
Component#1
10
279.504292646392
20
1156.45925167644
30
0.0
11
279.45366660552
21
1156.33894336067
31
0.0
  0
LINE
 8
Component#1
10
279.45366660552
20
1156.33894336067
30
0.0
11
279.435903688563
21
1156.20963146781
31
0.0
  0
LINE
 8
Component#1
10
279.435903688563
20
1156.20963146781
30
0.0
11
279.452214408955
21
1156.08012838964
31
0.0
  0
LINE
 8
Component#1
10
279.452214408955
20
1156.08012838964
30
0.0
11
279.501487218058
21
1155.95925954693
31
0.0
  0
LINE
 8
Component#1
10
279.501487218058
20
1155.95925954693
30
0.0
11
279.580364255357
21
1155.85526195156
31
0.0
  0
LINE
 8
Component#1
10
279.580364255357
20
1155.85526195156
30
0.0
11
279.683470181112
21
1155.77522286779
31
0.0
  0
LINE
 8
Component#1
10
279.683470181112
20
1155.77522286779
30
0.0
11
279.803778496872
21
1155.72459682692
31
0.0
  0
LINE
 8
Component#1
10
279.803778496872
20
1155.72459682692
30
0.0
11
279.933090389738
21
1155.70683390996
31
0.0
  0
LINE
 8
Component#1
10
279.933090389738
20
1155.70683390996
30
0.0
11
280.062593467909
21
1155.72314463036
31
0.0
  0
LINE
 8
Component#1
10
280.062593467909
20
1155.72314463036
30
0.0
11
280.183462310622
21
1155.77241743946
31
0.0
  0
LINE
 8
Component#1
10
280.183462310622
20
1155.77241743946
30
0.0
11
280.28745990599
21
1155.85129447676
31
0.0
  0
LINE
 8
Component#1
10
280.28745990599
20
1155.85129447676
30
0.0
11
280.367498989753
21
1155.95440040251
31
0.0
  0
LINE
 8
Component#1
10
280.367498989753
20
1155.95440040251
30
0.0
11
280.418125030625
21
1156.07470871827
31
0.0
  0
LINE
 8
Component#1
10
280.418125030625
20
1156.07470871827
30
0.0
11
280.435887947582
21
1156.20402061114
31
0.0
  0
LINE
 8
Component#1
10
280.435887947582
20
1156.20402061114
30
0.0
11
280.41957722719
21
1156.33352368931
31
0.0
  0
LINE
 8
Component#1
10
280.41957722719
20
1156.33352368931
30
0.0
11
280.370304418087
21
1156.45439253202
31
0.0
  0
LINE
 8
Component#1
10
280.370304418087
20
1156.45439253202
30
0.0
11
280.291427380788
21
1156.55839012739
31
0.0
  0
LINE
 8
Component#1
10
280.291427380788
20
1171.55839012739
30
0.0
11
280.188321455033
21
1171.63842921116
31
0.0
  0
LINE
 8
Component#1
10
280.188321455033
20
1171.63842921116
30
0.0
11
280.068013139273
21
1171.68905525203
31
0.0
  0
LINE
 8
Component#1
10
280.068013139273
20
1171.68905525203
30
0.0
11
279.938701246407
21
1171.70681816898
31
0.0
  0
LINE
 8
Component#1
10
279.938701246407
20
1171.70681816898
30
0.0
11
279.809198168236
21
1171.69050744859
31
0.0
  0
LINE
 8
Component#1
10
279.809198168236
20
1171.69050744859
30
0.0
11
279.688329325523
21
1171.64123463949
31
0.0
  0
LINE
 8
Component#1
10
279.688329325523
20
1171.64123463949
30
0.0
11
279.584331730155
21
1171.56235760219
31
0.0
  0
LINE
 8
Component#1
10
279.584331730155
20
1171.56235760219
30
0.0
11
279.504292646392
21
1171.45925167644
31
0.0
  0
LINE
 8
Component#1
10
279.504292646392
20
1171.45925167644
30
0.0
11
279.45366660552
21
1171.33894336067
31
0.0
  0
LINE
 8
Component#1
10
279.45366660552
20
1171.33894336067
30
0.0
11
279.435903688563
21
1171.20963146781
31
0.0
  0
LINE
 8
Component#1
10
279.435903688563
20
1171.20963146781
30
0.0
11
279.452214408955
21
1171.08012838964
31
0.0
  0
LINE
 8
Component#1
10
279.452214408955
20
1171.08012838964
30
0.0
11
279.501487218058
21
1170.95925954693
31
0.0
  0
LINE
 8
Component#1
10
279.501487218058
20
1170.95925954693
30
0.0
11
279.580364255357
21
1170.85526195156
31
0.0
  0
LINE
 8
Component#1
10
279.580364255357
20
1170.85526195156
30
0.0
11
279.683470181112
21
1170.77522286779
31
0.0
  0
LINE
 8
Component#1
10
279.683470181112
20
1170.77522286779
30
0.0
11
279.803778496872
21
1170.72459682692
31
0.0
  0
LINE
 8
Component#1
10
279.803778496872
20
1170.72459682692
30
0.0
11
279.933090389738
21
1170.70683390996
31
0.0
  0
LINE
 8
Component#1
10
279.933090389738
20
1170.70683390996
30
0.0
11
280.062593467909
21
1170.72314463036
31
0.0
  0
LINE
 8
Component#1
10
280.062593467909
20
1170.72314463036
30
0.0
11
280.183462310622
21
1170.77241743946
31
0.0
  0
LINE
 8
Component#1
10
280.183462310622
20
1170.77241743946
30
0.0
11
280.28745990599
21
1170.85129447676
31
0.0
  0
LINE
 8
Component#1
10
280.28745990599
20
1170.85129447676
30
0.0
11
280.367498989753
21
1170.95440040251
31
0.0
  0
LINE
 8
Component#1
10
280.367498989753
20
1170.95440040251
30
0.0
11
280.418125030625
21
1171.07470871827
31
0.0
  0
LINE
 8
Component#1
10
280.418125030625
20
1171.07470871827
30
0.0
11
280.435887947582
21
1171.20402061114
31
0.0
  0
LINE
 8
Component#1
10
280.435887947582
20
1171.20402061114
30
0.0
11
280.41957722719
21
1171.33352368931
31
0.0
  0
LINE
 8
Component#1
10
280.41957722719
20
1171.33352368931
30
0.0
11
280.370304418087
21
1171.45439253202
31
0.0
  0
LINE
 8
Component#1
10
280.370304418087
20
1171.45439253202
30
0.0
11
280.291427380788
21
1171.55839012739
31
0.0
  0
LINE
 8
Component#1
10
280.291427380788
20
1181.55839012739
30
0.0
11
280.188321455033
21
1181.63842921116
31
0.0
  0
LINE
 8
Component#1
10
280.188321455033
20
1181.63842921116
30
0.0
11
280.068013139273
21
1181.68905525203
31
0.0
  0
LINE
 8
Component#1
10
280.068013139273
20
1181.68905525203
30
0.0
11
279.938701246407
21
1181.70681816898
31
0.0
  0
LINE
 8
Component#1
10
279.938701246407
20
1181.70681816898
30
0.0
11
279.809198168236
21
1181.69050744859
31
0.0
  0
LINE
 8
Component#1
10
279.809198168236
20
1181.69050744859
30
0.0
11
279.688329325523
21
1181.64123463949
31
0.0
  0
LINE
 8
Component#1
10
279.688329325523
20
1181.64123463949
30
0.0
11
279.584331730155
21
1181.56235760219
31
0.0
  0
LINE
 8
Component#1
10
279.584331730155
20
1181.56235760219
30
0.0
11
279.504292646392
21
1181.45925167644
31
0.0
  0
LINE
 8
Component#1
10
279.504292646392
20
1181.45925167644
30
0.0
11
279.45366660552
21
1181.33894336067
31
0.0
  0
LINE
 8
Component#1
10
279.45366660552
20
1181.33894336067
30
0.0
11
279.435903688563
21
1181.20963146781
31
0.0
  0
LINE
 8
Component#1
10
279.435903688563
20
1181.20963146781
30
0.0
11
279.452214408955
21
1181.08012838964
31
0.0
  0
LINE
 8
Component#1
10
279.452214408955
20
1181.08012838964
30
0.0
11
279.501487218058
21
1180.95925954693
31
0.0
  0
LINE
 8
Component#1
10
279.501487218058
20
1180.95925954693
30
0.0
11
279.580364255357
21
1180.85526195156
31
0.0
  0
LINE
 8
Component#1
10
279.580364255357
20
1180.85526195156
30
0.0
11
279.683470181112
21
1180.77522286779
31
0.0
  0
LINE
 8
Component#1
10
279.683470181112
20
1180.77522286779
30
0.0
11
279.803778496872
21
1180.72459682692
31
0.0
  0
LINE
 8
Component#1
10
279.803778496872
20
1180.72459682692
30
0.0
11
279.933090389738
21
1180.70683390996
31
0.0
  0
LINE
 8
Component#1
10
279.933090389738
20
1180.70683390996
30
0.0
11
280.062593467909
21
1180.72314463036
31
0.0
  0
LINE
 8
Component#1
10
280.062593467909
20
1180.72314463036
30
0.0
11
280.183462310622
21
1180.77241743946
31
0.0
  0
LINE
 8
Component#1
10
280.183462310622
20
1180.77241743946
30
0.0
11
280.28745990599
21
1180.85129447676
31
0.0
  0
LINE
 8
Component#1
10
280.28745990599
20
1180.85129447676
30
0.0
11
280.367498989753
21
1180.95440040251
31
0.0
  0
LINE
 8
Component#1
10
280.367498989753
20
1180.95440040251
30
0.0
11
280.418125030625
21
1181.07470871827
31
0.0
  0
LINE
 8
Component#1
10
280.418125030625
20
1181.07470871827
30
0.0
11
280.435887947582
21
1181.20402061114
31
0.0
  0
LINE
 8
Component#1
10
280.435887947582
20
1181.20402061114
30
0.0
11
280.41957722719
21
1181.33352368931
31
0.0
  0
LINE
 8
Component#1
10
280.41957722719
20
1181.33352368931
30
0.0
11
280.370304418087
21
1181.45439253202
31
0.0
  0
LINE
 8
Component#1
10
280.370304418087
20
1181.45439253202
30
0.0
11
280.291427380788
21
1181.55839012739
31
0.0
  0
LINE
 8
Component#1
10
280.291427380788
20
1186.55839012739
30
0.0
11
280.188321455033
21
1186.63842921116
31
0.0
  0
LINE
 8
Component#1
10
280.188321455033
20
1186.63842921116
30
0.0
11
280.068013139273
21
1186.68905525203
31
0.0
  0
LINE
 8
Component#1
10
280.068013139273
20
1186.68905525203
30
0.0
11
279.938701246407
21
1186.70681816898
31
0.0
  0
LINE
 8
Component#1
10
279.938701246407
20
1186.70681816898
30
0.0
11
279.809198168236
21
1186.69050744859
31
0.0
  0
LINE
 8
Component#1
10
279.809198168236
20
1186.69050744859
30
0.0
11
279.688329325523
21
1186.64123463949
31
0.0
  0
LINE
 8
Component#1
10
279.688329325523
20
1186.64123463949
30
0.0
11
279.584331730155
21
1186.56235760219
31
0.0
  0
LINE
 8
Component#1
10
279.584331730155
20
1186.56235760219
30
0.0
11
279.504292646392
21
1186.45925167644
31
0.0
  0
LINE
 8
Component#1
10
279.504292646392
20
1186.45925167644
30
0.0
11
279.45366660552
21
1186.33894336067
31
0.0
  0
LINE
 8
Component#1
10
279.45366660552
20
1186.33894336067
30
0.0
11
279.435903688563
21
1186.20963146781
31
0.0
  0
LINE
 8
Component#1
10
279.435903688563
20
1186.20963146781
30
0.0
11
279.452214408955
21
1186.08012838964
31
0.0
  0
LINE
 8
Component#1
10
279.452214408955
20
1186.08012838964
30
0.0
11
279.501487218058
21
1185.95925954693
31
0.0
  0
LINE
 8
Component#1
10
279.501487218058
20
1185.95925954693
30
0.0
11
279.580364255357
21
1185.85526195156
31
0.0
  0
LINE
 8
Component#1
10
279.580364255357
20
1185.85526195156
30
0.0
11
279.683470181112
21
1185.77522286779
31
0.0
  0
LINE
 8
Component#1
10
279.683470181112
20
1185.77522286779
30
0.0
11
279.803778496872
21
1185.72459682692
31
0.0
  0
LINE
 8
Component#1
10
279.803778496872
20
1185.72459682692
30
0.0
11
279.933090389738
21
1185.70683390996
31
0.0
  0
LINE
 8
Component#1
10
279.933090389738
20
1185.70683390996
30
0.0
11
280.062593467909
21
1185.72314463036
31
0.0
  0
LINE
 8
Component#1
10
280.062593467909
20
1185.72314463036
30
0.0
11
280.183462310622
21
1185.77241743946
31
0.0
  0
LINE
 8
Component#1
10
280.183462310622
20
1185.77241743946
30
0.0
11
280.28745990599
21
1185.85129447676
31
0.0
  0
LINE
 8
Component#1
10
280.28745990599
20
1185.85129447676
30
0.0
11
280.367498989753
21
1185.95440040251
31
0.0
  0
LINE
 8
Component#1
10
280.367498989753
20
1185.95440040251
30
0.0
11
280.418125030625
21
1186.07470871827
31
0.0
  0
LINE
 8
Component#1
10
280.418125030625
20
1186.07470871827
30
0.0
11
280.435887947582
21
1186.20402061114
31
0.0
  0
LINE
 8
Component#1
10
280.435887947582
20
1186.20402061114
30
0.0
11
280.41957722719
21
1186.33352368931
31
0.0
  0
LINE
 8
Component#1
10
280.41957722719
20
1186.33352368931
30
0.0
11
280.370304418087
21
1186.45439253202
31
0.0
  0
LINE
 8
Component#1
10
280.370304418087
20
1186.45439253202
30
0.0
11
280.291427380788
21
1186.55839012739
31
0.0
  0
LINE
 8
Component#1
10
280.291427380788
20
1176.55839012739
30
0.0
11
280.188321455033
21
1176.63842921116
31
0.0
  0
LINE
 8
Component#1
10
280.188321455033
20
1176.63842921116
30
0.0
11
280.068013139273
21
1176.68905525203
31
0.0
  0
LINE
 8
Component#1
10
280.068013139273
20
1176.68905525203
30
0.0
11
279.938701246407
21
1176.70681816898
31
0.0
  0
LINE
 8
Component#1
10
279.938701246407
20
1176.70681816898
30
0.0
11
279.809198168236
21
1176.69050744859
31
0.0
  0
LINE
 8
Component#1
10
279.809198168236
20
1176.69050744859
30
0.0
11
279.688329325523
21
1176.64123463949
31
0.0
  0
LINE
 8
Component#1
10
279.688329325523
20
1176.64123463949
30
0.0
11
279.584331730155
21
1176.56235760219
31
0.0
  0
LINE
 8
Component#1
10
279.584331730155
20
1176.56235760219
30
0.0
11
279.504292646392
21
1176.45925167644
31
0.0
  0
LINE
 8
Component#1
10
279.504292646392
20
1176.45925167644
30
0.0
11
279.45366660552
21
1176.33894336067
31
0.0
  0
LINE
 8
Component#1
10
279.45366660552
20
1176.33894336067
30
0.0
11
279.435903688563
21
1176.20963146781
31
0.0
  0
LINE
 8
Component#1
10
279.435903688563
20
1176.20963146781
30
0.0
11
279.452214408955
21
1176.08012838964
31
0.0
  0
LINE
 8
Component#1
10
279.452214408955
20
1176.08012838964
30
0.0
11
279.501487218058
21
1175.95925954693
31
0.0
  0
LINE
 8
Component#1
10
279.501487218058
20
1175.95925954693
30
0.0
11
279.580364255357
21
1175.85526195156
31
0.0
  0
LINE
 8
Component#1
10
279.580364255357
20
1175.85526195156
30
0.0
11
279.683470181112
21
1175.77522286779
31
0.0
  0
LINE
 8
Component#1
10
279.683470181112
20
1175.77522286779
30
0.0
11
279.803778496872
21
1175.72459682692
31
0.0
  0
LINE
 8
Component#1
10
279.803778496872
20
1175.72459682692
30
0.0
11
279.933090389738
21
1175.70683390996
31
0.0
  0
LINE
 8
Component#1
10
279.933090389738
20
1175.70683390996
30
0.0
11
280.062593467909
21
1175.72314463036
31
0.0
  0
LINE
 8
Component#1
10
280.062593467909
20
1175.72314463036
30
0.0
11
280.183462310622
21
1175.77241743946
31
0.0
  0
LINE
 8
Component#1
10
280.183462310622
20
1175.77241743946
30
0.0
11
280.28745990599
21
1175.85129447676
31
0.0
  0
LINE
 8
Component#1
10
280.28745990599
20
1175.85129447676
30
0.0
11
280.367498989753
21
1175.95440040251
31
0.0
  0
LINE
 8
Component#1
10
280.367498989753
20
1175.95440040251
30
0.0
11
280.418125030625
21
1176.07470871827
31
0.0
  0
LINE
 8
Component#1
10
280.418125030625
20
1176.07470871827
30
0.0
11
280.435887947582
21
1176.20402061114
31
0.0
  0
LINE
 8
Component#1
10
280.435887947582
20
1176.20402061114
30
0.0
11
280.41957722719
21
1176.33352368931
31
0.0
  0
LINE
 8
Component#1
10
280.41957722719
20
1176.33352368931
30
0.0
11
280.370304418087
21
1176.45439253202
31
0.0
  0
LINE
 8
Component#1
10
280.370304418087
20
1176.45439253202
30
0.0
11
280.291427380788
21
1176.55839012739
31
0.0
  0
LINE
 8
Component#1
10
285.291427380788
20
1185.85525408107
30
0.0
11
285.188321455033
21
1185.7752149973
31
0.0
  0
LINE
 8
Component#1
10
285.188321455033
20
1185.7752149973
30
0.0
11
285.068013139273
21
1185.72458895643
31
0.0
  0
LINE
 8
Component#1
10
285.068013139273
20
1185.72458895643
30
0.0
11
284.938701246407
21
1185.70682603947
31
0.0
  0
LINE
 8
Component#1
10
284.938701246407
20
1185.70682603947
30
0.0
11
284.809198168236
21
1185.72313675987
31
0.0
  0
LINE
 8
Component#1
10
284.809198168236
20
1185.72313675987
30
0.0
11
284.688329325523
21
1185.77240956897
31
0.0
  0
LINE
 8
Component#1
10
284.688329325523
20
1185.77240956897
30
0.0
11
284.584331730155
21
1185.85128660627
31
0.0
  0
LINE
 8
Component#1
10
284.584331730155
20
1185.85128660627
30
0.0
11
284.504292646392
21
1185.95439253202
31
0.0
  0
LINE
 8
Component#1
10
284.504292646392
20
1185.95439253202
30
0.0
11
284.45366660552
21
1186.07470084778
31
0.0
  0
LINE
 8
Component#1
10
284.45366660552
20
1186.07470084778
30
0.0
11
284.435903688563
21
1186.20401274065
31
0.0
  0
LINE
 8
Component#1
10
284.435903688563
20
1186.20401274065
30
0.0
11
284.452214408955
21
1186.33351581882
31
0.0
  0
LINE
 8
Component#1
10
284.452214408955
20
1186.33351581882
30
0.0
11
284.501487218057
21
1186.45438466153
31
0.0
  0
LINE
 8
Component#1
10
284.501487218057
20
1186.45438466153
30
0.0
11
284.580364255357
21
1186.5583822569
31
0.0
  0
LINE
 8
Component#1
10
284.580364255357
20
1186.5583822569
30
0.0
11
284.683470181112
21
1186.63842134067
31
0.0
  0
LINE
 8
Component#1
10
284.683470181112
20
1186.63842134067
30
0.0
11
284.803778496872
21
1186.68904738154
31
0.0
  0
LINE
 8
Component#1
10
284.803778496872
20
1186.68904738154
30
0.0
11
284.933090389738
21
1186.70681029849
31
0.0
  0
LINE
 8
Component#1
10
284.933090389738
20
1186.70681029849
30
0.0
11
285.062593467909
21
1186.6904995781
31
0.0
  0
LINE
 8
Component#1
10
285.062593467909
20
1186.6904995781
30
0.0
11
285.183462310621
21
1186.641226769
31
0.0
  0
LINE
 8
Component#1
10
285.183462310621
20
1186.641226769
30
0.0
11
285.28745990599
21
1186.5623497317
31
0.0
  0
LINE
 8
Component#1
10
285.28745990599
20
1186.5623497317
30
0.0
11
285.367498989753
21
1186.45924380595
31
0.0
  0
LINE
 8
Component#1
10
285.367498989753
20
1186.45924380595
30
0.0
11
285.418125030625
21
1186.33893549018
31
0.0
  0
LINE
 8
Component#1
10
285.418125030625
20
1186.33893549018
30
0.0
11
285.435887947582
21
1186.20962359732
31
0.0
  0
LINE
 8
Component#1
10
285.435887947582
20
1186.20962359732
30
0.0
11
285.41957722719
21
1186.08012051915
31
0.0
  0
LINE
 8
Component#1
10
285.41957722719
20
1186.08012051915
30
0.0
11
285.370304418087
21
1185.95925167644
31
0.0
  0
LINE
 8
Component#1
10
285.370304418087
20
1185.95925167644
30
0.0
11
285.291427380788
21
1185.85525408107
31
0.0
  0
LINE
 8
Component#1
10
295.291427380788
20
1185.85525408107
30
0.0
11
295.188321455033
21
1185.7752149973
31
0.0
  0
LINE
 8
Component#1
10
295.188321455033
20
1185.7752149973
30
0.0
11
295.068013139273
21
1185.72458895643
31
0.0
  0
LINE
 8
Component#1
10
295.068013139273
20
1185.72458895643
30
0.0
11
294.938701246406
21
1185.70682603947
31
0.0
  0
LINE
 8
Component#1
10
294.938701246406
20
1185.70682603947
30
0.0
11
294.809198168236
21
1185.72313675987
31
0.0
  0
LINE
 8
Component#1
10
294.809198168236
20
1185.72313675987
30
0.0
11
294.688329325523
21
1185.77240956897
31
0.0
  0
LINE
 8
Component#1
10
294.688329325523
20
1185.77240956897
30
0.0
11
294.584331730155
21
1185.85128660627
31
0.0
  0
LINE
 8
Component#1
10
294.584331730155
20
1185.85128660627
30
0.0
11
294.504292646392
21
1185.95439253202
31
0.0
  0
LINE
 8
Component#1
10
294.504292646392
20
1185.95439253202
30
0.0
11
294.45366660552
21
1186.07470084778
31
0.0
  0
LINE
 8
Component#1
10
294.45366660552
20
1186.07470084778
30
0.0
11
294.435903688563
21
1186.20401274065
31
0.0
  0
LINE
 8
Component#1
10
294.435903688563
20
1186.20401274065
30
0.0
11
294.452214408955
21
1186.33351581882
31
0.0
  0
LINE
 8
Component#1
10
294.452214408955
20
1186.33351581882
30
0.0
11
294.501487218057
21
1186.45438466153
31
0.0
  0
LINE
 8
Component#1
10
294.501487218057
20
1186.45438466153
30
0.0
11
294.580364255357
21
1186.5583822569
31
0.0
  0
LINE
 8
Component#1
10
294.580364255357
20
1186.5583822569
30
0.0
11
294.683470181112
21
1186.63842134067
31
0.0
  0
LINE
 8
Component#1
10
294.683470181112
20
1186.63842134067
30
0.0
11
294.803778496872
21
1186.68904738154
31
0.0
  0
LINE
 8
Component#1
10
294.803778496872
20
1186.68904738154
30
0.0
11
294.933090389738
21
1186.70681029849
31
0.0
  0
LINE
 8
Component#1
10
294.933090389738
20
1186.70681029849
30
0.0
11
295.062593467909
21
1186.6904995781
31
0.0
  0
LINE
 8
Component#1
10
295.062593467909
20
1186.6904995781
30
0.0
11
295.183462310621
21
1186.641226769
31
0.0
  0
LINE
 8
Component#1
10
295.183462310621
20
1186.641226769
30
0.0
11
295.28745990599
21
1186.5623497317
31
0.0
  0
LINE
 8
Component#1
10
295.28745990599
20
1186.5623497317
30
0.0
11
295.367498989753
21
1186.45924380595
31
0.0
  0
LINE
 8
Component#1
10
295.367498989753
20
1186.45924380595
30
0.0
11
295.418125030625
21
1186.33893549018
31
0.0
  0
LINE
 8
Component#1
10
295.418125030625
20
1186.33893549018
30
0.0
11
295.435887947582
21
1186.20962359732
31
0.0
  0
LINE
 8
Component#1
10
295.435887947582
20
1186.20962359732
30
0.0
11
295.41957722719
21
1186.08012051915
31
0.0
  0
LINE
 8
Component#1
10
295.41957722719
20
1186.08012051915
30
0.0
11
295.370304418087
21
1185.95925167644
31
0.0
  0
LINE
 8
Component#1
10
295.370304418087
20
1185.95925167644
30
0.0
11
295.291427380788
21
1185.85525408107
31
0.0
  0
LINE
 8
Component#1
10
290.291427380788
20
1185.85525408107
30
0.0
11
290.188321455033
21
1185.7752149973
31
0.0
  0
LINE
 8
Component#1
10
290.188321455033
20
1185.7752149973
30
0.0
11
290.068013139273
21
1185.72458895643
31
0.0
  0
LINE
 8
Component#1
10
290.068013139273
20
1185.72458895643
30
0.0
11
289.938701246406
21
1185.70682603947
31
0.0
  0
LINE
 8
Component#1
10
289.938701246406
20
1185.70682603947
30
0.0
11
289.809198168236
21
1185.72313675987
31
0.0
  0
LINE
 8
Component#1
10
289.809198168236
20
1185.72313675987
30
0.0
11
289.688329325523
21
1185.77240956897
31
0.0
  0
LINE
 8
Component#1
10
289.688329325523
20
1185.77240956897
30
0.0
11
289.584331730155
21
1185.85128660627
31
0.0
  0
LINE
 8
Component#1
10
289.584331730155
20
1185.85128660627
30
0.0
11
289.504292646392
21
1185.95439253202
31
0.0
  0
LINE
 8
Component#1
10
289.504292646392
20
1185.95439253202
30
0.0
11
289.45366660552
21
1186.07470084778
31
0.0
  0
LINE
 8
Component#1
10
289.45366660552
20
1186.07470084778
30
0.0
11
289.435903688563
21
1186.20401274065
31
0.0
  0
LINE
 8
Component#1
10
289.435903688563
20
1186.20401274065
30
0.0
11
289.452214408955
21
1186.33351581882
31
0.0
  0
LINE
 8
Component#1
10
289.452214408955
20
1186.33351581882
30
0.0
11
289.501487218057
21
1186.45438466153
31
0.0
  0
LINE
 8
Component#1
10
289.501487218057
20
1186.45438466153
30
0.0
11
289.580364255357
21
1186.5583822569
31
0.0
  0
LINE
 8
Component#1
10
289.580364255357
20
1186.5583822569
30
0.0
11
289.683470181112
21
1186.63842134067
31
0.0
  0
LINE
 8
Component#1
10
289.683470181112
20
1186.63842134067
30
0.0
11
289.803778496872
21
1186.68904738154
31
0.0
  0
LINE
 8
Component#1
10
289.803778496872
20
1186.68904738154
30
0.0
11
289.933090389738
21
1186.70681029849
31
0.0
  0
LINE
 8
Component#1
10
289.933090389738
20
1186.70681029849
30
0.0
11
290.062593467909
21
1186.6904995781
31
0.0
  0
LINE
 8
Component#1
10
290.062593467909
20
1186.6904995781
30
0.0
11
290.183462310621
21
1186.641226769
31
0.0
  0
LINE
 8
Component#1
10
290.183462310621
20
1186.641226769
30
0.0
11
290.28745990599
21
1186.5623497317
31
0.0
  0
LINE
 8
Component#1
10
290.28745990599
20
1186.5623497317
30
0.0
11
290.367498989753
21
1186.45924380595
31
0.0
  0
LINE
 8
Component#1
10
290.367498989753
20
1186.45924380595
30
0.0
11
290.418125030625
21
1186.33893549018
31
0.0
  0
LINE
 8
Component#1
10
290.418125030625
20
1186.33893549018
30
0.0
11
290.435887947582
21
1186.20962359732
31
0.0
  0
LINE
 8
Component#1
10
290.435887947582
20
1186.20962359732
30
0.0
11
290.41957722719
21
1186.08012051915
31
0.0
  0
LINE
 8
Component#1
10
290.41957722719
20
1186.08012051915
30
0.0
11
290.370304418087
21
1185.95925167644
31
0.0
  0
LINE
 8
Component#1
10
290.370304418087
20
1185.95925167644
30
0.0
11
290.291427380788
21
1185.85525408107
31
0.0
  0
LINE
 8
Component#1
10
305.291427380788
20
1185.85525408107
30
0.0
11
305.188321455033
21
1185.7752149973
31
0.0
  0
LINE
 8
Component#1
10
305.188321455033
20
1185.7752149973
30
0.0
11
305.068013139273
21
1185.72458895643
31
0.0
  0
LINE
 8
Component#1
10
305.068013139273
20
1185.72458895643
30
0.0
11
304.938701246407
21
1185.70682603947
31
0.0
  0
LINE
 8
Component#1
10
304.938701246407
20
1185.70682603947
30
0.0
11
304.809198168236
21
1185.72313675987
31
0.0
  0
LINE
 8
Component#1
10
304.809198168236
20
1185.72313675987
30
0.0
11
304.688329325523
21
1185.77240956897
31
0.0
  0
LINE
 8
Component#1
10
304.688329325523
20
1185.77240956897
30
0.0
11
304.584331730155
21
1185.85128660627
31
0.0
  0
LINE
 8
Component#1
10
304.584331730155
20
1185.85128660627
30
0.0
11
304.504292646392
21
1185.95439253202
31
0.0
  0
LINE
 8
Component#1
10
304.504292646392
20
1185.95439253202
30
0.0
11
304.45366660552
21
1186.07470084778
31
0.0
  0
LINE
 8
Component#1
10
304.45366660552
20
1186.07470084778
30
0.0
11
304.435903688563
21
1186.20401274065
31
0.0
  0
LINE
 8
Component#1
10
304.435903688563
20
1186.20401274065
30
0.0
11
304.452214408955
21
1186.33351581882
31
0.0
  0
LINE
 8
Component#1
10
304.452214408955
20
1186.33351581882
30
0.0
11
304.501487218058
21
1186.45438466153
31
0.0
  0
LINE
 8
Component#1
10
304.501487218058
20
1186.45438466153
30
0.0
11
304.580364255357
21
1186.5583822569
31
0.0
  0
LINE
 8
Component#1
10
304.580364255357
20
1186.5583822569
30
0.0
11
304.683470181112
21
1186.63842134067
31
0.0
  0
LINE
 8
Component#1
10
304.683470181112
20
1186.63842134067
30
0.0
11
304.803778496872
21
1186.68904738154
31
0.0
  0
LINE
 8
Component#1
10
304.803778496872
20
1186.68904738154
30
0.0
11
304.933090389738
21
1186.70681029849
31
0.0
  0
LINE
 8
Component#1
10
304.933090389738
20
1186.70681029849
30
0.0
11
305.062593467909
21
1186.6904995781
31
0.0
  0
LINE
 8
Component#1
10
305.062593467909
20
1186.6904995781
30
0.0
11
305.183462310622
21
1186.641226769
31
0.0
  0
LINE
 8
Component#1
10
305.183462310622
20
1186.641226769
30
0.0
11
305.28745990599
21
1186.5623497317
31
0.0
  0
LINE
 8
Component#1
10
305.28745990599
20
1186.5623497317
30
0.0
11
305.367498989753
21
1186.45924380595
31
0.0
  0
LINE
 8
Component#1
10
305.367498989753
20
1186.45924380595
30
0.0
11
305.418125030625
21
1186.33893549018
31
0.0
  0
LINE
 8
Component#1
10
305.418125030625
20
1186.33893549018
30
0.0
11
305.435887947582
21
1186.20962359732
31
0.0
  0
LINE
 8
Component#1
10
305.435887947582
20
1186.20962359732
30
0.0
11
305.41957722719
21
1186.08012051915
31
0.0
  0
LINE
 8
Component#1
10
305.41957722719
20
1186.08012051915
30
0.0
11
305.370304418087
21
1185.95925167644
31
0.0
  0
LINE
 8
Component#1
10
305.370304418087
20
1185.95925167644
30
0.0
11
305.291427380788
21
1185.85525408107
31
0.0
  0
LINE
 8
Component#1
10
300.291427380788
20
1185.85525408107
30
0.0
11
300.188321455033
21
1185.7752149973
31
0.0
  0
LINE
 8
Component#1
10
300.188321455033
20
1185.7752149973
30
0.0
11
300.068013139273
21
1185.72458895643
31
0.0
  0
LINE
 8
Component#1
10
300.068013139273
20
1185.72458895643
30
0.0
11
299.938701246407
21
1185.70682603947
31
0.0
  0
LINE
 8
Component#1
10
299.938701246407
20
1185.70682603947
30
0.0
11
299.809198168236
21
1185.72313675987
31
0.0
  0
LINE
 8
Component#1
10
299.809198168236
20
1185.72313675987
30
0.0
11
299.688329325523
21
1185.77240956897
31
0.0
  0
LINE
 8
Component#1
10
299.688329325523
20
1185.77240956897
30
0.0
11
299.584331730155
21
1185.85128660627
31
0.0
  0
LINE
 8
Component#1
10
299.584331730155
20
1185.85128660627
30
0.0
11
299.504292646392
21
1185.95439253202
31
0.0
  0
LINE
 8
Component#1
10
299.504292646392
20
1185.95439253202
30
0.0
11
299.45366660552
21
1186.07470084778
31
0.0
  0
LINE
 8
Component#1
10
299.45366660552
20
1186.07470084778
30
0.0
11
299.435903688563
21
1186.20401274065
31
0.0
  0
LINE
 8
Component#1
10
299.435903688563
20
1186.20401274065
30
0.0
11
299.452214408955
21
1186.33351581882
31
0.0
  0
LINE
 8
Component#1
10
299.452214408955
20
1186.33351581882
30
0.0
11
299.501487218058
21
1186.45438466153
31
0.0
  0
LINE
 8
Component#1
10
299.501487218058
20
1186.45438466153
30
0.0
11
299.580364255357
21
1186.5583822569
31
0.0
  0
LINE
 8
Component#1
10
299.580364255357
20
1186.5583822569
30
0.0
11
299.683470181112
21
1186.63842134067
31
0.0
  0
LINE
 8
Component#1
10
299.683470181112
20
1186.63842134067
30
0.0
11
299.803778496872
21
1186.68904738154
31
0.0
  0
LINE
 8
Component#1
10
299.803778496872
20
1186.68904738154
30
0.0
11
299.933090389738
21
1186.70681029849
31
0.0
  0
LINE
 8
Component#1
10
299.933090389738
20
1186.70681029849
30
0.0
11
300.062593467909
21
1186.6904995781
31
0.0
  0
LINE
 8
Component#1
10
300.062593467909
20
1186.6904995781
30
0.0
11
300.183462310622
21
1186.641226769
31
0.0
  0
LINE
 8
Component#1
10
300.183462310622
20
1186.641226769
30
0.0
11
300.28745990599
21
1186.5623497317
31
0.0
  0
LINE
 8
Component#1
10
300.28745990599
20
1186.5623497317
30
0.0
11
300.367498989753
21
1186.45924380595
31
0.0
  0
LINE
 8
Component#1
10
300.367498989753
20
1186.45924380595
30
0.0
11
300.418125030625
21
1186.33893549018
31
0.0
  0
LINE
 8
Component#1
10
300.418125030625
20
1186.33893549018
30
0.0
11
300.435887947582
21
1186.20962359732
31
0.0
  0
LINE
 8
Component#1
10
300.435887947582
20
1186.20962359732
30
0.0
11
300.41957722719
21
1186.08012051915
31
0.0
  0
LINE
 8
Component#1
10
300.41957722719
20
1186.08012051915
30
0.0
11
300.370304418087
21
1185.95925167644
31
0.0
  0
LINE
 8
Component#1
10
300.370304418087
20
1185.95925167644
30
0.0
11
300.291427380788
21
1185.85525408107
31
0.0
  0
LINE
 8
Component#1
10
315.291427380788
20
1185.85525408107
30
0.0
11
315.188321455033
21
1185.7752149973
31
0.0
  0
LINE
 8
Component#1
10
315.188321455033
20
1185.7752149973
30
0.0
11
315.068013139273
21
1185.72458895643
31
0.0
  0
LINE
 8
Component#1
10
315.068013139273
20
1185.72458895643
30
0.0
11
314.938701246406
21
1185.70682603947
31
0.0
  0
LINE
 8
Component#1
10
314.938701246406
20
1185.70682603947
30
0.0
11
314.809198168236
21
1185.72313675987
31
0.0
  0
LINE
 8
Component#1
10
314.809198168236
20
1185.72313675987
30
0.0
11
314.688329325523
21
1185.77240956897
31
0.0
  0
LINE
 8
Component#1
10
314.688329325523
20
1185.77240956897
30
0.0
11
314.584331730155
21
1185.85128660627
31
0.0
  0
LINE
 8
Component#1
10
314.584331730155
20
1185.85128660627
30
0.0
11
314.504292646392
21
1185.95439253202
31
0.0
  0
LINE
 8
Component#1
10
314.504292646392
20
1185.95439253202
30
0.0
11
314.45366660552
21
1186.07470084778
31
0.0
  0
LINE
 8
Component#1
10
314.45366660552
20
1186.07470084778
30
0.0
11
314.435903688563
21
1186.20401274065
31
0.0
  0
LINE
 8
Component#1
10
314.435903688563
20
1186.20401274065
30
0.0
11
314.452214408955
21
1186.33351581882
31
0.0
  0
LINE
 8
Component#1
10
314.452214408955
20
1186.33351581882
30
0.0
11
314.501487218057
21
1186.45438466153
31
0.0
  0
LINE
 8
Component#1
10
314.501487218057
20
1186.45438466153
30
0.0
11
314.580364255357
21
1186.5583822569
31
0.0
  0
LINE
 8
Component#1
10
314.580364255357
20
1186.5583822569
30
0.0
11
314.683470181112
21
1186.63842134067
31
0.0
  0
LINE
 8
Component#1
10
314.683470181112
20
1186.63842134067
30
0.0
11
314.803778496872
21
1186.68904738154
31
0.0
  0
LINE
 8
Component#1
10
314.803778496872
20
1186.68904738154
30
0.0
11
314.933090389738
21
1186.70681029849
31
0.0
  0
LINE
 8
Component#1
10
314.933090389738
20
1186.70681029849
30
0.0
11
315.062593467909
21
1186.6904995781
31
0.0
  0
LINE
 8
Component#1
10
315.062593467909
20
1186.6904995781
30
0.0
11
315.183462310621
21
1186.641226769
31
0.0
  0
LINE
 8
Component#1
10
315.183462310621
20
1186.641226769
30
0.0
11
315.28745990599
21
1186.5623497317
31
0.0
  0
LINE
 8
Component#1
10
315.28745990599
20
1186.5623497317
30
0.0
11
315.367498989753
21
1186.45924380595
31
0.0
  0
LINE
 8
Component#1
10
315.367498989753
20
1186.45924380595
30
0.0
11
315.418125030625
21
1186.33893549018
31
0.0
  0
LINE
 8
Component#1
10
315.418125030625
20
1186.33893549018
30
0.0
11
315.435887947582
21
1186.20962359732
31
0.0
  0
LINE
 8
Component#1
10
315.435887947582
20
1186.20962359732
30
0.0
11
315.41957722719
21
1186.08012051915
31
0.0
  0
LINE
 8
Component#1
10
315.41957722719
20
1186.08012051915
30
0.0
11
315.370304418087
21
1185.95925167644
31
0.0
  0
LINE
 8
Component#1
10
315.370304418087
20
1185.95925167644
30
0.0
11
315.291427380788
21
1185.85525408107
31
0.0
  0
LINE
 8
Component#1
10
310.291427380788
20
1185.85525408107
30
0.0
11
310.188321455033
21
1185.7752149973
31
0.0
  0
LINE
 8
Component#1
10
310.188321455033
20
1185.7752149973
30
0.0
11
310.068013139273
21
1185.72458895643
31
0.0
  0
LINE
 8
Component#1
10
310.068013139273
20
1185.72458895643
30
0.0
11
309.938701246407
21
1185.70682603947
31
0.0
  0
LINE
 8
Component#1
10
309.938701246407
20
1185.70682603947
30
0.0
11
309.809198168236
21
1185.72313675987
31
0.0
  0
LINE
 8
Component#1
10
309.809198168236
20
1185.72313675987
30
0.0
11
309.688329325523
21
1185.77240956897
31
0.0
  0
LINE
 8
Component#1
10
309.688329325523
20
1185.77240956897
30
0.0
11
309.584331730155
21
1185.85128660627
31
0.0
  0
LINE
 8
Component#1
10
309.584331730155
20
1185.85128660627
30
0.0
11
309.504292646392
21
1185.95439253202
31
0.0
  0
LINE
 8
Component#1
10
309.504292646392
20
1185.95439253202
30
0.0
11
309.45366660552
21
1186.07470084778
31
0.0
  0
LINE
 8
Component#1
10
309.45366660552
20
1186.07470084778
30
0.0
11
309.435903688563
21
1186.20401274065
31
0.0
  0
LINE
 8
Component#1
10
309.435903688563
20
1186.20401274065
30
0.0
11
309.452214408955
21
1186.33351581882
31
0.0
  0
LINE
 8
Component#1
10
309.452214408955
20
1186.33351581882
30
0.0
11
309.501487218057
21
1186.45438466153
31
0.0
  0
LINE
 8
Component#1
10
309.501487218057
20
1186.45438466153
30
0.0
11
309.580364255357
21
1186.5583822569
31
0.0
  0
LINE
 8
Component#1
10
309.580364255357
20
1186.5583822569
30
0.0
11
309.683470181112
21
1186.63842134067
31
0.0
  0
LINE
 8
Component#1
10
309.683470181112
20
1186.63842134067
30
0.0
11
309.803778496872
21
1186.68904738154
31
0.0
  0
LINE
 8
Component#1
10
309.803778496872
20
1186.68904738154
30
0.0
11
309.933090389738
21
1186.70681029849
31
0.0
  0
LINE
 8
Component#1
10
309.933090389738
20
1186.70681029849
30
0.0
11
310.062593467909
21
1186.6904995781
31
0.0
  0
LINE
 8
Component#1
10
310.062593467909
20
1186.6904995781
30
0.0
11
310.183462310621
21
1186.641226769
31
0.0
  0
LINE
 8
Component#1
10
310.183462310621
20
1186.641226769
30
0.0
11
310.28745990599
21
1186.5623497317
31
0.0
  0
LINE
 8
Component#1
10
310.28745990599
20
1186.5623497317
30
0.0
11
310.367498989753
21
1186.45924380595
31
0.0
  0
LINE
 8
Component#1
10
310.367498989753
20
1186.45924380595
30
0.0
11
310.418125030625
21
1186.33893549018
31
0.0
  0
LINE
 8
Component#1
10
310.418125030625
20
1186.33893549018
30
0.0
11
310.435887947582
21
1186.20962359732
31
0.0
  0
LINE
 8
Component#1
10
310.435887947582
20
1186.20962359732
30
0.0
11
310.41957722719
21
1186.08012051915
31
0.0
  0
LINE
 8
Component#1
10
310.41957722719
20
1186.08012051915
30
0.0
11
310.370304418087
21
1185.95925167644
31
0.0
  0
LINE
 8
Component#1
10
310.370304418087
20
1185.95925167644
30
0.0
11
310.291427380788
21
1185.85525408107
31
0.0
  0
LINE
 8
Component#1
10
340.291427380788
20
1185.85525408107
30
0.0
11
340.188321455033
21
1185.7752149973
31
0.0
  0
LINE
 8
Component#1
10
340.188321455033
20
1185.7752149973
30
0.0
11
340.068013139273
21
1185.72458895643
31
0.0
  0
LINE
 8
Component#1
10
340.068013139273
20
1185.72458895643
30
0.0
11
339.938701246407
21
1185.70682603947
31
0.0
  0
LINE
 8
Component#1
10
339.938701246407
20
1185.70682603947
30
0.0
11
339.809198168236
21
1185.72313675987
31
0.0
  0
LINE
 8
Component#1
10
339.809198168236
20
1185.72313675987
30
0.0
11
339.688329325523
21
1185.77240956897
31
0.0
  0
LINE
 8
Component#1
10
339.688329325523
20
1185.77240956897
30
0.0
11
339.584331730155
21
1185.85128660627
31
0.0
  0
LINE
 8
Component#1
10
339.584331730155
20
1185.85128660627
30
0.0
11
339.504292646392
21
1185.95439253202
31
0.0
  0
LINE
 8
Component#1
10
339.504292646392
20
1185.95439253202
30
0.0
11
339.45366660552
21
1186.07470084778
31
0.0
  0
LINE
 8
Component#1
10
339.45366660552
20
1186.07470084778
30
0.0
11
339.435903688563
21
1186.20401274065
31
0.0
  0
LINE
 8
Component#1
10
339.435903688563
20
1186.20401274065
30
0.0
11
339.452214408955
21
1186.33351581882
31
0.0
  0
LINE
 8
Component#1
10
339.452214408955
20
1186.33351581882
30
0.0
11
339.501487218058
21
1186.45438466153
31
0.0
  0
LINE
 8
Component#1
10
339.501487218058
20
1186.45438466153
30
0.0
11
339.580364255357
21
1186.5583822569
31
0.0
  0
LINE
 8
Component#1
10
339.580364255357
20
1186.5583822569
30
0.0
11
339.683470181112
21
1186.63842134067
31
0.0
  0
LINE
 8
Component#1
10
339.683470181112
20
1186.63842134067
30
0.0
11
339.803778496872
21
1186.68904738154
31
0.0
  0
LINE
 8
Component#1
10
339.803778496872
20
1186.68904738154
30
0.0
11
339.933090389738
21
1186.70681029849
31
0.0
  0
LINE
 8
Component#1
10
339.933090389738
20
1186.70681029849
30
0.0
11
340.062593467909
21
1186.6904995781
31
0.0
  0
LINE
 8
Component#1
10
340.062593467909
20
1186.6904995781
30
0.0
11
340.183462310622
21
1186.641226769
31
0.0
  0
LINE
 8
Component#1
10
340.183462310622
20
1186.641226769
30
0.0
11
340.28745990599
21
1186.5623497317
31
0.0
  0
LINE
 8
Component#1
10
340.28745990599
20
1186.5623497317
30
0.0
11
340.367498989753
21
1186.45924380595
31
0.0
  0
LINE
 8
Component#1
10
340.367498989753
20
1186.45924380595
30
0.0
11
340.418125030625
21
1186.33893549018
31
0.0
  0
LINE
 8
Component#1
10
340.418125030625
20
1186.33893549018
30
0.0
11
340.435887947582
21
1186.20962359732
31
0.0
  0
LINE
 8
Component#1
10
340.435887947582
20
1186.20962359732
30
0.0
11
340.41957722719
21
1186.08012051915
31
0.0
  0
LINE
 8
Component#1
10
340.41957722719
20
1186.08012051915
30
0.0
11
340.370304418087
21
1185.95925167644
31
0.0
  0
LINE
 8
Component#1
10
340.370304418087
20
1185.95925167644
30
0.0
11
340.291427380788
21
1185.85525408107
31
0.0
  0
LINE
 8
Component#1
10
355.291427380788
20
1185.85525408107
30
0.0
11
355.188321455033
21
1185.7752149973
31
0.0
  0
LINE
 8
Component#1
10
355.188321455033
20
1185.7752149973
30
0.0
11
355.068013139273
21
1185.72458895643
31
0.0
  0
LINE
 8
Component#1
10
355.068013139273
20
1185.72458895643
30
0.0
11
354.938701246407
21
1185.70682603947
31
0.0
  0
LINE
 8
Component#1
10
354.938701246407
20
1185.70682603947
30
0.0
11
354.809198168236
21
1185.72313675987
31
0.0
  0
LINE
 8
Component#1
10
354.809198168236
20
1185.72313675987
30
0.0
11
354.688329325523
21
1185.77240956897
31
0.0
  0
LINE
 8
Component#1
10
354.688329325523
20
1185.77240956897
30
0.0
11
354.584331730155
21
1185.85128660627
31
0.0
  0
LINE
 8
Component#1
10
354.584331730155
20
1185.85128660627
30
0.0
11
354.504292646392
21
1185.95439253202
31
0.0
  0
LINE
 8
Component#1
10
354.504292646392
20
1185.95439253202
30
0.0
11
354.45366660552
21
1186.07470084778
31
0.0
  0
LINE
 8
Component#1
10
354.45366660552
20
1186.07470084778
30
0.0
11
354.435903688563
21
1186.20401274065
31
0.0
  0
LINE
 8
Component#1
10
354.435903688563
20
1186.20401274065
30
0.0
11
354.452214408955
21
1186.33351581882
31
0.0
  0
LINE
 8
Component#1
10
354.452214408955
20
1186.33351581882
30
0.0
11
354.501487218058
21
1186.45438466153
31
0.0
  0
LINE
 8
Component#1
10
354.501487218058
20
1186.45438466153
30
0.0
11
354.580364255357
21
1186.5583822569
31
0.0
  0
LINE
 8
Component#1
10
354.580364255357
20
1186.5583822569
30
0.0
11
354.683470181112
21
1186.63842134067
31
0.0
  0
LINE
 8
Component#1
10
354.683470181112
20
1186.63842134067
30
0.0
11
354.803778496872
21
1186.68904738154
31
0.0
  0
LINE
 8
Component#1
10
354.803778496872
20
1186.68904738154
30
0.0
11
354.933090389738
21
1186.70681029849
31
0.0
  0
LINE
 8
Component#1
10
354.933090389738
20
1186.70681029849
30
0.0
11
355.062593467909
21
1186.6904995781
31
0.0
  0
LINE
 8
Component#1
10
355.062593467909
20
1186.6904995781
30
0.0
11
355.183462310622
21
1186.641226769
31
0.0
  0
LINE
 8
Component#1
10
355.183462310622
20
1186.641226769
30
0.0
11
355.28745990599
21
1186.5623497317
31
0.0
  0
LINE
 8
Component#1
10
355.28745990599
20
1186.5623497317
30
0.0
11
355.367498989753
21
1186.45924380595
31
0.0
  0
LINE
 8
Component#1
10
355.367498989753
20
1186.45924380595
30
0.0
11
355.418125030625
21
1186.33893549018
31
0.0
  0
LINE
 8
Component#1
10
355.418125030625
20
1186.33893549018
30
0.0
11
355.435887947582
21
1186.20962359732
31
0.0
  0
LINE
 8
Component#1
10
355.435887947582
20
1186.20962359732
30
0.0
11
355.41957722719
21
1186.08012051915
31
0.0
  0
LINE
 8
Component#1
10
355.41957722719
20
1186.08012051915
30
0.0
11
355.370304418087
21
1185.95925167644
31
0.0
  0
LINE
 8
Component#1
10
355.370304418087
20
1185.95925167644
30
0.0
11
355.291427380788
21
1185.85525408107
31
0.0
  0
LINE
 8
Component#1
10
350.291427380788
20
1185.85525408107
30
0.0
11
350.188321455033
21
1185.7752149973
31
0.0
  0
LINE
 8
Component#1
10
350.188321455033
20
1185.7752149973
30
0.0
11
350.068013139273
21
1185.72458895643
31
0.0
  0
LINE
 8
Component#1
10
350.068013139273
20
1185.72458895643
30
0.0
11
349.938701246407
21
1185.70682603947
31
0.0
  0
LINE
 8
Component#1
10
349.938701246407
20
1185.70682603947
30
0.0
11
349.809198168236
21
1185.72313675987
31
0.0
  0
LINE
 8
Component#1
10
349.809198168236
20
1185.72313675987
30
0.0
11
349.688329325523
21
1185.77240956897
31
0.0
  0
LINE
 8
Component#1
10
349.688329325523
20
1185.77240956897
30
0.0
11
349.584331730155
21
1185.85128660627
31
0.0
  0
LINE
 8
Component#1
10
349.584331730155
20
1185.85128660627
30
0.0
11
349.504292646392
21
1185.95439253202
31
0.0
  0
LINE
 8
Component#1
10
349.504292646392
20
1185.95439253202
30
0.0
11
349.45366660552
21
1186.07470084778
31
0.0
  0
LINE
 8
Component#1
10
349.45366660552
20
1186.07470084778
30
0.0
11
349.435903688563
21
1186.20401274065
31
0.0
  0
LINE
 8
Component#1
10
349.435903688563
20
1186.20401274065
30
0.0
11
349.452214408955
21
1186.33351581882
31
0.0
  0
LINE
 8
Component#1
10
349.452214408955
20
1186.33351581882
30
0.0
11
349.501487218058
21
1186.45438466153
31
0.0
  0
LINE
 8
Component#1
10
349.501487218058
20
1186.45438466153
30
0.0
11
349.580364255357
21
1186.5583822569
31
0.0
  0
LINE
 8
Component#1
10
349.580364255357
20
1186.5583822569
30
0.0
11
349.683470181112
21
1186.63842134067
31
0.0
  0
LINE
 8
Component#1
10
349.683470181112
20
1186.63842134067
30
0.0
11
349.803778496872
21
1186.68904738154
31
0.0
  0
LINE
 8
Component#1
10
349.803778496872
20
1186.68904738154
30
0.0
11
349.933090389738
21
1186.70681029849
31
0.0
  0
LINE
 8
Component#1
10
349.933090389738
20
1186.70681029849
30
0.0
11
350.062593467909
21
1186.6904995781
31
0.0
  0
LINE
 8
Component#1
10
350.062593467909
20
1186.6904995781
30
0.0
11
350.183462310622
21
1186.641226769
31
0.0
  0
LINE
 8
Component#1
10
350.183462310622
20
1186.641226769
30
0.0
11
350.28745990599
21
1186.5623497317
31
0.0
  0
LINE
 8
Component#1
10
350.28745990599
20
1186.5623497317
30
0.0
11
350.367498989753
21
1186.45924380595
31
0.0
  0
LINE
 8
Component#1
10
350.367498989753
20
1186.45924380595
30
0.0
11
350.418125030625
21
1186.33893549018
31
0.0
  0
LINE
 8
Component#1
10
350.418125030625
20
1186.33893549018
30
0.0
11
350.435887947582
21
1186.20962359732
31
0.0
  0
LINE
 8
Component#1
10
350.435887947582
20
1186.20962359732
30
0.0
11
350.41957722719
21
1186.08012051915
31
0.0
  0
LINE
 8
Component#1
10
350.41957722719
20
1186.08012051915
30
0.0
11
350.370304418087
21
1185.95925167644
31
0.0
  0
LINE
 8
Component#1
10
350.370304418087
20
1185.95925167644
30
0.0
11
350.291427380788
21
1185.85525408107
31
0.0
  0
LINE
 8
Component#1
10
365.291427380788
20
1185.85525408107
30
0.0
11
365.188321455033
21
1185.7752149973
31
0.0
  0
LINE
 8
Component#1
10
365.188321455033
20
1185.7752149973
30
0.0
11
365.068013139273
21
1185.72458895643
31
0.0
  0
LINE
 8
Component#1
10
365.068013139273
20
1185.72458895643
30
0.0
11
364.938701246407
21
1185.70682603947
31
0.0
  0
LINE
 8
Component#1
10
364.938701246407
20
1185.70682603947
30
0.0
11
364.809198168236
21
1185.72313675987
31
0.0
  0
LINE
 8
Component#1
10
364.809198168236
20
1185.72313675987
30
0.0
11
364.688329325523
21
1185.77240956897
31
0.0
  0
LINE
 8
Component#1
10
364.688329325523
20
1185.77240956897
30
0.0
11
364.584331730155
21
1185.85128660627
31
0.0
  0
LINE
 8
Component#1
10
364.584331730155
20
1185.85128660627
30
0.0
11
364.504292646392
21
1185.95439253202
31
0.0
  0
LINE
 8
Component#1
10
364.504292646392
20
1185.95439253202
30
0.0
11
364.45366660552
21
1186.07470084778
31
0.0
  0
LINE
 8
Component#1
10
364.45366660552
20
1186.07470084778
30
0.0
11
364.435903688563
21
1186.20401274065
31
0.0
  0
LINE
 8
Component#1
10
364.435903688563
20
1186.20401274065
30
0.0
11
364.452214408955
21
1186.33351581882
31
0.0
  0
LINE
 8
Component#1
10
364.452214408955
20
1186.33351581882
30
0.0
11
364.501487218058
21
1186.45438466153
31
0.0
  0
LINE
 8
Component#1
10
364.501487218058
20
1186.45438466153
30
0.0
11
364.580364255357
21
1186.5583822569
31
0.0
  0
LINE
 8
Component#1
10
364.580364255357
20
1186.5583822569
30
0.0
11
364.683470181112
21
1186.63842134067
31
0.0
  0
LINE
 8
Component#1
10
364.683470181112
20
1186.63842134067
30
0.0
11
364.803778496872
21
1186.68904738154
31
0.0
  0
LINE
 8
Component#1
10
364.803778496872
20
1186.68904738154
30
0.0
11
364.933090389738
21
1186.70681029849
31
0.0
  0
LINE
 8
Component#1
10
364.933090389738
20
1186.70681029849
30
0.0
11
365.062593467909
21
1186.6904995781
31
0.0
  0
LINE
 8
Component#1
10
365.062593467909
20
1186.6904995781
30
0.0
11
365.183462310622
21
1186.641226769
31
0.0
  0
LINE
 8
Component#1
10
365.183462310622
20
1186.641226769
30
0.0
11
365.28745990599
21
1186.5623497317
31
0.0
  0
LINE
 8
Component#1
10
365.28745990599
20
1186.5623497317
30
0.0
11
365.367498989753
21
1186.45924380595
31
0.0
  0
LINE
 8
Component#1
10
365.367498989753
20
1186.45924380595
30
0.0
11
365.418125030625
21
1186.33893549018
31
0.0
  0
LINE
 8
Component#1
10
365.418125030625
20
1186.33893549018
30
0.0
11
365.435887947582
21
1186.20962359732
31
0.0
  0
LINE
 8
Component#1
10
365.435887947582
20
1186.20962359732
30
0.0
11
365.41957722719
21
1186.08012051915
31
0.0
  0
LINE
 8
Component#1
10
365.41957722719
20
1186.08012051915
30
0.0
11
365.370304418087
21
1185.95925167644
31
0.0
  0
LINE
 8
Component#1
10
365.370304418087
20
1185.95925167644
30
0.0
11
365.291427380788
21
1185.85525408107
31
0.0
  0
LINE
 8
Component#1
10
360.291427380788
20
1185.85525408107
30
0.0
11
360.188321455033
21
1185.7752149973
31
0.0
  0
LINE
 8
Component#1
10
360.188321455033
20
1185.7752149973
30
0.0
11
360.068013139273
21
1185.72458895643
31
0.0
  0
LINE
 8
Component#1
10
360.068013139273
20
1185.72458895643
30
0.0
11
359.938701246407
21
1185.70682603947
31
0.0
  0
LINE
 8
Component#1
10
359.938701246407
20
1185.70682603947
30
0.0
11
359.809198168236
21
1185.72313675987
31
0.0
  0
LINE
 8
Component#1
10
359.809198168236
20
1185.72313675987
30
0.0
11
359.688329325523
21
1185.77240956897
31
0.0
  0
LINE
 8
Component#1
10
359.688329325523
20
1185.77240956897
30
0.0
11
359.584331730155
21
1185.85128660627
31
0.0
  0
LINE
 8
Component#1
10
359.584331730155
20
1185.85128660627
30
0.0
11
359.504292646392
21
1185.95439253202
31
0.0
  0
LINE
 8
Component#1
10
359.504292646392
20
1185.95439253202
30
0.0
11
359.45366660552
21
1186.07470084778
31
0.0
  0
LINE
 8
Component#1
10
359.45366660552
20
1186.07470084778
30
0.0
11
359.435903688563
21
1186.20401274065
31
0.0
  0
LINE
 8
Component#1
10
359.435903688563
20
1186.20401274065
30
0.0
11
359.452214408955
21
1186.33351581882
31
0.0
  0
LINE
 8
Component#1
10
359.452214408955
20
1186.33351581882
30
0.0
11
359.501487218058
21
1186.45438466153
31
0.0
  0
LINE
 8
Component#1
10
359.501487218058
20
1186.45438466153
30
0.0
11
359.580364255357
21
1186.5583822569
31
0.0
  0
LINE
 8
Component#1
10
359.580364255357
20
1186.5583822569
30
0.0
11
359.683470181112
21
1186.63842134067
31
0.0
  0
LINE
 8
Component#1
10
359.683470181112
20
1186.63842134067
30
0.0
11
359.803778496872
21
1186.68904738154
31
0.0
  0
LINE
 8
Component#1
10
359.803778496872
20
1186.68904738154
30
0.0
11
359.933090389738
21
1186.70681029849
31
0.0
  0
LINE
 8
Component#1
10
359.933090389738
20
1186.70681029849
30
0.0
11
360.062593467909
21
1186.6904995781
31
0.0
  0
LINE
 8
Component#1
10
360.062593467909
20
1186.6904995781
30
0.0
11
360.183462310622
21
1186.641226769
31
0.0
  0
LINE
 8
Component#1
10
360.183462310622
20
1186.641226769
30
0.0
11
360.28745990599
21
1186.5623497317
31
0.0
  0
LINE
 8
Component#1
10
360.28745990599
20
1186.5623497317
30
0.0
11
360.367498989753
21
1186.45924380595
31
0.0
  0
LINE
 8
Component#1
10
360.367498989753
20
1186.45924380595
30
0.0
11
360.418125030625
21
1186.33893549018
31
0.0
  0
LINE
 8
Component#1
10
360.418125030625
20
1186.33893549018
30
0.0
11
360.435887947582
21
1186.20962359732
31
0.0
  0
LINE
 8
Component#1
10
360.435887947582
20
1186.20962359732
30
0.0
11
360.41957722719
21
1186.08012051915
31
0.0
  0
LINE
 8
Component#1
10
360.41957722719
20
1186.08012051915
30
0.0
11
360.370304418087
21
1185.95925167644
31
0.0
  0
LINE
 8
Component#1
10
360.370304418087
20
1185.95925167644
30
0.0
11
360.291427380788
21
1185.85525408107
31
0.0
  0
LINE
 8
Component#1
10
370.291427380788
20
1185.85525408107
30
0.0
11
370.188321455033
21
1185.7752149973
31
0.0
  0
LINE
 8
Component#1
10
370.188321455033
20
1185.7752149973
30
0.0
11
370.068013139273
21
1185.72458895643
31
0.0
  0
LINE
 8
Component#1
10
370.068013139273
20
1185.72458895643
30
0.0
11
369.938701246407
21
1185.70682603947
31
0.0
  0
LINE
 8
Component#1
10
369.938701246407
20
1185.70682603947
30
0.0
11
369.809198168236
21
1185.72313675987
31
0.0
  0
LINE
 8
Component#1
10
369.809198168236
20
1185.72313675987
30
0.0
11
369.688329325523
21
1185.77240956897
31
0.0
  0
LINE
 8
Component#1
10
369.688329325523
20
1185.77240956897
30
0.0
11
369.584331730155
21
1185.85128660627
31
0.0
  0
LINE
 8
Component#1
10
369.584331730155
20
1185.85128660627
30
0.0
11
369.504292646392
21
1185.95439253202
31
0.0
  0
LINE
 8
Component#1
10
369.504292646392
20
1185.95439253202
30
0.0
11
369.45366660552
21
1186.07470084778
31
0.0
  0
LINE
 8
Component#1
10
369.45366660552
20
1186.07470084778
30
0.0
11
369.435903688563
21
1186.20401274065
31
0.0
  0
LINE
 8
Component#1
10
369.435903688563
20
1186.20401274065
30
0.0
11
369.452214408955
21
1186.33351581882
31
0.0
  0
LINE
 8
Component#1
10
369.452214408955
20
1186.33351581882
30
0.0
11
369.501487218058
21
1186.45438466153
31
0.0
  0
LINE
 8
Component#1
10
369.501487218058
20
1186.45438466153
30
0.0
11
369.580364255357
21
1186.5583822569
31
0.0
  0
LINE
 8
Component#1
10
369.580364255357
20
1186.5583822569
30
0.0
11
369.683470181112
21
1186.63842134067
31
0.0
  0
LINE
 8
Component#1
10
369.683470181112
20
1186.63842134067
30
0.0
11
369.803778496872
21
1186.68904738154
31
0.0
  0
LINE
 8
Component#1
10
369.803778496872
20
1186.68904738154
30
0.0
11
369.933090389738
21
1186.70681029849
31
0.0
  0
LINE
 8
Component#1
10
369.933090389738
20
1186.70681029849
30
0.0
11
370.062593467909
21
1186.6904995781
31
0.0
  0
LINE
 8
Component#1
10
370.062593467909
20
1186.6904995781
30
0.0
11
370.183462310622
21
1186.641226769
31
0.0
  0
LINE
 8
Component#1
10
370.183462310622
20
1186.641226769
30
0.0
11
370.28745990599
21
1186.5623497317
31
0.0
  0
LINE
 8
Component#1
10
370.28745990599
20
1186.5623497317
30
0.0
11
370.367498989753
21
1186.45924380595
31
0.0
  0
LINE
 8
Component#1
10
370.367498989753
20
1186.45924380595
30
0.0
11
370.418125030625
21
1186.33893549018
31
0.0
  0
LINE
 8
Component#1
10
370.418125030625
20
1186.33893549018
30
0.0
11
370.435887947582
21
1186.20962359732
31
0.0
  0
LINE
 8
Component#1
10
370.435887947582
20
1186.20962359732
30
0.0
11
370.41957722719
21
1186.08012051915
31
0.0
  0
LINE
 8
Component#1
10
370.41957722719
20
1186.08012051915
30
0.0
11
370.370304418087
21
1185.95925167644
31
0.0
  0
LINE
 8
Component#1
10
370.370304418087
20
1185.95925167644
30
0.0
11
370.291427380788
21
1185.85525408107
31
0.0
  0
LINE
 8
Component#1
10
325.291427380788
20
1185.85525408107
30
0.0
11
325.188321455033
21
1185.7752149973
31
0.0
  0
LINE
 8
Component#1
10
325.188321455033
20
1185.7752149973
30
0.0
11
325.068013139273
21
1185.72458895643
31
0.0
  0
LINE
 8
Component#1
10
325.068013139273
20
1185.72458895643
30
0.0
11
324.938701246407
21
1185.70682603947
31
0.0
  0
LINE
 8
Component#1
10
324.938701246407
20
1185.70682603947
30
0.0
11
324.809198168236
21
1185.72313675987
31
0.0
  0
LINE
 8
Component#1
10
324.809198168236
20
1185.72313675987
30
0.0
11
324.688329325523
21
1185.77240956897
31
0.0
  0
LINE
 8
Component#1
10
324.688329325523
20
1185.77240956897
30
0.0
11
324.584331730155
21
1185.85128660627
31
0.0
  0
LINE
 8
Component#1
10
324.584331730155
20
1185.85128660627
30
0.0
11
324.504292646392
21
1185.95439253202
31
0.0
  0
LINE
 8
Component#1
10
324.504292646392
20
1185.95439253202
30
0.0
11
324.45366660552
21
1186.07470084778
31
0.0
  0
LINE
 8
Component#1
10
324.45366660552
20
1186.07470084778
30
0.0
11
324.435903688563
21
1186.20401274065
31
0.0
  0
LINE
 8
Component#1
10
324.435903688563
20
1186.20401274065
30
0.0
11
324.452214408955
21
1186.33351581882
31
0.0
  0
LINE
 8
Component#1
10
324.452214408955
20
1186.33351581882
30
0.0
11
324.501487218058
21
1186.45438466153
31
0.0
  0
LINE
 8
Component#1
10
324.501487218058
20
1186.45438466153
30
0.0
11
324.580364255357
21
1186.5583822569
31
0.0
  0
LINE
 8
Component#1
10
324.580364255357
20
1186.5583822569
30
0.0
11
324.683470181112
21
1186.63842134067
31
0.0
  0
LINE
 8
Component#1
10
324.683470181112
20
1186.63842134067
30
0.0
11
324.803778496872
21
1186.68904738154
31
0.0
  0
LINE
 8
Component#1
10
324.803778496872
20
1186.68904738154
30
0.0
11
324.933090389738
21
1186.70681029849
31
0.0
  0
LINE
 8
Component#1
10
324.933090389738
20
1186.70681029849
30
0.0
11
325.062593467909
21
1186.6904995781
31
0.0
  0
LINE
 8
Component#1
10
325.062593467909
20
1186.6904995781
30
0.0
11
325.183462310622
21
1186.641226769
31
0.0
  0
LINE
 8
Component#1
10
325.183462310622
20
1186.641226769
30
0.0
11
325.28745990599
21
1186.5623497317
31
0.0
  0
LINE
 8
Component#1
10
325.28745990599
20
1186.5623497317
30
0.0
11
325.367498989753
21
1186.45924380595
31
0.0
  0
LINE
 8
Component#1
10
325.367498989753
20
1186.45924380595
30
0.0
11
325.418125030625
21
1186.33893549018
31
0.0
  0
LINE
 8
Component#1
10
325.418125030625
20
1186.33893549018
30
0.0
11
325.435887947582
21
1186.20962359732
31
0.0
  0
LINE
 8
Component#1
10
325.435887947582
20
1186.20962359732
30
0.0
11
325.41957722719
21
1186.08012051915
31
0.0
  0
LINE
 8
Component#1
10
325.41957722719
20
1186.08012051915
30
0.0
11
325.370304418087
21
1185.95925167644
31
0.0
  0
LINE
 8
Component#1
10
325.370304418087
20
1185.95925167644
30
0.0
11
325.291427380788
21
1185.85525408107
31
0.0
  0
LINE
 8
Component#1
10
320.291427380788
20
1185.85525408107
30
0.0
11
320.188321455033
21
1185.7752149973
31
0.0
  0
LINE
 8
Component#1
10
320.188321455033
20
1185.7752149973
30
0.0
11
320.068013139273
21
1185.72458895643
31
0.0
  0
LINE
 8
Component#1
10
320.068013139273
20
1185.72458895643
30
0.0
11
319.938701246407
21
1185.70682603947
31
0.0
  0
LINE
 8
Component#1
10
319.938701246407
20
1185.70682603947
30
0.0
11
319.809198168236
21
1185.72313675987
31
0.0
  0
LINE
 8
Component#1
10
319.809198168236
20
1185.72313675987
30
0.0
11
319.688329325523
21
1185.77240956897
31
0.0
  0
LINE
 8
Component#1
10
319.688329325523
20
1185.77240956897
30
0.0
11
319.584331730155
21
1185.85128660627
31
0.0
  0
LINE
 8
Component#1
10
319.584331730155
20
1185.85128660627
30
0.0
11
319.504292646392
21
1185.95439253202
31
0.0
  0
LINE
 8
Component#1
10
319.504292646392
20
1185.95439253202
30
0.0
11
319.45366660552
21
1186.07470084778
31
0.0
  0
LINE
 8
Component#1
10
319.45366660552
20
1186.07470084778
30
0.0
11
319.435903688563
21
1186.20401274065
31
0.0
  0
LINE
 8
Component#1
10
319.435903688563
20
1186.20401274065
30
0.0
11
319.452214408955
21
1186.33351581882
31
0.0
  0
LINE
 8
Component#1
10
319.452214408955
20
1186.33351581882
30
0.0
11
319.501487218058
21
1186.45438466153
31
0.0
  0
LINE
 8
Component#1
10
319.501487218058
20
1186.45438466153
30
0.0
11
319.580364255357
21
1186.5583822569
31
0.0
  0
LINE
 8
Component#1
10
319.580364255357
20
1186.5583822569
30
0.0
11
319.683470181112
21
1186.63842134067
31
0.0
  0
LINE
 8
Component#1
10
319.683470181112
20
1186.63842134067
30
0.0
11
319.803778496872
21
1186.68904738154
31
0.0
  0
LINE
 8
Component#1
10
319.803778496872
20
1186.68904738154
30
0.0
11
319.933090389738
21
1186.70681029849
31
0.0
  0
LINE
 8
Component#1
10
319.933090389738
20
1186.70681029849
30
0.0
11
320.062593467909
21
1186.6904995781
31
0.0
  0
LINE
 8
Component#1
10
320.062593467909
20
1186.6904995781
30
0.0
11
320.183462310622
21
1186.641226769
31
0.0
  0
LINE
 8
Component#1
10
320.183462310622
20
1186.641226769
30
0.0
11
320.28745990599
21
1186.5623497317
31
0.0
  0
LINE
 8
Component#1
10
320.28745990599
20
1186.5623497317
30
0.0
11
320.367498989753
21
1186.45924380595
31
0.0
  0
LINE
 8
Component#1
10
320.367498989753
20
1186.45924380595
30
0.0
11
320.418125030625
21
1186.33893549018
31
0.0
  0
LINE
 8
Component#1
10
320.418125030625
20
1186.33893549018
30
0.0
11
320.435887947582
21
1186.20962359732
31
0.0
  0
LINE
 8
Component#1
10
320.435887947582
20
1186.20962359732
30
0.0
11
320.41957722719
21
1186.08012051915
31
0.0
  0
LINE
 8
Component#1
10
320.41957722719
20
1186.08012051915
30
0.0
11
320.370304418087
21
1185.95925167644
31
0.0
  0
LINE
 8
Component#1
10
320.370304418087
20
1185.95925167644
30
0.0
11
320.291427380788
21
1185.85525408107
31
0.0
  0
LINE
 8
Component#1
10
335.291427380788
20
1185.85525408107
30
0.0
11
335.188321455033
21
1185.7752149973
31
0.0
  0
LINE
 8
Component#1
10
335.188321455033
20
1185.7752149973
30
0.0
11
335.068013139273
21
1185.72458895643
31
0.0
  0
LINE
 8
Component#1
10
335.068013139273
20
1185.72458895643
30
0.0
11
334.938701246407
21
1185.70682603947
31
0.0
  0
LINE
 8
Component#1
10
334.938701246407
20
1185.70682603947
30
0.0
11
334.809198168236
21
1185.72313675987
31
0.0
  0
LINE
 8
Component#1
10
334.809198168236
20
1185.72313675987
30
0.0
11
334.688329325523
21
1185.77240956897
31
0.0
  0
LINE
 8
Component#1
10
334.688329325523
20
1185.77240956897
30
0.0
11
334.584331730155
21
1185.85128660627
31
0.0
  0
LINE
 8
Component#1
10
334.584331730155
20
1185.85128660627
30
0.0
11
334.504292646392
21
1185.95439253202
31
0.0
  0
LINE
 8
Component#1
10
334.504292646392
20
1185.95439253202
30
0.0
11
334.45366660552
21
1186.07470084778
31
0.0
  0
LINE
 8
Component#1
10
334.45366660552
20
1186.07470084778
30
0.0
11
334.435903688563
21
1186.20401274065
31
0.0
  0
LINE
 8
Component#1
10
334.435903688563
20
1186.20401274065
30
0.0
11
334.452214408955
21
1186.33351581882
31
0.0
  0
LINE
 8
Component#1
10
334.452214408955
20
1186.33351581882
30
0.0
11
334.501487218057
21
1186.45438466153
31
0.0
  0
LINE
 8
Component#1
10
334.501487218057
20
1186.45438466153
30
0.0
11
334.580364255357
21
1186.5583822569
31
0.0
  0
LINE
 8
Component#1
10
334.580364255357
20
1186.5583822569
30
0.0
11
334.683470181112
21
1186.63842134067
31
0.0
  0
LINE
 8
Component#1
10
334.683470181112
20
1186.63842134067
30
0.0
11
334.803778496872
21
1186.68904738154
31
0.0
  0
LINE
 8
Component#1
10
334.803778496872
20
1186.68904738154
30
0.0
11
334.933090389738
21
1186.70681029849
31
0.0
  0
LINE
 8
Component#1
10
334.933090389738
20
1186.70681029849
30
0.0
11
335.062593467909
21
1186.6904995781
31
0.0
  0
LINE
 8
Component#1
10
335.062593467909
20
1186.6904995781
30
0.0
11
335.183462310621
21
1186.641226769
31
0.0
  0
LINE
 8
Component#1
10
335.183462310621
20
1186.641226769
30
0.0
11
335.28745990599
21
1186.5623497317
31
0.0
  0
LINE
 8
Component#1
10
335.28745990599
20
1186.5623497317
30
0.0
11
335.367498989753
21
1186.45924380595
31
0.0
  0
LINE
 8
Component#1
10
335.367498989753
20
1186.45924380595
30
0.0
11
335.418125030625
21
1186.33893549018
31
0.0
  0
LINE
 8
Component#1
10
335.418125030625
20
1186.33893549018
30
0.0
11
335.435887947582
21
1186.20962359732
31
0.0
  0
LINE
 8
Component#1
10
335.435887947582
20
1186.20962359732
30
0.0
11
335.41957722719
21
1186.08012051915
31
0.0
  0
LINE
 8
Component#1
10
335.41957722719
20
1186.08012051915
30
0.0
11
335.370304418087
21
1185.95925167644
31
0.0
  0
LINE
 8
Component#1
10
335.370304418087
20
1185.95925167644
30
0.0
11
335.291427380788
21
1185.85525408107
31
0.0
  0
LINE
 8
Component#1
10
280.291427380788
20
1131.55839012739
30
0.0
11
280.188321455033
21
1131.63842921116
31
0.0
  0
LINE
 8
Component#1
10
280.188321455033
20
1131.63842921116
30
0.0
11
280.068013139273
21
1131.68905525203
31
0.0
  0
LINE
 8
Component#1
10
280.068013139273
20
1131.68905525203
30
0.0
11
279.938701246407
21
1131.70681816898
31
0.0
  0
LINE
 8
Component#1
10
279.938701246407
20
1131.70681816898
30
0.0
11
279.809198168236
21
1131.69050744859
31
0.0
  0
LINE
 8
Component#1
10
279.809198168236
20
1131.69050744859
30
0.0
11
279.688329325523
21
1131.64123463949
31
0.0
  0
LINE
 8
Component#1
10
279.688329325523
20
1131.64123463949
30
0.0
11
279.584331730155
21
1131.56235760219
31
0.0
  0
LINE
 8
Component#1
10
279.584331730155
20
1131.56235760219
30
0.0
11
279.504292646392
21
1131.45925167644
31
0.0
  0
LINE
 8
Component#1
10
279.504292646392
20
1131.45925167644
30
0.0
11
279.45366660552
21
1131.33894336067
31
0.0
  0
LINE
 8
Component#1
10
279.45366660552
20
1131.33894336067
30
0.0
11
279.435903688563
21
1131.20963146781
31
0.0
  0
LINE
 8
Component#1
10
279.435903688563
20
1131.20963146781
30
0.0
11
279.452214408955
21
1131.08012838964
31
0.0
  0
LINE
 8
Component#1
10
279.452214408955
20
1131.08012838964
30
0.0
11
279.501487218058
21
1130.95925954693
31
0.0
  0
LINE
 8
Component#1
10
279.501487218058
20
1130.95925954693
30
0.0
11
279.580364255357
21
1130.85526195156
31
0.0
  0
LINE
 8
Component#1
10
279.580364255357
20
1130.85526195156
30
0.0
11
279.683470181112
21
1130.77522286779
31
0.0
  0
LINE
 8
Component#1
10
279.683470181112
20
1130.77522286779
30
0.0
11
279.803778496872
21
1130.72459682692
31
0.0
  0
LINE
 8
Component#1
10
279.803778496872
20
1130.72459682692
30
0.0
11
279.933090389738
21
1130.70683390996
31
0.0
  0
LINE
 8
Component#1
10
279.933090389738
20
1130.70683390996
30
0.0
11
280.062593467909
21
1130.72314463036
31
0.0
  0
LINE
 8
Component#1
10
280.062593467909
20
1130.72314463036
30
0.0
11
280.183462310622
21
1130.77241743946
31
0.0
  0
LINE
 8
Component#1
10
280.183462310622
20
1130.77241743946
30
0.0
11
280.28745990599
21
1130.85129447676
31
0.0
  0
LINE
 8
Component#1
10
280.28745990599
20
1130.85129447676
30
0.0
11
280.367498989753
21
1130.95440040251
31
0.0
  0
LINE
 8
Component#1
10
280.367498989753
20
1130.95440040251
30
0.0
11
280.418125030625
21
1131.07470871827
31
0.0
  0
LINE
 8
Component#1
10
280.418125030625
20
1131.07470871827
30
0.0
11
280.435887947582
21
1131.20402061114
31
0.0
  0
LINE
 8
Component#1
10
280.435887947582
20
1131.20402061114
30
0.0
11
280.41957722719
21
1131.33352368931
31
0.0
  0
LINE
 8
Component#1
10
280.41957722719
20
1131.33352368931
30
0.0
11
280.370304418087
21
1131.45439253202
31
0.0
  0
LINE
 8
Component#1
10
280.370304418087
20
1131.45439253202
30
0.0
11
280.291427380788
21
1131.55839012739
31
0.0
 0
ENDSEC
 0
EOF
