  0
SECTION
  2
HEADER
  9
$ACADVER
  1
AC1014
  9
$HANDSEED
  5
FFFF
  9
$MEASUREMENT
 70
     1
  0
ENDSEC
  0
SECTION
  2
TABLES
  0
TABLE
  2
VPORT
  5
8
330
0
100
AcDbSymbolTable
 70
     4
  0
VPORT
  5
2E
330
8
100
AcDbSymbolTableRecord
100
AcDbViewportTableRecord
  2
*ACTIVE
 70
     0
 10
0.0
 20
0.0
 11
1.0
 21
1.0
 12
210.0
 22
148.5
 13
0.0
 23
0.0
 14
10.0
 24
10.0
 15
10.0
 25
10.0
 16
0.0
 26
0.0
 36
1.0
 17
0.0
 27
0.0
 37
0.0
 40
341.0
 41
1.24
 42
50.0
 43
0.0
 44
0.0
 50
0.0
 51
0.0
 71
     0
 72
   100
 73
     1
 74
     3
 75
     0
 76
     0
 77
     0
 78
     0
  0
ENDTAB
  0
TABLE
  2
LTYPE
  5
5
330
0
100
AcDbSymbolTable
 70
     1
  0
LTYPE
  5
14
330
5
100
AcDbSymbolTableRecord
100
AcDbLinetypeTableRecord
  2
BYBLOCK
 70
     0
  3

 72
    65
 73
     0
 40
0.0
  0
LTYPE
  5
15
330
5
100
AcDbSymbolTableRecord
100
AcDbLinetypeTableRecord
  2
BYLAYER
 70
     0
  3

 72
    65
 73
     0
 40
0.0
  0
LTYPE
  5
16
330
5
100
AcDbSymbolTableRecord
100
AcDbLinetypeTableRecord
  2
CONTINUOUS
 70
     0
  3
Solid line
 72
    65
 73
     0
 40
0.0
  0
ENDTAB
  0
TABLE
  2
LAYER
  5
2
100
AcDbSymbolTable
 70
2
  0
LAYER
  5
50
100
AcDbSymbolTableRecord
100
AcDbLayerTableRecord
  2
0
 70
0
  6
CONTINUOUS
  0
LAYER
  5
51
100
AcDbSymbolTableRecord
100
AcDbLayerTableRecord
  2
Layer_1
 70
0
  6
CONTINUOUS
  0
ENDTAB
  0
TABLE
  2
STYLE
  5
3
330
0
100
AcDbSymbolTable
 70
     1
  0
STYLE
  5
11
330
3
100
AcDbSymbolTableRecord
100
AcDbTextStyleTableRecord
  2
STANDARD
 70
     0
 40
0.0
 41
1.0
 50
0.0
 71
     0
 42
2.5
  3
txt
  4

  0
ENDTAB
  0
TABLE
  2
VIEW
  5
6
330
0
100
AcDbSymbolTable
 70
     0
  0
ENDTAB
  0
TABLE
  2
UCS
  5
7
330
0
100
AcDbSymbolTable
 70
     0
  0
ENDTAB
  0
TABLE
  2
APPID
  5
9
330
0
100
AcDbSymbolTable
 70
     2
  0
APPID
  5
12
330
9
100
AcDbSymbolTableRecord
100
AcDbRegAppTableRecord
  2
ACAD
 70
     0
  0
ENDTAB
  0
TABLE
  2
DIMSTYLE
  5
A
330
0
100
AcDbSymbolTable
 70
     1
  0
DIMSTYLE
105
27
330
A
100
AcDbSymbolTableRecord
100
AcDbDimStyleTableRecord
  2
ISO-25
 70
     0
  3

  4

  5

  6

  7

 40
1.0
 41
2.5
 42
0.625
 43
3.75
 44
1.25
 45
0.0
 46
0.0
 47
0.0
 48
0.0
140
2.5
141
2.5
142
0.0
143
0.03937007874016
144
1.0
145
0.0
146
1.0
147
0.625
 71
     0
 72
     0
 73
     0
 74
     0
 75
     0
 76
     0
 77
     1
 78
     8
170
     0
171
     3
172
     1
173
     0
174
     0
175
     0
176
     0
177
     0
178
     0
270
     2
271
     2
272
     2
273
     2
274
     3
340
11
275
     0
280
     0
281
     0
282
     0
283
     0
284
     8
285
     0
286
     0
287
     3
288
     0
  0
ENDTAB
  0
TABLE
  2
BLOCK_RECORD
  5
1
330
0
100
AcDbSymbolTable
 70
     1
  0
BLOCK_RECORD
  5
1F
330
1
100
AcDbSymbolTableRecord
100
AcDbBlockTableRecord
  2
*MODEL_SPACE
  0
BLOCK_RECORD
  5
1B
330
1
100
AcDbSymbolTableRecord
100
AcDbBlockTableRecord
  2
*PAPER_SPACE
  0
ENDTAB
  0
ENDSEC
  0
SECTION
  2
BLOCKS
  0
BLOCK
  5
20
330
1F
100
AcDbEntity
  8
0
100
AcDbBlockBegin
  2
*MODEL_SPACE
 70
     0
 10
0.0
 20
0.0
 30
0.0
  3
*MODEL_SPACE
  1

  0
ENDBLK
  5
21
330
1F
100
AcDbEntity
  8
0
100
AcDbBlockEnd
  0
BLOCK
  5
1C
330
1B
100
AcDbEntity
 67
     1
  8
0
100
AcDbBlockBegin
  2
*PAPER_SPACE
  1

  0
ENDBLK
  5
1D
330
1B
100
AcDbEntity
 67
     1
  8
0
100
AcDbBlockEnd
  0
ENDSEC
  0
SECTION
  2
ENTITIES
  0
LINE
  5
100
100
AcDbEntity
  8
Layer_1
 62
1
100
AcDbLine
 10
-449.792570
 20
-477.133240
 30
0.0
 11
-437.092570
 21
-477.133240
 31
0.0
  0
LINE
  5
101
100
AcDbEntity
  8
Layer_1
 62
1
100
AcDbLine
 10
-437.092570
 20
-477.133240
 30
0.0
 11
-437.092570
 21
-473.963240
 31
0.0
  0
LINE
  5
102
100
AcDbEntity
  8
Layer_1
 62
1
100
AcDbLine
 10
-437.092570
 20
-473.963240
 30
0.0
 11
-430.742570
 21
-473.963240
 31
0.0
  0
LINE
  5
103
100
AcDbEntity
  8
Layer_1
 62
1
100
AcDbLine
 10
-430.742570
 20
-473.963240
 30
0.0
 11
-430.742570
 21
-426.333240
 31
0.0
  0
LINE
  5
104
100
AcDbEntity
  8
Layer_1
 62
1
100
AcDbLine
 10
-430.742570
 20
-426.333240
 30
0.0
 11
-437.092570
 21
-426.333240
 31
0.0
  0
LINE
  5
105
100
AcDbEntity
  8
Layer_1
 62
1
100
AcDbLine
 10
-437.092570
 20
-426.333240
 30
0.0
 11
-437.092570
 21
-423.163240
 31
0.0
  0
LINE
  5
106
100
AcDbEntity
  8
Layer_1
 62
1
100
AcDbLine
 10
-437.092570
 20
-423.163240
 30
0.0
 11
-449.792570
 21
-423.163240
 31
0.0
  0
LINE
  5
107
100
AcDbEntity
  8
Layer_1
 62
1
100
AcDbLine
 10
-449.792570
 20
-423.163240
 30
0.0
 11
-449.792570
 21
-426.333240
 31
0.0
  0
LINE
  5
108
100
AcDbEntity
  8
Layer_1
 62
1
100
AcDbLine
 10
-449.792570
 20
-426.333240
 30
0.0
 11
-459.842550
 21
-426.333240
 31
0.0
  0
LINE
  5
109
100
AcDbEntity
  8
Layer_1
 62
1
100
AcDbLine
 10
-459.842550
 20
-426.333240
 30
0.0
 11
-459.842550
 21
-468.160870
 31
0.0
  0
LINE
  5
10a
100
AcDbEntity
  8
Layer_1
 62
1
100
AcDbLine
 10
-459.842550
 20
-468.160870
 30
0.0
 11
-449.792570
 21
-473.963240
 31
0.0
  0
LINE
  5
10b
100
AcDbEntity
  8
Layer_1
 62
1
100
AcDbLine
 10
-449.792570
 20
-473.963240
 30
0.0
 11
-449.792570
 21
-477.133240
 31
0.0
  0
SPLINE
  5
10c
100
AcDbEntity
  8
Layer_1
 62
1
100
AcDbSpline
 70
8
 71
3
 72
8
 73
4
 74
0
 40
0
 40
0
 40
0
 40
0
 40
1
 40
1
 40
1
 40
1
 10
-556.750610
 20
-444.821390
 30
0.0
 10
-556.750610
 20
-444.821390
 30
0.0
 10
-556.750610
 20
-440.821390
 30
0.0
 10
-556.750610
 20
-440.821390
 30
0.0
  0
SPLINE
  5
10d
100
AcDbEntity
  8
Layer_1
 62
1
100
AcDbSpline
 70
8
 71
3
 72
8
 73
4
 74
0
 40
0
 40
0
 40
0
 40
0
 40
1
 40
1
 40
1
 40
1
 10
-556.750610
 20
-440.821390
 30
0.0
 10
-556.750607
 20
-439.441365
 30
0.0
 10
-557.131364
 20
-438.088095
 30
0.0
 10
-557.850970
 20
-436.910540
 30
0.0
  0
SPLINE
  5
10e
100
AcDbEntity
  8
Layer_1
 62
1
100
AcDbSpline
 70
8
 71
3
 72
8
 73
4
 74
0
 40
0
 40
0
 40
0
 40
0
 40
1
 40
1
 40
1
 40
1
 10
-557.850970
 20
-436.910540
 30
0.0
 10
-559.579796
 20
-434.081520
 30
0.0
 10
-560.578207
 20
-430.867087
 30
0.0
 10
-560.756380
 20
-427.556430
 30
0.0
  0
SPLINE
  5
10f
100
AcDbEntity
  8
Layer_1
 62
1
100
AcDbSpline
 70
8
 71
3
 72
8
 73
4
 74
0
 40
0
 40
0
 40
0
 40
0
 40
1
 40
1
 40
1
 40
1
 10
-560.756380
 20
-427.556430
 30
0.0
 10
-560.870611
 20
-425.433886
 30
0.0
 10
-562.624995
 20
-423.771385
 30
0.0
 10
-564.750610
 20
-423.771390
 30
0.0
  0
LINE
  5
110
100
AcDbEntity
  8
Layer_1
 62
1
100
AcDbLine
 10
-564.750610
 20
-423.771390
 30
0.0
 11
-564.750610
 21
-433.296390
 31
0.0
  0
LINE
  5
111
100
AcDbEntity
  8
Layer_1
 62
1
100
AcDbLine
 10
-564.750610
 20
-433.296390
 30
0.0
 11
-567.920600
 21
-433.296390
 31
0.0
  0
SPLINE
  5
112
100
AcDbEntity
  8
Layer_1
 62
1
100
AcDbSpline
 70
8
 71
3
 72
8
 73
4
 74
0
 40
0
 40
0
 40
0
 40
0
 40
1
 40
1
 40
1
 40
1
 10
-567.920600
 20
-433.296390
 30
0.0
 10
-567.920600
 20
-433.296390
 30
0.0
 10
-567.920600
 20
-423.771390
 30
0.0
 10
-567.920600
 20
-423.771390
 30
0.0
  0
SPLINE
  5
113
100
AcDbEntity
  8
Layer_1
 62
1
100
AcDbSpline
 70
8
 71
3
 72
8
 73
4
 74
0
 40
0
 40
0
 40
0
 40
0
 40
1
 40
1
 40
1
 40
1
 10
-567.920600
 20
-423.771390
 30
0.0
 10
-570.046212
 20
-423.771390
 30
0.0
 10
-571.800590
 20
-425.433890
 30
0.0
 10
-571.914820
 20
-427.556430
 30
0.0
  0
SPLINE
  5
114
100
AcDbEntity
  8
Layer_1
 62
1
100
AcDbSpline
 70
8
 71
3
 72
8
 73
4
 74
0
 40
0
 40
0
 40
0
 40
0
 40
1
 40
1
 40
1
 40
1
 10
-571.914820
 20
-427.556430
 30
0.0
 10
-572.092996
 20
-430.867088
 30
0.0
 10
-573.091410
 20
-434.081521
 30
0.0
 10
-574.820240
 20
-436.910540
 30
0.0
  0
SPLINE
  5
115
100
AcDbEntity
  8
Layer_1
 62
1
100
AcDbSpline
 70
8
 71
3
 72
8
 73
4
 74
0
 40
0
 40
0
 40
0
 40
0
 40
1
 40
1
 40
1
 40
1
 10
-574.820240
 20
-436.910540
 30
0.0
 10
-575.539846
 20
-438.088095
 30
0.0
 10
-575.920603
 20
-439.441365
 30
0.0
 10
-575.920600
 20
-440.821390
 30
0.0
  0
SPLINE
  5
116
100
AcDbEntity
  8
Layer_1
 62
1
100
AcDbSpline
 70
8
 71
3
 72
8
 73
4
 74
0
 40
0
 40
0
 40
0
 40
0
 40
1
 40
1
 40
1
 40
1
 10
-575.920600
 20
-440.821390
 30
0.0
 10
-575.920600
 20
-440.821390
 30
0.0
 10
-575.920600
 20
-444.821390
 30
0.0
 10
-575.920600
 20
-444.821390
 30
0.0
  0
SPLINE
  5
117
100
AcDbEntity
  8
Layer_1
 62
1
100
AcDbSpline
 70
8
 71
3
 72
8
 73
4
 74
0
 40
0
 40
0
 40
0
 40
0
 40
1
 40
1
 40
1
 40
1
 10
-575.920600
 20
-444.821390
 30
0.0
 10
-575.920601
 20
-446.201411
 30
0.0
 10
-575.539844
 20
-447.554678
 30
0.0
 10
-574.820240
 20
-448.732230
 30
0.0
  0
SPLINE
  5
118
100
AcDbEntity
  8
Layer_1
 62
1
100
AcDbSpline
 70
8
 71
3
 72
8
 73
4
 74
0
 40
0
 40
0
 40
0
 40
0
 40
1
 40
1
 40
1
 40
1
 10
-574.820240
 20
-448.732230
 30
0.0
 10
-573.091409
 20
-451.561252
 30
0.0
 10
-572.092994
 20
-454.775689
 30
0.0
 10
-571.914820
 20
-458.086350
 30
0.0
  0
SPLINE
  5
119
100
AcDbEntity
  8
Layer_1
 62
1
100
AcDbSpline
 70
8
 71
3
 72
8
 73
4
 74
0
 40
0
 40
0
 40
0
 40
0
 40
1
 40
1
 40
1
 40
1
 10
-571.914820
 20
-458.086350
 30
0.0
 10
-571.800590
 20
-460.208890
 30
0.0
 10
-570.046212
 20
-461.871390
 30
0.0
 10
-567.920600
 20
-461.871390
 30
0.0
  0
LINE
  5
11a
100
AcDbEntity
  8
Layer_1
 62
1
100
AcDbLine
 10
-567.920600
 20
-461.871390
 30
0.0
 11
-567.920600
 21
-452.346390
 31
0.0
  0
LINE
  5
11b
100
AcDbEntity
  8
Layer_1
 62
1
100
AcDbLine
 10
-567.920600
 20
-452.346390
 30
0.0
 11
-564.750610
 21
-452.346390
 31
0.0
  0
SPLINE
  5
11c
100
AcDbEntity
  8
Layer_1
 62
1
100
AcDbSpline
 70
8
 71
3
 72
8
 73
4
 74
0
 40
0
 40
0
 40
0
 40
0
 40
1
 40
1
 40
1
 40
1
 10
-564.750610
 20
-452.346390
 30
0.0
 10
-564.750610
 20
-452.346390
 30
0.0
 10
-564.750610
 20
-461.871390
 30
0.0
 10
-564.750610
 20
-461.871390
 30
0.0
  0
SPLINE
  5
11d
100
AcDbEntity
  8
Layer_1
 62
1
100
AcDbSpline
 70
8
 71
3
 72
8
 73
4
 74
0
 40
0
 40
0
 40
0
 40
0
 40
1
 40
1
 40
1
 40
1
 10
-564.750610
 20
-461.871390
 30
0.0
 10
-562.624995
 20
-461.871395
 30
0.0
 10
-560.870611
 20
-460.208894
 30
0.0
 10
-560.756380
 20
-458.086350
 30
0.0
  0
SPLINE
  5
11e
100
AcDbEntity
  8
Layer_1
 62
1
100
AcDbSpline
 70
8
 71
3
 72
8
 73
4
 74
0
 40
0
 40
0
 40
0
 40
0
 40
1
 40
1
 40
1
 40
1
 10
-560.756380
 20
-458.086350
 30
0.0
 10
-560.578209
 20
-454.775689
 30
0.0
 10
-559.579798
 20
-451.561253
 30
0.0
 10
-557.850970
 20
-448.732230
 30
0.0
  0
SPLINE
  5
11f
100
AcDbEntity
  8
Layer_1
 62
1
100
AcDbSpline
 70
8
 71
3
 72
8
 73
4
 74
0
 40
0
 40
0
 40
0
 40
0
 40
1
 40
1
 40
1
 40
1
 10
-557.850970
 20
-448.732230
 30
0.0
 10
-557.131366
 20
-447.554678
 30
0.0
 10
-556.750609
 20
-446.201411
 30
0.0
 10
-556.750610
 20
-444.821390
 30
0.0
  0
LINE
  5
120
100
AcDbEntity
  8
Layer_1
 62
1
100
AcDbLine
 10
-556.750610
 20
-444.821390
 30
0.0
 11
-556.750610
 21
-444.821390
 31
0.0
  0
SPLINE
  5
121
100
AcDbEntity
  8
Layer_1
 62
1
100
AcDbSpline
 70
8
 71
3
 72
8
 73
4
 74
0
 40
0
 40
0
 40
0
 40
0
 40
1
 40
1
 40
1
 40
1
 10
-782.717270
 20
-694.745150
 30
0.0
 10
-782.717270
 20
-694.745150
 30
0.0
 10
-782.717270
 20
-682.045150
 30
0.0
 10
-782.717270
 20
-682.045150
 30
0.0
  0
SPLINE
  5
122
100
AcDbEntity
  8
Layer_1
 62
1
100
AcDbSpline
 70
8
 71
3
 72
8
 73
4
 74
0
 40
0
 40
0
 40
0
 40
0
 40
1
 40
1
 40
1
 40
1
 10
-782.717270
 20
-682.045150
 30
0.0
 10
-782.717271
 20
-680.669222
 30
0.0
 10
-783.095776
 20
-679.319809
 30
0.0
 10
-783.811360
 20
-678.144600
 30
0.0
  0
SPLINE
  5
123
100
AcDbEntity
  8
Layer_1
 62
1
100
AcDbSpline
 70
8
 71
3
 72
8
 73
4
 74
0
 40
0
 40
0
 40
0
 40
0
 40
1
 40
1
 40
1
 40
1
 10
-783.811360
 20
-678.144600
 30
0.0
 10
-785.829823
 20
-674.829656
 30
0.0
 10
-786.840170
 20
-670.999039
 30
0.0
 10
-786.719210
 20
-667.119810
 30
0.0
  0
SPLINE
  5
124
100
AcDbEntity
  8
Layer_1
 62
1
100
AcDbSpline
 70
8
 71
3
 72
8
 73
4
 74
0
 40
0
 40
0
 40
0
 40
0
 40
1
 40
1
 40
1
 40
1
 10
-786.719210
 20
-667.119810
 30
0.0
 10
-786.685474
 20
-666.037850
 30
0.0
 10
-787.091694
 20
-664.988413
 30
0.0
 10
-787.845105
 20
-664.211145
 30
0.0
  0
SPLINE
  5
125
100
AcDbEntity
  8
Layer_1
 62
1
100
AcDbSpline
 70
8
 71
3
 72
8
 73
4
 74
0
 40
0
 40
0
 40
0
 40
0
 40
1
 40
1
 40
1
 40
1
 10
-787.845105
 20
-664.211145
 30
0.0
 10
-788.598517
 20
-663.433876
 30
0.0
 10
-789.634784
 20
-662.995149
 30
0.0
 10
-790.717270
 20
-662.995150
 30
0.0
  0
LINE
  5
126
100
AcDbEntity
  8
Layer_1
 62
1
100
AcDbLine
 10
-790.717270
 20
-662.995150
 30
0.0
 11
-790.717270
 21
-678.870150
 31
0.0
  0
LINE
  5
127
100
AcDbEntity
  8
Layer_1
 62
1
100
AcDbLine
 10
-790.717270
 20
-678.870150
 30
0.0
 11
-793.887260
 21
-678.870150
 31
0.0
  0
SPLINE
  5
128
100
AcDbEntity
  8
Layer_1
 62
1
100
AcDbSpline
 70
8
 71
3
 72
8
 73
4
 74
0
 40
0
 40
0
 40
0
 40
0
 40
1
 40
1
 40
1
 40
1
 10
-793.887260
 20
-678.870150
 30
0.0
 10
-793.887260
 20
-678.870150
 30
0.0
 10
-793.887260
 20
-662.995150
 30
0.0
 10
-793.887260
 20
-662.995150
 30
0.0
  0
SPLINE
  5
129
100
AcDbEntity
  8
Layer_1
 62
1
100
AcDbSpline
 70
8
 71
3
 72
8
 73
4
 74
0
 40
0
 40
0
 40
0
 40
0
 40
1
 40
1
 40
1
 40
1
 10
-793.887260
 20
-662.995150
 30
0.0
 10
-794.969746
 20
-662.995149
 30
0.0
 10
-796.006014
 20
-663.433876
 30
0.0
 10
-796.759425
 20
-664.211145
 30
0.0
  0
SPLINE
  5
12a
100
AcDbEntity
  8
Layer_1
 62
1
100
AcDbSpline
 70
8
 71
3
 72
8
 73
4
 74
0
 40
0
 40
0
 40
0
 40
0
 40
1
 40
1
 40
1
 40
1
 10
-796.759425
 20
-664.211145
 30
0.0
 10
-797.512836
 20
-664.988413
 30
0.0
 10
-797.919056
 20
-666.037850
 30
0.0
 10
-797.885320
 20
-667.119810
 30
0.0
  0
SPLINE
  5
12b
100
AcDbEntity
  8
Layer_1
 62
1
100
AcDbSpline
 70
8
 71
3
 72
8
 73
4
 74
0
 40
0
 40
0
 40
0
 40
0
 40
1
 40
1
 40
1
 40
1
 10
-797.885320
 20
-667.119810
 30
0.0
 10
-797.764360
 20
-670.999039
 30
0.0
 10
-798.774707
 20
-674.829656
 30
0.0
 10
-800.793170
 20
-678.144600
 30
0.0
  0
SPLINE
  5
12c
100
AcDbEntity
  8
Layer_1
 62
1
100
AcDbSpline
 70
8
 71
3
 72
8
 73
4
 74
0
 40
0
 40
0
 40
0
 40
0
 40
1
 40
1
 40
1
 40
1
 10
-800.793170
 20
-678.144600
 30
0.0
 10
-801.508754
 20
-679.319809
 30
0.0
 10
-801.887259
 20
-680.669222
 30
0.0
 10
-801.887260
 20
-682.045150
 30
0.0
  0
SPLINE
  5
12d
100
AcDbEntity
  8
Layer_1
 62
1
100
AcDbSpline
 70
8
 71
3
 72
8
 73
4
 74
0
 40
0
 40
0
 40
0
 40
0
 40
1
 40
1
 40
1
 40
1
 10
-801.887260
 20
-682.045150
 30
0.0
 10
-801.887260
 20
-682.045150
 30
0.0
 10
-801.887260
 20
-694.745150
 30
0.0
 10
-801.887260
 20
-694.745150
 30
0.0
  0
SPLINE
  5
12e
100
AcDbEntity
  8
Layer_1
 62
1
100
AcDbSpline
 70
8
 71
3
 72
8
 73
4
 74
0
 40
0
 40
0
 40
0
 40
0
 40
1
 40
1
 40
1
 40
1
 10
-801.887260
 20
-694.745150
 30
0.0
 10
-801.887258
 20
-696.121074
 30
0.0
 10
-801.508752
 20
-697.470484
 30
0.0
 10
-800.793170
 20
-698.645690
 30
0.0
  0
SPLINE
  5
12f
100
AcDbEntity
  8
Layer_1
 62
1
100
AcDbSpline
 70
8
 71
3
 72
8
 73
4
 74
0
 40
0
 40
0
 40
0
 40
0
 40
1
 40
1
 40
1
 40
1
 10
-800.793170
 20
-698.645690
 30
0.0
 10
-798.774703
 20
-701.960639
 30
0.0
 10
-797.764356
 20
-705.791265
 30
0.0
 10
-797.885320
 20
-709.670500
 30
0.0
  0
SPLINE
  5
130
100
AcDbEntity
  8
Layer_1
 62
1
100
AcDbSpline
 70
8
 71
3
 72
8
 73
4
 74
0
 40
0
 40
0
 40
0
 40
0
 40
1
 40
1
 40
1
 40
1
 10
-797.885320
 20
-709.670500
 30
0.0
 10
-797.919067
 20
-710.752467
 30
0.0
 10
-797.512852
 20
-711.801914
 30
0.0
 10
-796.759440
 20
-712.579192
 30
0.0
  0
SPLINE
  5
131
100
AcDbEntity
  8
Layer_1
 62
1
100
AcDbSpline
 70
8
 71
3
 72
8
 73
4
 74
0
 40
0
 40
0
 40
0
 40
0
 40
1
 40
1
 40
1
 40
1
 10
-796.759440
 20
-712.579192
 30
0.0
 10
-796.006027
 20
-713.356469
 30
0.0
 10
-794.969753
 20
-713.795201
 30
0.0
 10
-793.887260
 20
-713.795200
 30
0.0
  0
LINE
  5
132
100
AcDbEntity
  8
Layer_1
 62
1
100
AcDbLine
 10
-793.887260
 20
-713.795200
 30
0.0
 11
-793.887260
 21
-697.920150
 31
0.0
  0
LINE
  5
133
100
AcDbEntity
  8
Layer_1
 62
1
100
AcDbLine
 10
-793.887260
 20
-697.920150
 30
0.0
 11
-790.717270
 21
-697.920150
 31
0.0
  0
SPLINE
  5
134
100
AcDbEntity
  8
Layer_1
 62
1
100
AcDbSpline
 70
8
 71
3
 72
8
 73
4
 74
0
 40
0
 40
0
 40
0
 40
0
 40
1
 40
1
 40
1
 40
1
 10
-790.717270
 20
-697.920150
 30
0.0
 10
-790.717270
 20
-697.920150
 30
0.0
 10
-790.717270
 20
-713.795200
 30
0.0
 10
-790.717270
 20
-713.795200
 30
0.0
  0
SPLINE
  5
135
100
AcDbEntity
  8
Layer_1
 62
1
100
AcDbSpline
 70
8
 71
3
 72
8
 73
4
 74
0
 40
0
 40
0
 40
0
 40
0
 40
1
 40
1
 40
1
 40
1
 10
-790.717270
 20
-713.795200
 30
0.0
 10
-789.634777
 20
-713.795201
 30
0.0
 10
-788.598503
 20
-713.356469
 30
0.0
 10
-787.845090
 20
-712.579192
 30
0.0
  0
SPLINE
  5
136
100
AcDbEntity
  8
Layer_1
 62
1
100
AcDbSpline
 70
8
 71
3
 72
8
 73
4
 74
0
 40
0
 40
0
 40
0
 40
0
 40
1
 40
1
 40
1
 40
1
 10
-787.845090
 20
-712.579192
 30
0.0
 10
-787.091678
 20
-711.801914
 30
0.0
 10
-786.685463
 20
-710.752467
 30
0.0
 10
-786.719210
 20
-709.670500
 30
0.0
  0
SPLINE
  5
137
100
AcDbEntity
  8
Layer_1
 62
1
100
AcDbSpline
 70
8
 71
3
 72
8
 73
4
 74
0
 40
0
 40
0
 40
0
 40
0
 40
1
 40
1
 40
1
 40
1
 10
-786.719210
 20
-709.670500
 30
0.0
 10
-786.840174
 20
-705.791265
 30
0.0
 10
-785.829827
 20
-701.960639
 30
0.0
 10
-783.811360
 20
-698.645690
 30
0.0
  0
SPLINE
  5
138
100
AcDbEntity
  8
Layer_1
 62
1
100
AcDbSpline
 70
8
 71
3
 72
8
 73
4
 74
0
 40
0
 40
0
 40
0
 40
0
 40
1
 40
1
 40
1
 40
1
 10
-783.811360
 20
-698.645690
 30
0.0
 10
-783.095778
 20
-697.470484
 30
0.0
 10
-782.717272
 20
-696.121074
 30
0.0
 10
-782.717270
 20
-694.745150
 30
0.0
  0
LINE
  5
139
100
AcDbEntity
  8
Layer_1
 62
1
100
AcDbLine
 10
-782.717270
 20
-694.745150
 30
0.0
 11
-782.717270
 21
-694.745150
 31
0.0
  0
LINE
  5
13a
100
AcDbEntity
  8
Layer_1
 62
1
100
AcDbLine
 10
-885.973521
 20
-715.197640
 30
0.0
 11
-882.803522
 21
-715.197640
 31
0.0
  0
LINE
  5
13b
100
AcDbEntity
  8
Layer_1
 62
1
100
AcDbLine
 10
-882.803522
 20
-715.197640
 30
0.0
 11
-882.803522
 21
-705.672640
 31
0.0
  0
LINE
  5
13c
100
AcDbEntity
  8
Layer_1
 62
1
100
AcDbLine
 10
-882.803522
 20
-705.672640
 30
0.0
 11
-879.633523
 21
-705.672640
 31
0.0
  0
LINE
  5
13d
100
AcDbEntity
  8
Layer_1
 62
1
100
AcDbLine
 10
-879.633523
 20
-705.672640
 30
0.0
 11
-879.633523
 21
-715.197640
 31
0.0
  0
LINE
  5
13e
100
AcDbEntity
  8
Layer_1
 62
1
100
AcDbLine
 10
-879.633523
 20
-715.197640
 30
0.0
 11
-876.463523
 21
-715.197640
 31
0.0
  0
LINE
  5
13f
100
AcDbEntity
  8
Layer_1
 62
1
100
AcDbLine
 10
-876.463523
 20
-715.197640
 30
0.0
 11
-876.463523
 21
-721.547640
 31
0.0
  0
LINE
  5
140
100
AcDbEntity
  8
Layer_1
 62
1
100
AcDbLine
 10
-876.463523
 20
-721.547640
 30
0.0
 11
-879.633523
 21
-721.547640
 31
0.0
  0
LINE
  5
141
100
AcDbEntity
  8
Layer_1
 62
1
100
AcDbLine
 10
-879.633523
 20
-721.547640
 30
0.0
 11
-879.633523
 21
-727.897640
 31
0.0
  0
SPLINE
  5
142
100
AcDbEntity
  8
Layer_1
 62
1
100
AcDbSpline
 70
8
 71
3
 72
8
 73
4
 74
0
 40
0
 40
0
 40
0
 40
0
 40
1
 40
1
 40
1
 40
1
 10
-879.633523
 20
-727.897640
 30
0.0
 10
-878.042222
 20
-727.897640
 30
0.0
 10
-876.516097
 20
-727.265498
 30
0.0
 10
-875.390878
 20
-726.140278
 30
0.0
  0
SPLINE
  5
143
100
AcDbEntity
  8
Layer_1
 62
1
100
AcDbSpline
 70
8
 71
3
 72
8
 73
4
 74
0
 40
0
 40
0
 40
0
 40
0
 40
1
 40
1
 40
1
 40
1
 10
-875.390878
 20
-726.140278
 30
0.0
 10
-874.265659
 20
-725.015057
 30
0.0
 10
-873.633519
 20
-723.488931
 30
0.0
 10
-873.633522
 20
-721.897630
 30
0.0
  0
SPLINE
  5
144
100
AcDbEntity
  8
Layer_1
 62
1
100
AcDbSpline
 70
8
 71
3
 72
8
 73
4
 74
0
 40
0
 40
0
 40
0
 40
0
 40
1
 40
1
 40
1
 40
1
 10
-873.633522
 20
-721.897630
 30
0.0
 10
-873.633521
 20
-715.893616
 30
0.0
 10
-873.016189
 20
-709.905513
 30
0.0
 10
-871.791267
 20
-704.027780
 30
0.0
  0
SPLINE
  5
145
100
AcDbEntity
  8
Layer_1
 62
1
100
AcDbSpline
 70
8
 71
3
 72
8
 73
4
 74
0
 40
0
 40
0
 40
0
 40
0
 40
1
 40
1
 40
1
 40
1
 10
-871.791267
 20
-704.027780
 30
0.0
 10
-871.686381
 20
-703.524488
 30
0.0
 10
-871.633522
 20
-703.011745
 30
0.0
 10
-871.633523
 20
-702.497640
 30
0.0
  0
SPLINE
  5
146
100
AcDbEntity
  8
Layer_1
 62
1
100
AcDbSpline
 70
8
 71
3
 72
8
 73
4
 74
0
 40
0
 40
0
 40
0
 40
0
 40
1
 40
1
 40
1
 40
1
 10
-871.633523
 20
-702.497640
 30
0.0
 10
-871.633523
 20
-702.497640
 30
0.0
 10
-871.633523
 20
-689.797640
 30
0.0
 10
-871.633523
 20
-689.797640
 30
0.0
  0
SPLINE
  5
147
100
AcDbEntity
  8
Layer_1
 62
1
100
AcDbSpline
 70
8
 71
3
 72
8
 73
4
 74
0
 40
0
 40
0
 40
0
 40
0
 40
1
 40
1
 40
1
 40
1
 10
-871.633523
 20
-689.797640
 30
0.0
 10
-871.633522
 20
-689.283535
 30
0.0
 10
-871.686381
 20
-688.770792
 30
0.0
 10
-871.791267
 20
-688.267500
 30
0.0
  0
SPLINE
  5
148
100
AcDbEntity
  8
Layer_1
 62
1
100
AcDbSpline
 70
8
 71
3
 72
8
 73
4
 74
0
 40
0
 40
0
 40
0
 40
0
 40
1
 40
1
 40
1
 40
1
 10
-871.791267
 20
-688.267500
 30
0.0
 10
-873.016189
 20
-682.389767
 30
0.0
 10
-873.633521
 20
-676.401664
 30
0.0
 10
-873.633522
 20
-670.397650
 30
0.0
  0
SPLINE
  5
149
100
AcDbEntity
  8
Layer_1
 62
1
100
AcDbSpline
 70
8
 71
3
 72
8
 73
4
 74
0
 40
0
 40
0
 40
0
 40
0
 40
1
 40
1
 40
1
 40
1
 10
-873.633522
 20
-670.397650
 30
0.0
 10
-873.633519
 20
-668.806349
 30
0.0
 10
-874.265659
 20
-667.280223
 30
0.0
 10
-875.390878
 20
-666.155002
 30
0.0
  0
SPLINE
  5
14a
100
AcDbEntity
  8
Layer_1
 62
1
100
AcDbSpline
 70
8
 71
3
 72
8
 73
4
 74
0
 40
0
 40
0
 40
0
 40
0
 40
1
 40
1
 40
1
 40
1
 10
-875.390878
 20
-666.155002
 30
0.0
 10
-876.516097
 20
-665.029782
 30
0.0
 10
-878.042222
 20
-664.397640
 30
0.0
 10
-879.633523
 20
-664.397640
 30
0.0
  0
LINE
  5
14b
100
AcDbEntity
  8
Layer_1
 62
1
100
AcDbLine
 10
-879.633523
 20
-664.397640
 30
0.0
 11
-879.633523
 21
-686.622640
 31
0.0
  0
LINE
  5
14c
100
AcDbEntity
  8
Layer_1
 62
1
100
AcDbLine
 10
-879.633523
 20
-686.622640
 30
0.0
 11
-882.803522
 21
-686.622640
 31
0.0
  0
LINE
  5
14d
100
AcDbEntity
  8
Layer_1
 62
1
100
AcDbLine
 10
-882.803522
 20
-686.622640
 30
0.0
 11
-882.803522
 21
-664.397640
 31
0.0
  0
SPLINE
  5
14e
100
AcDbEntity
  8
Layer_1
 62
1
100
AcDbSpline
 70
8
 71
3
 72
8
 73
4
 74
0
 40
0
 40
0
 40
0
 40
0
 40
1
 40
1
 40
1
 40
1
 10
-882.803522
 20
-664.397640
 30
0.0
 10
-884.394823
 20
-664.397640
 30
0.0
 10
-885.920948
 20
-665.029782
 30
0.0
 10
-887.046167
 20
-666.155002
 30
0.0
  0
SPLINE
  5
14f
100
AcDbEntity
  8
Layer_1
 62
1
100
AcDbSpline
 70
8
 71
3
 72
8
 73
4
 74
0
 40
0
 40
0
 40
0
 40
0
 40
1
 40
1
 40
1
 40
1
 10
-887.046167
 20
-666.155002
 30
0.0
 10
-888.171386
 20
-667.280223
 30
0.0
 10
-888.803526
 20
-668.806349
 30
0.0
 10
-888.803523
 20
-670.397650
 30
0.0
  0
SPLINE
  5
150
100
AcDbEntity
  8
Layer_1
 62
1
100
AcDbSpline
 70
8
 71
3
 72
8
 73
4
 74
0
 40
0
 40
0
 40
0
 40
0
 40
1
 40
1
 40
1
 40
1
 10
-888.803523
 20
-670.397650
 30
0.0
 10
-888.803524
 20
-676.401664
 30
0.0
 10
-889.420855
 20
-682.389767
 30
0.0
 10
-890.645777
 20
-688.267500
 30
0.0
  0
SPLINE
  5
151
100
AcDbEntity
  8
Layer_1
 62
1
100
AcDbSpline
 70
8
 71
3
 72
8
 73
4
 74
0
 40
0
 40
0
 40
0
 40
0
 40
1
 40
1
 40
1
 40
1
 10
-890.645777
 20
-688.267500
 30
0.0
 10
-890.750663
 20
-688.770792
 30
0.0
 10
-890.803523
 20
-689.283535
 30
0.0
 10
-890.803522
 20
-689.797640
 30
0.0
  0
SPLINE
  5
152
100
AcDbEntity
  8
Layer_1
 62
1
100
AcDbSpline
 70
8
 71
3
 72
8
 73
4
 74
0
 40
0
 40
0
 40
0
 40
0
 40
1
 40
1
 40
1
 40
1
 10
-890.803522
 20
-689.797640
 30
0.0
 10
-890.803522
 20
-689.797640
 30
0.0
 10
-890.803522
 20
-702.497640
 30
0.0
 10
-890.803522
 20
-702.497640
 30
0.0
  0
SPLINE
  5
153
100
AcDbEntity
  8
Layer_1
 62
1
100
AcDbSpline
 70
8
 71
3
 72
8
 73
4
 74
0
 40
0
 40
0
 40
0
 40
0
 40
1
 40
1
 40
1
 40
1
 10
-890.803522
 20
-702.497640
 30
0.0
 10
-890.803523
 20
-703.011745
 30
0.0
 10
-890.750663
 20
-703.524488
 30
0.0
 10
-890.645777
 20
-704.027780
 30
0.0
  0
SPLINE
  5
154
100
AcDbEntity
  8
Layer_1
 62
1
100
AcDbSpline
 70
8
 71
3
 72
8
 73
4
 74
0
 40
0
 40
0
 40
0
 40
0
 40
1
 40
1
 40
1
 40
1
 10
-890.645777
 20
-704.027780
 30
0.0
 10
-889.420855
 20
-709.905513
 30
0.0
 10
-888.803524
 20
-715.893616
 30
0.0
 10
-888.803523
 20
-721.897630
 30
0.0
  0
SPLINE
  5
155
100
AcDbEntity
  8
Layer_1
 62
1
100
AcDbSpline
 70
8
 71
3
 72
8
 73
4
 74
0
 40
0
 40
0
 40
0
 40
0
 40
1
 40
1
 40
1
 40
1
 10
-888.803523
 20
-721.897630
 30
0.0
 10
-888.803526
 20
-723.488931
 30
0.0
 10
-888.171386
 20
-725.015057
 30
0.0
 10
-887.046167
 20
-726.140278
 30
0.0
  0
SPLINE
  5
156
100
AcDbEntity
  8
Layer_1
 62
1
100
AcDbSpline
 70
8
 71
3
 72
8
 73
4
 74
0
 40
0
 40
0
 40
0
 40
0
 40
1
 40
1
 40
1
 40
1
 10
-887.046167
 20
-726.140278
 30
0.0
 10
-885.920948
 20
-727.265498
 30
0.0
 10
-884.394823
 20
-727.897640
 30
0.0
 10
-882.803522
 20
-727.897640
 30
0.0
  0
LINE
  5
157
100
AcDbEntity
  8
Layer_1
 62
1
100
AcDbLine
 10
-882.803522
 20
-727.897640
 30
0.0
 11
-882.803522
 21
-721.547640
 31
0.0
  0
LINE
  5
158
100
AcDbEntity
  8
Layer_1
 62
1
100
AcDbLine
 10
-882.803522
 20
-721.547640
 30
0.0
 11
-885.973521
 21
-721.547640
 31
0.0
  0
LINE
  5
159
100
AcDbEntity
  8
Layer_1
 62
1
100
AcDbLine
 10
-885.973521
 20
-721.547640
 30
0.0
 11
-885.973521
 21
-715.197640
 31
0.0
  0
LINE
  5
15a
100
AcDbEntity
  8
Layer_1
 62
1
100
AcDbLine
 10
-882.803522
 20
-702.497640
 30
0.0
 11
-885.973521
 21
-702.497640
 31
0.0
  0
LINE
  5
15b
100
AcDbEntity
  8
Layer_1
 62
1
100
AcDbLine
 10
-885.973521
 20
-702.497640
 30
0.0
 11
-885.973521
 21
-696.147640
 31
0.0
  0
LINE
  5
15c
100
AcDbEntity
  8
Layer_1
 62
1
100
AcDbLine
 10
-885.973521
 20
-696.147640
 30
0.0
 11
-882.803522
 21
-696.147640
 31
0.0
  0
LINE
  5
15d
100
AcDbEntity
  8
Layer_1
 62
1
100
AcDbLine
 10
-882.803522
 20
-696.147640
 30
0.0
 11
-882.803522
 21
-702.497640
 31
0.0
  0
LINE
  5
15e
100
AcDbEntity
  8
Layer_1
 62
1
100
AcDbLine
 10
-879.633523
 20
-702.497640
 30
0.0
 11
-879.633523
 21
-696.147640
 31
0.0
  0
LINE
  5
15f
100
AcDbEntity
  8
Layer_1
 62
1
100
AcDbLine
 10
-879.633523
 20
-696.147640
 30
0.0
 11
-876.463523
 21
-696.147640
 31
0.0
  0
LINE
  5
160
100
AcDbEntity
  8
Layer_1
 62
1
100
AcDbLine
 10
-876.463523
 20
-696.147640
 30
0.0
 11
-876.463523
 21
-702.497640
 31
0.0
  0
LINE
  5
161
100
AcDbEntity
  8
Layer_1
 62
1
100
AcDbLine
 10
-876.463523
 20
-702.497640
 30
0.0
 11
-879.633523
 21
-702.497640
 31
0.0
  0
LINE
  5
162
100
AcDbEntity
  8
Layer_1
 62
1
100
AcDbLine
 10
-479.949242
 20
-456.224430
 30
0.0
 11
-476.779242
 21
-456.224430
 31
0.0
  0
LINE
  5
163
100
AcDbEntity
  8
Layer_1
 62
1
100
AcDbLine
 10
-476.779242
 20
-456.224430
 30
0.0
 11
-476.779242
 21
-451.779430
 31
0.0
  0
LINE
  5
164
100
AcDbEntity
  8
Layer_1
 62
1
100
AcDbLine
 10
-476.779242
 20
-451.779430
 30
0.0
 11
-473.609241
 21
-451.779430
 31
0.0
  0
LINE
  5
165
100
AcDbEntity
  8
Layer_1
 62
1
100
AcDbLine
 10
-473.609241
 20
-451.779430
 30
0.0
 11
-473.609241
 21
-456.224430
 31
0.0
  0
LINE
  5
166
100
AcDbEntity
  8
Layer_1
 62
1
100
AcDbLine
 10
-473.609241
 20
-456.224430
 30
0.0
 11
-470.439241
 21
-456.224430
 31
0.0
  0
LINE
  5
167
100
AcDbEntity
  8
Layer_1
 62
1
100
AcDbLine
 10
-470.439241
 20
-456.224430
 30
0.0
 11
-470.439241
 21
-462.574430
 31
0.0
  0
LINE
  5
168
100
AcDbEntity
  8
Layer_1
 62
1
100
AcDbLine
 10
-470.439241
 20
-462.574430
 30
0.0
 11
-473.609241
 21
-462.574430
 31
0.0
  0
LINE
  5
169
100
AcDbEntity
  8
Layer_1
 62
1
100
AcDbLine
 10
-473.609241
 20
-462.574430
 30
0.0
 11
-473.609241
 21
-466.748650
 31
0.0
  0
LINE
  5
16a
100
AcDbEntity
  8
Layer_1
 62
1
100
AcDbLine
 10
-473.609241
 20
-466.748650
 30
0.0
 11
-470.439241
 21
-466.748650
 31
0.0
  0
SPLINE
  5
16b
100
AcDbEntity
  8
Layer_1
 62
1
100
AcDbSpline
 70
8
 71
3
 72
8
 73
4
 74
0
 40
0
 40
0
 40
0
 40
0
 40
1
 40
1
 40
1
 40
1
 10
-470.439241
 20
-466.748650
 30
0.0
 10
-468.679248
 20
-465.653453
 30
0.0
 10
-467.609243
 20
-463.727358
 30
0.0
 10
-467.609242
 20
-461.654430
 30
0.0
  0
SPLINE
  5
16c
100
AcDbEntity
  8
Layer_1
 62
1
100
AcDbSpline
 70
8
 71
3
 72
8
 73
4
 74
0
 40
0
 40
0
 40
0
 40
0
 40
1
 40
1
 40
1
 40
1
 10
-467.609242
 20
-461.654430
 30
0.0
 10
-467.609242
 20
-459.622866
 30
0.0
 10
-467.299709
 20
-457.603161
 30
0.0
 10
-466.691297
 20
-455.664840
 30
0.0
  0
SPLINE
  5
16d
100
AcDbEntity
  8
Layer_1
 62
1
100
AcDbSpline
 70
8
 71
3
 72
8
 73
4
 74
0
 40
0
 40
0
 40
0
 40
0
 40
1
 40
1
 40
1
 40
1
 10
-466.691297
 20
-455.664840
 30
0.0
 10
-465.974114
 20
-453.379986
 30
0.0
 10
-465.609241
 20
-450.999197
 30
0.0
 10
-465.609241
 20
-448.604430
 30
0.0
  0
SPLINE
  5
16e
100
AcDbEntity
  8
Layer_1
 62
1
100
AcDbSpline
 70
8
 71
3
 72
8
 73
4
 74
0
 40
0
 40
0
 40
0
 40
0
 40
1
 40
1
 40
1
 40
1
 10
-465.609241
 20
-448.604430
 30
0.0
 10
-465.609241
 20
-448.604430
 30
0.0
 10
-465.609241
 20
-435.904430
 30
0.0
 10
-465.609241
 20
-435.904430
 30
0.0
  0
SPLINE
  5
16f
100
AcDbEntity
  8
Layer_1
 62
1
100
AcDbSpline
 70
8
 71
3
 72
8
 73
4
 74
0
 40
0
 40
0
 40
0
 40
0
 40
1
 40
1
 40
1
 40
1
 10
-465.609241
 20
-435.904430
 30
0.0
 10
-465.609240
 20
-433.509659
 30
0.0
 10
-465.974113
 20
-431.128867
 30
0.0
 10
-466.691297
 20
-428.844010
 30
0.0
  0
SPLINE
  5
170
100
AcDbEntity
  8
Layer_1
 62
1
100
AcDbSpline
 70
8
 71
3
 72
8
 73
4
 74
0
 40
0
 40
0
 40
0
 40
0
 40
1
 40
1
 40
1
 40
1
 10
-466.691297
 20
-428.844010
 30
0.0
 10
-467.299708
 20
-426.905693
 30
0.0
 10
-467.609241
 20
-424.885990
 30
0.0
 10
-467.609242
 20
-422.854430
 30
0.0
  0
SPLINE
  5
171
100
AcDbEntity
  8
Layer_1
 62
1
100
AcDbSpline
 70
8
 71
3
 72
8
 73
4
 74
0
 40
0
 40
0
 40
0
 40
0
 40
1
 40
1
 40
1
 40
1
 10
-467.609242
 20
-422.854430
 30
0.0
 10
-467.609243
 20
-420.781502
 30
0.0
 10
-468.679248
 20
-418.855407
 30
0.0
 10
-470.439241
 20
-417.760210
 30
0.0
  0
LINE
  5
172
100
AcDbEntity
  8
Layer_1
 62
1
100
AcDbLine
 10
-470.439241
 20
-417.760210
 30
0.0
 11
-473.609241
 21
-417.760210
 31
0.0
  0
LINE
  5
173
100
AcDbEntity
  8
Layer_1
 62
1
100
AcDbLine
 10
-473.609241
 20
-417.760210
 30
0.0
 11
-473.609241
 21
-432.729430
 31
0.0
  0
LINE
  5
174
100
AcDbEntity
  8
Layer_1
 62
1
100
AcDbLine
 10
-473.609241
 20
-432.729430
 30
0.0
 11
-476.779242
 21
-432.729430
 31
0.0
  0
LINE
  5
175
100
AcDbEntity
  8
Layer_1
 62
1
100
AcDbLine
 10
-476.779242
 20
-432.729430
 30
0.0
 11
-476.779242
 21
-417.760210
 31
0.0
  0
SPLINE
  5
176
100
AcDbEntity
  8
Layer_1
 62
1
100
AcDbSpline
 70
8
 71
3
 72
8
 73
4
 74
0
 40
0
 40
0
 40
0
 40
0
 40
1
 40
1
 40
1
 40
1
 10
-476.779242
 20
-417.760210
 30
0.0
 10
-476.779242
 20
-417.760210
 30
0.0
 10
-479.949242
 20
-417.760210
 30
0.0
 10
-479.949242
 20
-417.760210
 30
0.0
  0
SPLINE
  5
177
100
AcDbEntity
  8
Layer_1
 62
1
100
AcDbSpline
 70
8
 71
3
 72
8
 73
4
 74
0
 40
0
 40
0
 40
0
 40
0
 40
1
 40
1
 40
1
 40
1
 10
-479.949242
 20
-417.760210
 30
0.0
 10
-481.709235
 20
-418.855407
 30
0.0
 10
-482.779240
 20
-420.781502
 30
0.0
 10
-482.779241
 20
-422.854430
 30
0.0
  0
SPLINE
  5
178
100
AcDbEntity
  8
Layer_1
 62
1
100
AcDbSpline
 70
8
 71
3
 72
8
 73
4
 74
0
 40
0
 40
0
 40
0
 40
0
 40
1
 40
1
 40
1
 40
1
 10
-482.779241
 20
-422.854430
 30
0.0
 10
-482.779242
 20
-424.885990
 30
0.0
 10
-483.088775
 20
-426.905693
 30
0.0
 10
-483.697186
 20
-428.844010
 30
0.0
  0
SPLINE
  5
179
100
AcDbEntity
  8
Layer_1
 62
1
100
AcDbSpline
 70
8
 71
3
 72
8
 73
4
 74
0
 40
0
 40
0
 40
0
 40
0
 40
1
 40
1
 40
1
 40
1
 10
-483.697186
 20
-428.844010
 30
0.0
 10
-484.414370
 20
-431.128867
 30
0.0
 10
-484.779243
 20
-433.509659
 30
0.0
 10
-484.779242
 20
-435.904430
 30
0.0
  0
SPLINE
  5
17a
100
AcDbEntity
  8
Layer_1
 62
1
100
AcDbSpline
 70
8
 71
3
 72
8
 73
4
 74
0
 40
0
 40
0
 40
0
 40
0
 40
1
 40
1
 40
1
 40
1
 10
-484.779242
 20
-435.904430
 30
0.0
 10
-484.779242
 20
-435.904430
 30
0.0
 10
-484.779242
 20
-448.604430
 30
0.0
 10
-484.779242
 20
-448.604430
 30
0.0
  0
SPLINE
  5
17b
100
AcDbEntity
  8
Layer_1
 62
1
100
AcDbSpline
 70
8
 71
3
 72
8
 73
4
 74
0
 40
0
 40
0
 40
0
 40
0
 40
1
 40
1
 40
1
 40
1
 10
-484.779242
 20
-448.604430
 30
0.0
 10
-484.779242
 20
-450.999197
 30
0.0
 10
-484.414369
 20
-453.379986
 30
0.0
 10
-483.697186
 20
-455.664840
 30
0.0
  0
SPLINE
  5
17c
100
AcDbEntity
  8
Layer_1
 62
1
100
AcDbSpline
 70
8
 71
3
 72
8
 73
4
 74
0
 40
0
 40
0
 40
0
 40
0
 40
1
 40
1
 40
1
 40
1
 10
-483.697186
 20
-455.664840
 30
0.0
 10
-483.088774
 20
-457.603161
 30
0.0
 10
-482.779241
 20
-459.622866
 30
0.0
 10
-482.779241
 20
-461.654430
 30
0.0
  0
SPLINE
  5
17d
100
AcDbEntity
  8
Layer_1
 62
1
100
AcDbSpline
 70
8
 71
3
 72
8
 73
4
 74
0
 40
0
 40
0
 40
0
 40
0
 40
1
 40
1
 40
1
 40
1
 10
-482.779241
 20
-461.654430
 30
0.0
 10
-482.779241
 20
-463.727358
 30
0.0
 10
-481.709235
 20
-465.653453
 30
0.0
 10
-479.949242
 20
-466.748650
 30
0.0
  0
LINE
  5
17e
100
AcDbEntity
  8
Layer_1
 62
1
100
AcDbLine
 10
-479.949242
 20
-466.748650
 30
0.0
 11
-476.779242
 21
-466.748650
 31
0.0
  0
LINE
  5
17f
100
AcDbEntity
  8
Layer_1
 62
1
100
AcDbLine
 10
-476.779242
 20
-466.748650
 30
0.0
 11
-476.779242
 21
-462.574430
 31
0.0
  0
LINE
  5
180
100
AcDbEntity
  8
Layer_1
 62
1
100
AcDbLine
 10
-476.779242
 20
-462.574430
 30
0.0
 11
-479.949242
 21
-462.574430
 31
0.0
  0
LINE
  5
181
100
AcDbEntity
  8
Layer_1
 62
1
100
AcDbLine
 10
-479.949242
 20
-462.574430
 30
0.0
 11
-479.949242
 21
-456.224430
 31
0.0
  0
LINE
  5
182
100
AcDbEntity
  8
Layer_1
 62
1
100
AcDbLine
 10
-476.779242
 20
-442.254430
 30
0.0
 11
-476.779242
 21
-448.604430
 31
0.0
  0
LINE
  5
183
100
AcDbEntity
  8
Layer_1
 62
1
100
AcDbLine
 10
-476.779242
 20
-448.604430
 30
0.0
 11
-479.949242
 21
-448.604430
 31
0.0
  0
LINE
  5
184
100
AcDbEntity
  8
Layer_1
 62
1
100
AcDbLine
 10
-479.949242
 20
-448.604430
 30
0.0
 11
-479.949242
 21
-442.254430
 31
0.0
  0
LINE
  5
185
100
AcDbEntity
  8
Layer_1
 62
1
100
AcDbLine
 10
-479.949242
 20
-442.254430
 30
0.0
 11
-476.779242
 21
-442.254430
 31
0.0
  0
LINE
  5
186
100
AcDbEntity
  8
Layer_1
 62
1
100
AcDbLine
 10
-473.609241
 20
-448.604430
 30
0.0
 11
-473.609241
 21
-442.254430
 31
0.0
  0
LINE
  5
187
100
AcDbEntity
  8
Layer_1
 62
1
100
AcDbLine
 10
-473.609241
 20
-442.254430
 30
0.0
 11
-470.439241
 21
-442.254430
 31
0.0
  0
LINE
  5
188
100
AcDbEntity
  8
Layer_1
 62
1
100
AcDbLine
 10
-470.439241
 20
-442.254430
 30
0.0
 11
-470.439241
 21
-448.604430
 31
0.0
  0
LINE
  5
189
100
AcDbEntity
  8
Layer_1
 62
1
100
AcDbLine
 10
-470.439241
 20
-448.604430
 30
0.0
 11
-473.609241
 21
-448.604430
 31
0.0
  0
LINE
  5
18a
100
AcDbEntity
  8
Layer_1
 62
1
100
AcDbLine
 10
-597.679930
 20
-744.125400
 30
0.0
 11
-623.966920
 21
-744.162400
 31
0.0
  0
LINE
  5
18b
100
AcDbEntity
  8
Layer_1
 62
1
100
AcDbLine
 10
-623.966920
 20
-744.162400
 30
0.0
 11
-623.966920
 21
-734.637400
 31
0.0
  0
LINE
  5
18c
100
AcDbEntity
  8
Layer_1
 62
1
100
AcDbLine
 10
-623.966920
 20
-734.637400
 30
0.0
 11
-627.141920
 21
-734.637400
 31
0.0
  0
LINE
  5
18d
100
AcDbEntity
  8
Layer_1
 62
1
100
AcDbLine
 10
-627.141920
 20
-734.637400
 30
0.0
 11
-627.141920
 21
-744.162400
 31
0.0
  0
LINE
  5
18e
100
AcDbEntity
  8
Layer_1
 62
1
100
AcDbLine
 10
-627.141920
 20
-744.162400
 30
0.0
 11
-656.224890
 21
-744.162400
 31
0.0
  0
LINE
  5
18f
100
AcDbEntity
  8
Layer_1
 62
1
100
AcDbLine
 10
-656.224890
 20
-744.162400
 30
0.0
 11
-656.224890
 21
-734.637400
 31
0.0
  0
LINE
  5
190
100
AcDbEntity
  8
Layer_1
 62
1
100
AcDbLine
 10
-656.224890
 20
-734.637400
 30
0.0
 11
-659.399890
 21
-734.637400
 31
0.0
  0
LINE
  5
191
100
AcDbEntity
  8
Layer_1
 62
1
100
AcDbLine
 10
-659.399890
 20
-734.637400
 30
0.0
 11
-659.399890
 21
-744.162400
 31
0.0
  0
LINE
  5
192
100
AcDbEntity
  8
Layer_1
 62
1
100
AcDbLine
 10
-659.399890
 20
-744.162400
 30
0.0
 11
-688.609890
 21
-744.162400
 31
0.0
  0
LINE
  5
193
100
AcDbEntity
  8
Layer_1
 62
1
100
AcDbLine
 10
-688.609890
 20
-744.162400
 30
0.0
 11
-688.609890
 21
-734.637400
 31
0.0
  0
LINE
  5
194
100
AcDbEntity
  8
Layer_1
 62
1
100
AcDbLine
 10
-688.609890
 20
-734.637400
 30
0.0
 11
-691.657890
 21
-734.637400
 31
0.0
  0
LINE
  5
195
100
AcDbEntity
  8
Layer_1
 62
1
100
AcDbLine
 10
-691.657890
 20
-734.637400
 30
0.0
 11
-691.657890
 21
-744.162400
 31
0.0
  0
LINE
  5
196
100
AcDbEntity
  8
Layer_1
 62
1
100
AcDbLine
 10
-691.657890
 20
-744.162400
 30
0.0
 11
-707.024890
 21
-744.162400
 31
0.0
  0
LINE
  5
197
100
AcDbEntity
  8
Layer_1
 62
1
100
AcDbLine
 10
-707.024890
 20
-744.162400
 30
0.0
 11
-707.024890
 21
-744.162400
 31
0.0
  0
LINE
  5
198
100
AcDbEntity
  8
Layer_1
 62
1
100
AcDbLine
 10
-707.024890
 20
-744.162400
 30
0.0
 11
-707.024890
 21
-744.162400
 31
0.0
  0
LINE
  5
199
100
AcDbEntity
  8
Layer_1
 62
1
100
AcDbLine
 10
-707.024890
 20
-744.162400
 30
0.0
 11
-707.024890
 21
-740.987400
 31
0.0
  0
LINE
  5
19a
100
AcDbEntity
  8
Layer_1
 62
1
100
AcDbLine
 10
-707.024890
 20
-740.987400
 30
0.0
 11
-721.629890
 21
-740.987400
 31
0.0
  0
SPLINE
  5
19b
100
AcDbEntity
  8
Layer_1
 62
1
100
AcDbSpline
 70
8
 71
3
 72
8
 73
4
 74
0
 40
0
 40
0
 40
0
 40
0
 40
1
 40
1
 40
1
 40
1
 10
-721.629890
 20
-740.987400
 30
0.0
 10
-704.412240
 20
-663.658640
 30
0.0
 10
-700.912200
 20
-588.750940
 30
0.0
 10
-700.674890
 20
-514.419320
 30
0.0
  0
LINE
  5
19c
100
AcDbEntity
  8
Layer_1
 62
1
100
AcDbLine
 10
-700.674890
 20
-514.419320
 30
0.0
 11
-693.308890
 21
-514.419320
 31
0.0
  0
LINE
  5
19d
100
AcDbEntity
  8
Layer_1
 62
1
100
AcDbLine
 10
-693.308890
 20
-514.419320
 30
0.0
 11
-685.815890
 21
-514.419300
 31
0.0
  0
LINE
  5
19e
100
AcDbEntity
  8
Layer_1
 62
1
100
AcDbLine
 10
-685.815890
 20
-514.419300
 30
0.0
 11
-685.815890
 21
-523.944300
 31
0.0
  0
LINE
  5
19f
100
AcDbEntity
  8
Layer_1
 62
1
100
AcDbLine
 10
-685.815890
 20
-523.944300
 30
0.0
 11
-682.640890
 21
-523.944300
 31
0.0
  0
LINE
  5
1a0
100
AcDbEntity
  8
Layer_1
 62
1
100
AcDbLine
 10
-682.640890
 20
-523.944300
 30
0.0
 11
-682.640890
 21
-514.419300
 31
0.0
  0
LINE
  5
1a1
100
AcDbEntity
  8
Layer_1
 62
1
100
AcDbLine
 10
-682.640890
 20
-514.419300
 30
0.0
 11
-669.432920
 21
-514.419300
 31
0.0
  0
LINE
  5
1a2
100
AcDbEntity
  8
Layer_1
 62
1
100
AcDbLine
 10
-669.432920
 20
-514.419300
 30
0.0
 11
-669.432920
 21
-523.944300
 31
0.0
  0
LINE
  5
1a3
100
AcDbEntity
  8
Layer_1
 62
1
100
AcDbLine
 10
-669.432920
 20
-523.944300
 30
0.0
 11
-666.257920
 21
-523.944300
 31
0.0
  0
LINE
  5
1a4
100
AcDbEntity
  8
Layer_1
 62
1
100
AcDbLine
 10
-666.257920
 20
-523.944300
 30
0.0
 11
-666.257920
 21
-514.419300
 31
0.0
  0
LINE
  5
1a5
100
AcDbEntity
  8
Layer_1
 62
1
100
AcDbLine
 10
-666.257920
 20
-514.419300
 30
0.0
 11
-652.207210
 21
-514.416300
 31
0.0
  0
SPLINE
  5
1a6
100
AcDbEntity
  8
Layer_1
 62
1
100
AcDbSpline
 70
8
 71
3
 72
8
 73
4
 74
0
 40
0
 40
0
 40
0
 40
0
 40
1
 40
1
 40
1
 40
1
 10
-652.207210
 20
-514.416300
 30
0.0
 10
-651.874850
 20
-531.890650
 30
0.0
 10
-651.735600
 20
-549.419560
 30
0.0
 10
-651.779890
 20
-566.997420
 30
0.0
  0
SPLINE
  5
1a7
100
AcDbEntity
  8
Layer_1
 62
1
100
AcDbSpline
 70
8
 71
3
 72
8
 73
4
 74
0
 40
0
 40
0
 40
0
 40
0
 40
1
 40
1
 40
1
 40
1
 10
-651.779890
 20
-566.997420
 30
0.0
 10
-653.787870
 20
-609.447650
 30
0.0
 10
-646.604830
 20
-630.029160
 30
0.0
 10
-639.863080
 20
-652.870480
 30
0.0
  0
SPLINE
  5
1a8
100
AcDbEntity
  8
Layer_1
 62
1
100
AcDbSpline
 70
8
 71
3
 72
8
 73
4
 74
0
 40
0
 40
0
 40
0
 40
0
 40
1
 40
1
 40
1
 40
1
 10
-639.863080
 20
-652.870480
 30
0.0
 10
-632.635830
 20
-677.356820
 30
0.0
 10
-621.596230
 20
-695.944750
 30
0.0
 10
-607.668590
 20
-725.175900
 30
0.0
  0
SPLINE
  5
1a9
100
AcDbEntity
  8
Layer_1
 62
1
100
AcDbSpline
 70
8
 71
3
 72
8
 73
4
 74
0
 40
0
 40
0
 40
0
 40
0
 40
1
 40
1
 40
1
 40
1
 10
-607.668590
 20
-725.175900
 30
0.0
 10
-604.744010
 20
-731.313900
 30
0.0
 10
-601.321050
 20
-737.640500
 30
0.0
 10
-597.679930
 20
-744.125100
 30
0.0
  0
LINE
  5
1aa
100
AcDbEntity
  8
Layer_1
 62
1
100
AcDbLine
 10
-1022.091700
 20
-532.088320
 30
0.0
 11
-1012.612400
 21
-532.988930
 31
0.0
  0
LINE
  5
1ab
100
AcDbEntity
  8
Layer_1
 62
1
100
AcDbLine
 10
-1012.612400
 20
-532.988930
 30
0.0
 11
-1012.312100
 21
-529.828170
 31
0.0
  0
LINE
  5
1ac
100
AcDbEntity
  8
Layer_1
 62
1
100
AcDbLine
 10
-1012.312100
 20
-529.828170
 30
0.0
 11
-1021.794400
 21
-528.927270
 31
0.0
  0
LINE
  5
1ad
100
AcDbEntity
  8
Layer_1
 62
1
100
AcDbLine
 10
-1021.794400
 20
-528.927270
 30
0.0
 11
-1020.545200
 21
-515.778510
 31
0.0
  0
LINE
  5
1ae
100
AcDbEntity
  8
Layer_1
 62
1
100
AcDbLine
 10
-1020.545200
 20
-515.778510
 30
0.0
 11
-1020.545200
 21
-515.778510
 31
0.0
  0
LINE
  5
1af
100
AcDbEntity
  8
Layer_1
 62
1
100
AcDbLine
 10
-1020.545200
 20
-515.778510
 30
0.0
 11
-1011.062900
 21
-516.679400
 31
0.0
  0
LINE
  5
1b0
100
AcDbEntity
  8
Layer_1
 62
1
100
AcDbLine
 10
-1011.062900
 20
-516.679400
 30
0.0
 11
-1010.762600
 21
-513.518640
 31
0.0
  0
LINE
  5
1b1
100
AcDbEntity
  8
Layer_1
 62
1
100
AcDbLine
 10
-1010.762600
 20
-513.518640
 30
0.0
 11
-1020.244900
 21
-512.617740
 31
0.0
  0
LINE
  5
1b2
100
AcDbEntity
  8
Layer_1
 62
1
100
AcDbLine
 10
-1020.244900
 20
-512.617740
 30
0.0
 11
-1019.536200
 21
-505.158330
 31
0.0
  0
LINE
  5
1b3
100
AcDbEntity
  8
Layer_1
 62
1
100
AcDbLine
 10
-1019.536200
 20
-505.158330
 30
0.0
 11
-1019.536200
 21
-505.158330
 31
0.0
  0
LINE
  5
1b4
100
AcDbEntity
  8
Layer_1
 62
1
100
AcDbLine
 10
-1019.536200
 20
-505.158330
 30
0.0
 11
-1016.375400
 21
-505.458630
 31
0.0
  0
LINE
  5
1b5
100
AcDbEntity
  8
Layer_1
 62
1
100
AcDbLine
 10
-1016.375400
 20
-505.458630
 30
0.0
 11
-1015.678700
 21
-498.125650
 31
0.0
  0
SPLINE
  5
1b6
100
AcDbEntity
  8
Layer_1
 62
1
100
AcDbSpline
 70
8
 71
3
 72
8
 73
4
 74
0
 40
0
 40
0
 40
0
 40
0
 40
1
 40
1
 40
1
 40
1
 10
-1015.678700
 20
-498.125650
 30
0.0
 10
-936.097780
 20
-503.392560
 30
0.0
 10
-856.531420
 20
-505.721840
 30
0.0
 10
-777.000370
 20
-500.900840
 30
0.0
  0
LINE
  5
1b7
100
AcDbEntity
  8
Layer_1
 62
1
100
AcDbLine
 10
-777.000370
 20
-500.900840
 30
0.0
 11
-712.945130
 21
-546.406340
 31
0.0
  0
SPLINE
  5
1b8
100
AcDbEntity
  8
Layer_1
 62
1
100
AcDbSpline
 70
8
 71
3
 72
8
 73
4
 74
0
 40
0
 40
0
 40
0
 40
0
 40
1
 40
1
 40
1
 40
1
 10
-712.945130
 20
-546.406340
 30
0.0
 10
-815.004220
 20
-554.847230
 30
0.0
 10
-918.614130
 20
-554.025780
 30
0.0
 10
-1023.417600
 20
-546.076270
 30
0.0
  0
LINE
  5
1b9
100
AcDbEntity
  8
Layer_1
 62
1
100
AcDbLine
 10
-1023.417600
 20
-546.076270
 30
0.0
 11
-1022.091700
 21
-532.088320
 31
0.0
  0
LINE
  5
1ba
100
AcDbEntity
  8
Layer_1
 62
1
100
AcDbLine
 10
-450.861650
 20
-417.264870
 30
0.0
 11
-438.161650
 21
-417.264870
 31
0.0
  0
LINE
  5
1bb
100
AcDbEntity
  8
Layer_1
 62
1
100
AcDbLine
 10
-438.161650
 20
-417.264870
 30
0.0
 11
-438.161650
 21
-414.094870
 31
0.0
  0
LINE
  5
1bc
100
AcDbEntity
  8
Layer_1
 62
1
100
AcDbLine
 10
-438.161650
 20
-414.094870
 30
0.0
 11
-431.811650
 21
-414.094870
 31
0.0
  0
LINE
  5
1bd
100
AcDbEntity
  8
Layer_1
 62
1
100
AcDbLine
 10
-431.811650
 20
-414.094870
 30
0.0
 11
-431.811650
 21
-366.464870
 31
0.0
  0
LINE
  5
1be
100
AcDbEntity
  8
Layer_1
 62
1
100
AcDbLine
 10
-431.811650
 20
-366.464870
 30
0.0
 11
-438.161650
 21
-366.464870
 31
0.0
  0
LINE
  5
1bf
100
AcDbEntity
  8
Layer_1
 62
1
100
AcDbLine
 10
-438.161650
 20
-366.464870
 30
0.0
 11
-438.161650
 21
-363.294870
 31
0.0
  0
LINE
  5
1c0
100
AcDbEntity
  8
Layer_1
 62
1
100
AcDbLine
 10
-438.161650
 20
-363.294870
 30
0.0
 11
-450.861650
 21
-363.294870
 31
0.0
  0
LINE
  5
1c1
100
AcDbEntity
  8
Layer_1
 62
1
100
AcDbLine
 10
-450.861650
 20
-363.294870
 30
0.0
 11
-450.861650
 21
-366.464870
 31
0.0
  0
LINE
  5
1c2
100
AcDbEntity
  8
Layer_1
 62
1
100
AcDbLine
 10
-450.861650
 20
-366.464870
 30
0.0
 11
-460.911630
 21
-366.464870
 31
0.0
  0
LINE
  5
1c3
100
AcDbEntity
  8
Layer_1
 62
1
100
AcDbLine
 10
-460.911630
 20
-366.464870
 30
0.0
 11
-460.911630
 21
-408.292500
 31
0.0
  0
LINE
  5
1c4
100
AcDbEntity
  8
Layer_1
 62
1
100
AcDbLine
 10
-460.911630
 20
-408.292500
 30
0.0
 11
-450.861650
 21
-414.094870
 31
0.0
  0
LINE
  5
1c5
100
AcDbEntity
  8
Layer_1
 62
1
100
AcDbLine
 10
-450.861650
 20
-414.094870
 30
0.0
 11
-450.861650
 21
-417.264870
 31
0.0
  0
LINE
  5
1c6
100
AcDbEntity
  8
Layer_1
 62
1
100
AcDbLine
 10
-452.999800
 20
-356.327420
 30
0.0
 11
-440.299800
 21
-356.327420
 31
0.0
  0
LINE
  5
1c7
100
AcDbEntity
  8
Layer_1
 62
1
100
AcDbLine
 10
-440.299800
 20
-356.327420
 30
0.0
 11
-440.299800
 21
-353.157420
 31
0.0
  0
LINE
  5
1c8
100
AcDbEntity
  8
Layer_1
 62
1
100
AcDbLine
 10
-440.299800
 20
-353.157420
 30
0.0
 11
-433.949800
 21
-353.157420
 31
0.0
  0
LINE
  5
1c9
100
AcDbEntity
  8
Layer_1
 62
1
100
AcDbLine
 10
-433.949800
 20
-353.157420
 30
0.0
 11
-433.949800
 21
-305.527420
 31
0.0
  0
LINE
  5
1ca
100
AcDbEntity
  8
Layer_1
 62
1
100
AcDbLine
 10
-433.949800
 20
-305.527420
 30
0.0
 11
-440.299800
 21
-305.527420
 31
0.0
  0
LINE
  5
1cb
100
AcDbEntity
  8
Layer_1
 62
1
100
AcDbLine
 10
-440.299800
 20
-305.527420
 30
0.0
 11
-440.299800
 21
-302.357420
 31
0.0
  0
LINE
  5
1cc
100
AcDbEntity
  8
Layer_1
 62
1
100
AcDbLine
 10
-440.299800
 20
-302.357420
 30
0.0
 11
-452.999800
 21
-302.357420
 31
0.0
  0
LINE
  5
1cd
100
AcDbEntity
  8
Layer_1
 62
1
100
AcDbLine
 10
-452.999800
 20
-302.357420
 30
0.0
 11
-452.999800
 21
-305.527420
 31
0.0
  0
LINE
  5
1ce
100
AcDbEntity
  8
Layer_1
 62
1
100
AcDbLine
 10
-452.999800
 20
-305.527420
 30
0.0
 11
-463.049780
 21
-305.527420
 31
0.0
  0
LINE
  5
1cf
100
AcDbEntity
  8
Layer_1
 62
1
100
AcDbLine
 10
-463.049780
 20
-305.527420
 30
0.0
 11
-463.049780
 21
-347.355050
 31
0.0
  0
LINE
  5
1d0
100
AcDbEntity
  8
Layer_1
 62
1
100
AcDbLine
 10
-463.049780
 20
-347.355050
 30
0.0
 11
-452.999800
 21
-353.157420
 31
0.0
  0
LINE
  5
1d1
100
AcDbEntity
  8
Layer_1
 62
1
100
AcDbLine
 10
-452.999800
 20
-353.157420
 30
0.0
 11
-452.999800
 21
-356.327420
 31
0.0
  0
SPLINE
  5
1d2
100
AcDbEntity
  8
Layer_1
 62
1
100
AcDbSpline
 70
8
 71
3
 72
8
 73
4
 74
0
 40
0
 40
0
 40
0
 40
0
 40
1
 40
1
 40
1
 40
1
 10
-455.305657
 20
-494.028777
 30
0.0
 10
-456.854660
 20
-500.409072
 30
0.0
 10
-458.521588
 20
-506.760156
 30
0.0
 10
-460.305620
 20
-513.078777
 30
0.0
  0
LINE
  5
1d3
100
AcDbEntity
  8
Layer_1
 62
1
100
AcDbLine
 10
-460.305620
 20
-513.078777
 30
0.0
 11
-447.605621
 21
-513.078777
 31
0.0
  0
SPLINE
  5
1d4
100
AcDbEntity
  8
Layer_1
 62
1
100
AcDbSpline
 70
8
 71
3
 72
8
 73
4
 74
0
 40
0
 40
0
 40
0
 40
0
 40
1
 40
1
 40
1
 40
1
 10
-447.605621
 20
-513.078777
 30
0.0
 10
-443.554003
 20
-513.078777
 30
0.0
 10
-439.578004
 20
-514.175951
 30
0.0
 10
-436.099765
 20
-516.253777
 30
0.0
  0
SPLINE
  5
1d5
100
AcDbEntity
  8
Layer_1
 62
1
100
AcDbSpline
 70
8
 71
3
 72
8
 73
4
 74
0
 40
0
 40
0
 40
0
 40
0
 40
1
 40
1
 40
1
 40
1
 10
-436.099765
 20
-516.253777
 30
0.0
 10
-432.621526
 20
-518.331629
 30
0.0
 10
-428.645500
 20
-519.428777
 30
0.0
 10
-424.593882
 20
-519.428777
 30
0.0
  0
LINE
  5
1d6
100
AcDbEntity
  8
Layer_1
 62
1
100
AcDbLine
 10
-424.593882
 20
-519.428777
 30
0.0
 11
-421.423883
 21
-519.428777
 31
0.0
  0
LINE
  5
1d7
100
AcDbEntity
  8
Layer_1
 62
1
100
AcDbLine
 10
-421.423883
 20
-519.428777
 30
0.0
 11
-421.423883
 21
-513.078777
 31
0.0
  0
LINE
  5
1d8
100
AcDbEntity
  8
Layer_1
 62
1
100
AcDbLine
 10
-421.423883
 20
-513.078777
 30
0.0
 11
-424.593882
 21
-513.078777
 31
0.0
  0
LINE
  5
1d9
100
AcDbEntity
  8
Layer_1
 62
1
100
AcDbLine
 10
-424.593882
 20
-513.078777
 30
0.0
 11
-424.593882
 21
-500.378777
 31
0.0
  0
LINE
  5
1da
100
AcDbEntity
  8
Layer_1
 62
1
100
AcDbLine
 10
-424.593882
 20
-500.378777
 30
0.0
 11
-421.423883
 21
-500.378777
 31
0.0
  0
LINE
  5
1db
100
AcDbEntity
  8
Layer_1
 62
1
100
AcDbLine
 10
-421.423883
 20
-500.378777
 30
0.0
 11
-421.423883
 21
-494.028777
 31
0.0
  0
LINE
  5
1dc
100
AcDbEntity
  8
Layer_1
 62
1
100
AcDbLine
 10
-421.423883
 20
-494.028777
 30
0.0
 11
-421.423883
 21
-494.028777
 31
0.0
  0
LINE
  5
1dd
100
AcDbEntity
  8
Layer_1
 62
1
100
AcDbLine
 10
-421.423883
 20
-494.028777
 30
0.0
 11
-451.362519
 21
-494.028777
 31
0.0
  0
LINE
  5
1de
100
AcDbEntity
  8
Layer_1
 62
1
100
AcDbLine
 10
-451.362519
 20
-494.028777
 30
0.0
 11
-454.532518
 21
-494.028777
 31
0.0
  0
LINE
  5
1df
100
AcDbEntity
  8
Layer_1
 62
1
100
AcDbLine
 10
-454.532518
 20
-494.028777
 30
0.0
 11
-455.305657
 21
-494.028777
 31
0.0
  0
LINE
  5
1e0
100
AcDbEntity
  8
Layer_1
 62
1
100
AcDbLine
 10
-477.208156
 20
-490.047062
 30
0.0
 11
-471.626956
 21
-490.047062
 31
0.0
  0
SPLINE
  5
1e1
100
AcDbEntity
  8
Layer_1
 62
1
100
AcDbSpline
 70
8
 71
3
 72
8
 73
4
 74
0
 40
0
 40
0
 40
0
 40
0
 40
1
 40
1
 40
1
 40
1
 10
-471.626956
 20
-490.047062
 30
0.0
 10
-469.852792
 20
-490.047062
 30
0.0
 10
-468.170625
 20
-490.836420
 30
0.0
 10
-467.036806
 20
-492.201009
 30
0.0
  0
SPLINE
  5
1e2
100
AcDbEntity
  8
Layer_1
 62
1
100
AcDbSpline
 70
8
 71
3
 72
8
 73
4
 74
0
 40
0
 40
0
 40
0
 40
0
 40
1
 40
1
 40
1
 40
1
 10
-467.036806
 20
-492.201009
 30
0.0
 10
-465.902987
 20
-493.565597
 30
0.0
 10
-464.220819
 20
-494.354955
 30
0.0
 10
-462.446655
 20
-494.354955
 30
0.0
  0
LINE
  5
1e3
100
AcDbEntity
  8
Layer_1
 62
1
100
AcDbLine
 10
-462.446655
 20
-494.354955
 30
0.0
 11
-459.276656
 21
-494.354955
 31
0.0
  0
LINE
  5
1e4
100
AcDbEntity
  8
Layer_1
 62
1
100
AcDbLine
 10
-459.276656
 20
-494.354955
 30
0.0
 11
-459.276656
 21
-488.004955
 31
0.0
  0
LINE
  5
1e5
100
AcDbEntity
  8
Layer_1
 62
1
100
AcDbLine
 10
-459.276656
 20
-488.004955
 30
0.0
 11
-462.446655
 21
-488.004955
 31
0.0
  0
LINE
  5
1e6
100
AcDbEntity
  8
Layer_1
 62
1
100
AcDbLine
 10
-462.446655
 20
-488.004955
 30
0.0
 11
-462.446655
 21
-480.384955
 31
0.0
  0
LINE
  5
1e7
100
AcDbEntity
  8
Layer_1
 62
1
100
AcDbLine
 10
-462.446655
 20
-480.384955
 30
0.0
 11
-459.276656
 21
-480.384955
 31
0.0
  0
LINE
  5
1e8
100
AcDbEntity
  8
Layer_1
 62
1
100
AcDbLine
 10
-459.276656
 20
-480.384955
 30
0.0
 11
-459.276656
 21
-474.034850
 31
0.0
  0
LINE
  5
1e9
100
AcDbEntity
  8
Layer_1
 62
1
100
AcDbLine
 10
-459.276656
 20
-474.034850
 30
0.0
 11
-459.276656
 21
-474.034850
 31
0.0
  0
LINE
  5
1ea
100
AcDbEntity
  8
Layer_1
 62
1
100
AcDbLine
 10
-459.276656
 20
-474.034850
 30
0.0
 11
-462.446655
 21
-474.034850
 31
0.0
  0
LINE
  5
1eb
100
AcDbEntity
  8
Layer_1
 62
1
100
AcDbLine
 10
-462.446655
 20
-474.034850
 30
0.0
 11
-474.125258
 21
-474.047021
 31
0.0
  0
LINE
  5
1ec
100
AcDbEntity
  8
Layer_1
 62
1
100
AcDbLine
 10
-474.125258
 20
-474.047021
 30
0.0
 11
-477.295257
 21
-474.047021
 31
0.0
  0
SPLINE
  5
1ed
100
AcDbEntity
  8
Layer_1
 62
1
100
AcDbSpline
 70
8
 71
3
 72
8
 73
4
 74
0
 40
0
 40
0
 40
0
 40
0
 40
1
 40
1
 40
1
 40
1
 10
-477.295257
 20
-474.047021
 30
0.0
 10
-477.235567
 20
-479.380147
 30
0.0
 10
-477.206516
 20
-484.713565
 30
0.0
 10
-477.208156
 20
-490.047009
 30
0.0
  0
LINE
  5
1ee
100
AcDbEntity
  8
Layer_1
 62
1
100
AcDbLine
 10
-477.208156
 20
-490.047009
 30
0.0
 11
-477.208156
 21
-490.047062
 31
0.0
  0
LINE
  5
1ef
100
AcDbEntity
  8
Layer_1
 62
1
100
AcDbLine
 10
-1022.091700
 20
-584.473150
 30
0.0
 11
-1012.612400
 21
-585.373760
 31
0.0
  0
LINE
  5
1f0
100
AcDbEntity
  8
Layer_1
 62
1
100
AcDbLine
 10
-1012.612400
 20
-585.373760
 30
0.0
 11
-1012.312100
 21
-582.213000
 31
0.0
  0
LINE
  5
1f1
100
AcDbEntity
  8
Layer_1
 62
1
100
AcDbLine
 10
-1012.312100
 20
-582.213000
 30
0.0
 11
-1021.794400
 21
-581.312100
 31
0.0
  0
LINE
  5
1f2
100
AcDbEntity
  8
Layer_1
 62
1
100
AcDbLine
 10
-1021.794400
 20
-581.312100
 30
0.0
 11
-1020.545200
 21
-568.163330
 31
0.0
  0
LINE
  5
1f3
100
AcDbEntity
  8
Layer_1
 62
1
100
AcDbLine
 10
-1020.545200
 20
-568.163330
 30
0.0
 11
-1020.545200
 21
-568.163330
 31
0.0
  0
LINE
  5
1f4
100
AcDbEntity
  8
Layer_1
 62
1
100
AcDbLine
 10
-1020.545200
 20
-568.163330
 30
0.0
 11
-1011.062900
 21
-569.064230
 31
0.0
  0
LINE
  5
1f5
100
AcDbEntity
  8
Layer_1
 62
1
100
AcDbLine
 10
-1011.062900
 20
-569.064230
 30
0.0
 11
-1010.762600
 21
-565.903460
 31
0.0
  0
LINE
  5
1f6
100
AcDbEntity
  8
Layer_1
 62
1
100
AcDbLine
 10
-1010.762600
 20
-565.903460
 30
0.0
 11
-1020.244900
 21
-565.002570
 31
0.0
  0
LINE
  5
1f7
100
AcDbEntity
  8
Layer_1
 62
1
100
AcDbLine
 10
-1020.244900
 20
-565.002570
 30
0.0
 11
-1019.536200
 21
-557.543160
 31
0.0
  0
LINE
  5
1f8
100
AcDbEntity
  8
Layer_1
 62
1
100
AcDbLine
 10
-1019.536200
 20
-557.543160
 30
0.0
 11
-1019.536200
 21
-557.543160
 31
0.0
  0
LINE
  5
1f9
100
AcDbEntity
  8
Layer_1
 62
1
100
AcDbLine
 10
-1019.536200
 20
-557.543160
 30
0.0
 11
-1016.375400
 21
-557.843460
 31
0.0
  0
LINE
  5
1fa
100
AcDbEntity
  8
Layer_1
 62
1
100
AcDbLine
 10
-1016.375400
 20
-557.843460
 30
0.0
 11
-1015.678700
 21
-550.510480
 31
0.0
  0
SPLINE
  5
1fb
100
AcDbEntity
  8
Layer_1
 62
1
100
AcDbSpline
 70
8
 71
3
 72
8
 73
4
 74
0
 40
0
 40
0
 40
0
 40
0
 40
1
 40
1
 40
1
 40
1
 10
-1015.678700
 20
-550.510480
 30
0.0
 10
-936.097780
 20
-555.777390
 30
0.0
 10
-856.531420
 20
-558.106670
 30
0.0
 10
-777.000370
 20
-553.285670
 30
0.0
  0
LINE
  5
1fc
100
AcDbEntity
  8
Layer_1
 62
1
100
AcDbLine
 10
-777.000370
 20
-553.285670
 30
0.0
 11
-712.945130
 21
-598.791160
 31
0.0
  0
SPLINE
  5
1fd
100
AcDbEntity
  8
Layer_1
 62
1
100
AcDbSpline
 70
8
 71
3
 72
8
 73
4
 74
0
 40
0
 40
0
 40
0
 40
0
 40
1
 40
1
 40
1
 40
1
 10
-712.945130
 20
-598.791160
 30
0.0
 10
-815.004220
 20
-607.232060
 30
0.0
 10
-918.614130
 20
-606.410600
 30
0.0
 10
-1023.417600
 20
-598.461100
 30
0.0
  0
LINE
  5
1fe
100
AcDbEntity
  8
Layer_1
 62
1
100
AcDbLine
 10
-1023.417600
 20
-598.461100
 30
0.0
 11
-1022.091700
 21
-584.473150
 31
0.0
  0
LINE
  5
1ff
100
AcDbEntity
  8
Layer_1
 62
1
100
AcDbLine
 10
-1022.091700
 20
-636.857980
 30
0.0
 11
-1012.612400
 21
-637.758590
 31
0.0
  0
LINE
  5
200
100
AcDbEntity
  8
Layer_1
 62
1
100
AcDbLine
 10
-1012.612400
 20
-637.758590
 30
0.0
 11
-1012.312100
 21
-634.597820
 31
0.0
  0
LINE
  5
201
100
AcDbEntity
  8
Layer_1
 62
1
100
AcDbLine
 10
-1012.312100
 20
-634.597820
 30
0.0
 11
-1021.794400
 21
-633.696930
 31
0.0
  0
LINE
  5
202
100
AcDbEntity
  8
Layer_1
 62
1
100
AcDbLine
 10
-1021.794400
 20
-633.696930
 30
0.0
 11
-1020.545200
 21
-620.548160
 31
0.0
  0
LINE
  5
203
100
AcDbEntity
  8
Layer_1
 62
1
100
AcDbLine
 10
-1020.545200
 20
-620.548160
 30
0.0
 11
-1020.545200
 21
-620.548160
 31
0.0
  0
LINE
  5
204
100
AcDbEntity
  8
Layer_1
 62
1
100
AcDbLine
 10
-1020.545200
 20
-620.548160
 30
0.0
 11
-1011.062900
 21
-621.449060
 31
0.0
  0
LINE
  5
205
100
AcDbEntity
  8
Layer_1
 62
1
100
AcDbLine
 10
-1011.062900
 20
-621.449060
 30
0.0
 11
-1010.762600
 21
-618.288290
 31
0.0
  0
LINE
  5
206
100
AcDbEntity
  8
Layer_1
 62
1
100
AcDbLine
 10
-1010.762600
 20
-618.288290
 30
0.0
 11
-1020.244900
 21
-617.387390
 31
0.0
  0
LINE
  5
207
100
AcDbEntity
  8
Layer_1
 62
1
100
AcDbLine
 10
-1020.244900
 20
-617.387390
 30
0.0
 11
-1019.536200
 21
-609.927990
 31
0.0
  0
LINE
  5
208
100
AcDbEntity
  8
Layer_1
 62
1
100
AcDbLine
 10
-1019.536200
 20
-609.927990
 30
0.0
 11
-1019.536200
 21
-609.927990
 31
0.0
  0
LINE
  5
209
100
AcDbEntity
  8
Layer_1
 62
1
100
AcDbLine
 10
-1019.536200
 20
-609.927990
 30
0.0
 11
-1016.375400
 21
-610.228280
 31
0.0
  0
LINE
  5
20a
100
AcDbEntity
  8
Layer_1
 62
1
100
AcDbLine
 10
-1016.375400
 20
-610.228280
 30
0.0
 11
-1015.678700
 21
-602.895310
 31
0.0
  0
SPLINE
  5
20b
100
AcDbEntity
  8
Layer_1
 62
1
100
AcDbSpline
 70
8
 71
3
 72
8
 73
4
 74
0
 40
0
 40
0
 40
0
 40
0
 40
1
 40
1
 40
1
 40
1
 10
-1015.678700
 20
-602.895310
 30
0.0
 10
-936.097780
 20
-608.162210
 30
0.0
 10
-856.531420
 20
-610.491500
 30
0.0
 10
-777.000370
 20
-605.670500
 30
0.0
  0
LINE
  5
20c
100
AcDbEntity
  8
Layer_1
 62
1
100
AcDbLine
 10
-777.000370
 20
-605.670500
 30
0.0
 11
-712.945130
 21
-651.175990
 31
0.0
  0
SPLINE
  5
20d
100
AcDbEntity
  8
Layer_1
 62
1
100
AcDbSpline
 70
8
 71
3
 72
8
 73
4
 74
0
 40
0
 40
0
 40
0
 40
0
 40
1
 40
1
 40
1
 40
1
 10
-712.945130
 20
-651.175990
 30
0.0
 10
-815.004220
 20
-659.616890
 30
0.0
 10
-918.614130
 20
-658.795430
 30
0.0
 10
-1023.417600
 20
-650.845930
 30
0.0
  0
LINE
  5
20e
100
AcDbEntity
  8
Layer_1
 62
1
100
AcDbLine
 10
-1023.417600
 20
-650.845930
 30
0.0
 11
-1022.091700
 21
-636.857980
 31
0.0
  0
LINE
  5
20f
100
AcDbEntity
  8
Layer_1
 62
1
100
AcDbLine
 10
-652.674350
 20
-500.556090
 30
0.0
 11
-626.387360
 21
-500.518690
 31
0.0
  0
LINE
  5
210
100
AcDbEntity
  8
Layer_1
 62
1
100
AcDbLine
 10
-626.387360
 20
-500.518690
 30
0.0
 11
-626.387360
 21
-510.043720
 31
0.0
  0
LINE
  5
211
100
AcDbEntity
  8
Layer_1
 62
1
100
AcDbLine
 10
-626.387360
 20
-510.043720
 30
0.0
 11
-623.212360
 21
-510.043720
 31
0.0
  0
LINE
  5
212
100
AcDbEntity
  8
Layer_1
 62
1
100
AcDbLine
 10
-623.212360
 20
-510.043720
 30
0.0
 11
-623.212360
 21
-500.518720
 31
0.0
  0
LINE
  5
213
100
AcDbEntity
  8
Layer_1
 62
1
100
AcDbLine
 10
-623.212360
 20
-500.518720
 30
0.0
 11
-594.129390
 21
-500.518720
 31
0.0
  0
LINE
  5
214
100
AcDbEntity
  8
Layer_1
 62
1
100
AcDbLine
 10
-594.129390
 20
-500.518720
 30
0.0
 11
-594.129390
 21
-510.043720
 31
0.0
  0
LINE
  5
215
100
AcDbEntity
  8
Layer_1
 62
1
100
AcDbLine
 10
-594.129390
 20
-510.043720
 30
0.0
 11
-590.954390
 21
-510.043720
 31
0.0
  0
LINE
  5
216
100
AcDbEntity
  8
Layer_1
 62
1
100
AcDbLine
 10
-590.954390
 20
-510.043720
 30
0.0
 11
-590.954390
 21
-500.518720
 31
0.0
  0
LINE
  5
217
100
AcDbEntity
  8
Layer_1
 62
1
100
AcDbLine
 10
-590.954390
 20
-500.518720
 30
0.0
 11
-561.744390
 21
-500.518720
 31
0.0
  0
LINE
  5
218
100
AcDbEntity
  8
Layer_1
 62
1
100
AcDbLine
 10
-561.744390
 20
-500.518720
 30
0.0
 11
-561.744390
 21
-510.043720
 31
0.0
  0
LINE
  5
219
100
AcDbEntity
  8
Layer_1
 62
1
100
AcDbLine
 10
-561.744390
 20
-510.043720
 30
0.0
 11
-558.696390
 21
-510.043720
 31
0.0
  0
LINE
  5
21a
100
AcDbEntity
  8
Layer_1
 62
1
100
AcDbLine
 10
-558.696390
 20
-510.043720
 30
0.0
 11
-558.696390
 21
-500.518720
 31
0.0
  0
LINE
  5
21b
100
AcDbEntity
  8
Layer_1
 62
1
100
AcDbLine
 10
-558.696390
 20
-500.518720
 30
0.0
 11
-543.329390
 21
-500.518720
 31
0.0
  0
LINE
  5
21c
100
AcDbEntity
  8
Layer_1
 62
1
100
AcDbLine
 10
-543.329390
 20
-500.518720
 30
0.0
 11
-543.329390
 21
-500.518720
 31
0.0
  0
LINE
  5
21d
100
AcDbEntity
  8
Layer_1
 62
1
100
AcDbLine
 10
-543.329390
 20
-500.518720
 30
0.0
 11
-543.329390
 21
-500.518720
 31
0.0
  0
LINE
  5
21e
100
AcDbEntity
  8
Layer_1
 62
1
100
AcDbLine
 10
-543.329390
 20
-500.518720
 30
0.0
 11
-543.329390
 21
-503.693720
 31
0.0
  0
LINE
  5
21f
100
AcDbEntity
  8
Layer_1
 62
1
100
AcDbLine
 10
-543.329390
 20
-503.693720
 30
0.0
 11
-528.724390
 21
-503.693720
 31
0.0
  0
SPLINE
  5
220
100
AcDbEntity
  8
Layer_1
 62
1
100
AcDbSpline
 70
8
 71
3
 72
8
 73
4
 74
0
 40
0
 40
0
 40
0
 40
0
 40
1
 40
1
 40
1
 40
1
 10
-528.724390
 20
-503.693720
 30
0.0
 10
-545.942040
 20
-581.022470
 30
0.0
 10
-549.442080
 20
-655.930180
 30
0.0
 10
-549.679390
 20
-730.261800
 30
0.0
  0
LINE
  5
221
100
AcDbEntity
  8
Layer_1
 62
1
100
AcDbLine
 10
-549.679390
 20
-730.261800
 30
0.0
 11
-557.045390
 21
-730.261800
 31
0.0
  0
LINE
  5
222
100
AcDbEntity
  8
Layer_1
 62
1
100
AcDbLine
 10
-557.045390
 20
-730.261800
 30
0.0
 11
-564.538390
 21
-730.261800
 31
0.0
  0
LINE
  5
223
100
AcDbEntity
  8
Layer_1
 62
1
100
AcDbLine
 10
-564.538390
 20
-730.261800
 30
0.0
 11
-564.538390
 21
-720.736800
 31
0.0
  0
LINE
  5
224
100
AcDbEntity
  8
Layer_1
 62
1
100
AcDbLine
 10
-564.538390
 20
-720.736800
 30
0.0
 11
-567.713390
 21
-720.736800
 31
0.0
  0
LINE
  5
225
100
AcDbEntity
  8
Layer_1
 62
1
100
AcDbLine
 10
-567.713390
 20
-720.736800
 30
0.0
 11
-567.713390
 21
-730.261800
 31
0.0
  0
LINE
  5
226
100
AcDbEntity
  8
Layer_1
 62
1
100
AcDbLine
 10
-567.713390
 20
-730.261800
 30
0.0
 11
-580.921360
 21
-730.261800
 31
0.0
  0
LINE
  5
227
100
AcDbEntity
  8
Layer_1
 62
1
100
AcDbLine
 10
-580.921360
 20
-730.261800
 30
0.0
 11
-580.921360
 21
-720.736800
 31
0.0
  0
LINE
  5
228
100
AcDbEntity
  8
Layer_1
 62
1
100
AcDbLine
 10
-580.921360
 20
-720.736800
 30
0.0
 11
-584.096360
 21
-720.736800
 31
0.0
  0
LINE
  5
229
100
AcDbEntity
  8
Layer_1
 62
1
100
AcDbLine
 10
-584.096360
 20
-720.736800
 30
0.0
 11
-584.096360
 21
-730.261800
 31
0.0
  0
LINE
  5
22a
100
AcDbEntity
  8
Layer_1
 62
1
100
AcDbLine
 10
-584.096360
 20
-730.261800
 30
0.0
 11
-598.147070
 21
-730.261800
 31
0.0
  0
SPLINE
  5
22b
100
AcDbEntity
  8
Layer_1
 62
1
100
AcDbSpline
 70
8
 71
3
 72
8
 73
4
 74
0
 40
0
 40
0
 40
0
 40
0
 40
1
 40
1
 40
1
 40
1
 10
-598.147070
 20
-730.261800
 30
0.0
 10
-598.479430
 20
-712.787500
 30
0.0
 10
-598.618680
 20
-695.258550
 30
0.0
 10
-598.574390
 20
-677.680700
 30
0.0
  0
SPLINE
  5
22c
100
AcDbEntity
  8
Layer_1
 62
1
100
AcDbSpline
 70
8
 71
3
 72
8
 73
4
 74
0
 40
0
 40
0
 40
0
 40
0
 40
1
 40
1
 40
1
 40
1
 10
-598.574390
 20
-677.680700
 30
0.0
 10
-596.566410
 20
-635.230460
 30
0.0
 10
-603.749450
 20
-614.648950
 30
0.0
 10
-610.491200
 20
-591.807630
 30
0.0
  0
SPLINE
  5
22d
100
AcDbEntity
  8
Layer_1
 62
1
100
AcDbSpline
 70
8
 71
3
 72
8
 73
4
 74
0
 40
0
 40
0
 40
0
 40
0
 40
1
 40
1
 40
1
 40
1
 10
-610.491200
 20
-591.807630
 30
0.0
 10
-617.718450
 20
-567.321300
 30
0.0
 10
-628.758050
 20
-548.733370
 30
0.0
 10
-642.685690
 20
-519.502250
 30
0.0
  0
SPLINE
  5
22e
100
AcDbEntity
  8
Layer_1
 62
1
100
AcDbSpline
 70
8
 71
3
 72
8
 73
4
 74
0
 40
0
 40
0
 40
0
 40
0
 40
1
 40
1
 40
1
 40
1
 10
-642.685690
 20
-519.502250
 30
0.0
 10
-645.610270
 20
-513.364210
 30
0.0
 10
-649.033230
 20
-507.037600
 30
0.0
 10
-652.674350
 20
-500.553030
 30
0.0
  0
LINE
  5
22f
100
AcDbEntity
  8
Layer_1
 62
1
100
AcDbLine
 10
-422.351120
 20
-742.521800
 30
0.0
 11
-448.638110
 21
-742.558800
 31
0.0
  0
LINE
  5
230
100
AcDbEntity
  8
Layer_1
 62
1
100
AcDbLine
 10
-448.638110
 20
-742.558800
 30
0.0
 11
-448.638110
 21
-733.033800
 31
0.0
  0
LINE
  5
231
100
AcDbEntity
  8
Layer_1
 62
1
100
AcDbLine
 10
-448.638110
 20
-733.033800
 30
0.0
 11
-451.813110
 21
-733.033800
 31
0.0
  0
LINE
  5
232
100
AcDbEntity
  8
Layer_1
 62
1
100
AcDbLine
 10
-451.813110
 20
-733.033800
 30
0.0
 11
-451.813110
 21
-742.558800
 31
0.0
  0
LINE
  5
233
100
AcDbEntity
  8
Layer_1
 62
1
100
AcDbLine
 10
-451.813110
 20
-742.558800
 30
0.0
 11
-480.896080
 21
-742.558800
 31
0.0
  0
LINE
  5
234
100
AcDbEntity
  8
Layer_1
 62
1
100
AcDbLine
 10
-480.896080
 20
-742.558800
 30
0.0
 11
-480.896080
 21
-733.033800
 31
0.0
  0
LINE
  5
235
100
AcDbEntity
  8
Layer_1
 62
1
100
AcDbLine
 10
-480.896080
 20
-733.033800
 30
0.0
 11
-484.071080
 21
-733.033800
 31
0.0
  0
LINE
  5
236
100
AcDbEntity
  8
Layer_1
 62
1
100
AcDbLine
 10
-484.071080
 20
-733.033800
 30
0.0
 11
-484.071080
 21
-742.558800
 31
0.0
  0
LINE
  5
237
100
AcDbEntity
  8
Layer_1
 62
1
100
AcDbLine
 10
-484.071080
 20
-742.558800
 30
0.0
 11
-513.281080
 21
-742.558800
 31
0.0
  0
LINE
  5
238
100
AcDbEntity
  8
Layer_1
 62
1
100
AcDbLine
 10
-513.281080
 20
-742.558800
 30
0.0
 11
-513.281080
 21
-733.033800
 31
0.0
  0
LINE
  5
239
100
AcDbEntity
  8
Layer_1
 62
1
100
AcDbLine
 10
-513.281080
 20
-733.033800
 30
0.0
 11
-516.329080
 21
-733.033800
 31
0.0
  0
LINE
  5
23a
100
AcDbEntity
  8
Layer_1
 62
1
100
AcDbLine
 10
-516.329080
 20
-733.033800
 30
0.0
 11
-516.329080
 21
-742.558800
 31
0.0
  0
LINE
  5
23b
100
AcDbEntity
  8
Layer_1
 62
1
100
AcDbLine
 10
-516.329080
 20
-742.558800
 30
0.0
 11
-531.696080
 21
-742.558800
 31
0.0
  0
LINE
  5
23c
100
AcDbEntity
  8
Layer_1
 62
1
100
AcDbLine
 10
-531.696080
 20
-742.558800
 30
0.0
 11
-531.696080
 21
-742.558800
 31
0.0
  0
LINE
  5
23d
100
AcDbEntity
  8
Layer_1
 62
1
100
AcDbLine
 10
-531.696080
 20
-742.558800
 30
0.0
 11
-531.696080
 21
-742.558800
 31
0.0
  0
LINE
  5
23e
100
AcDbEntity
  8
Layer_1
 62
1
100
AcDbLine
 10
-531.696080
 20
-742.558800
 30
0.0
 11
-531.696080
 21
-739.383800
 31
0.0
  0
LINE
  5
23f
100
AcDbEntity
  8
Layer_1
 62
1
100
AcDbLine
 10
-531.696080
 20
-739.383800
 30
0.0
 11
-546.301080
 21
-739.383800
 31
0.0
  0
SPLINE
  5
240
100
AcDbEntity
  8
Layer_1
 62
1
100
AcDbSpline
 70
8
 71
3
 72
8
 73
4
 74
0
 40
0
 40
0
 40
0
 40
0
 40
1
 40
1
 40
1
 40
1
 10
-546.301080
 20
-739.383800
 30
0.0
 10
-529.083430
 20
-662.055020
 30
0.0
 10
-525.583390
 20
-587.147320
 30
0.0
 10
-525.346080
 20
-512.815710
 30
0.0
  0
LINE
  5
241
100
AcDbEntity
  8
Layer_1
 62
1
100
AcDbLine
 10
-525.346080
 20
-512.815710
 30
0.0
 11
-517.980080
 21
-512.815710
 31
0.0
  0
LINE
  5
242
100
AcDbEntity
  8
Layer_1
 62
1
100
AcDbLine
 10
-517.980080
 20
-512.815710
 30
0.0
 11
-510.487080
 21
-512.815690
 31
0.0
  0
LINE
  5
243
100
AcDbEntity
  8
Layer_1
 62
1
100
AcDbLine
 10
-510.487080
 20
-512.815690
 30
0.0
 11
-510.487080
 21
-522.340690
 31
0.0
  0
LINE
  5
244
100
AcDbEntity
  8
Layer_1
 62
1
100
AcDbLine
 10
-510.487080
 20
-522.340690
 30
0.0
 11
-507.312080
 21
-522.340690
 31
0.0
  0
LINE
  5
245
100
AcDbEntity
  8
Layer_1
 62
1
100
AcDbLine
 10
-507.312080
 20
-522.340690
 30
0.0
 11
-507.312080
 21
-512.815690
 31
0.0
  0
LINE
  5
246
100
AcDbEntity
  8
Layer_1
 62
1
100
AcDbLine
 10
-507.312080
 20
-512.815690
 30
0.0
 11
-494.104110
 21
-512.815690
 31
0.0
  0
LINE
  5
247
100
AcDbEntity
  8
Layer_1
 62
1
100
AcDbLine
 10
-494.104110
 20
-512.815690
 30
0.0
 11
-494.104110
 21
-522.340690
 31
0.0
  0
LINE
  5
248
100
AcDbEntity
  8
Layer_1
 62
1
100
AcDbLine
 10
-494.104110
 20
-522.340690
 30
0.0
 11
-490.929110
 21
-522.340690
 31
0.0
  0
LINE
  5
249
100
AcDbEntity
  8
Layer_1
 62
1
100
AcDbLine
 10
-490.929110
 20
-522.340690
 30
0.0
 11
-490.929110
 21
-512.815690
 31
0.0
  0
LINE
  5
24a
100
AcDbEntity
  8
Layer_1
 62
1
100
AcDbLine
 10
-490.929110
 20
-512.815690
 30
0.0
 11
-476.878400
 21
-512.812690
 31
0.0
  0
SPLINE
  5
24b
100
AcDbEntity
  8
Layer_1
 62
1
100
AcDbSpline
 70
8
 71
3
 72
8
 73
4
 74
0
 40
0
 40
0
 40
0
 40
0
 40
1
 40
1
 40
1
 40
1
 10
-476.878400
 20
-512.812690
 30
0.0
 10
-476.546040
 20
-530.287040
 30
0.0
 10
-476.406790
 20
-547.815950
 30
0.0
 10
-476.451080
 20
-565.393800
 30
0.0
  0
SPLINE
  5
24c
100
AcDbEntity
  8
Layer_1
 62
1
100
AcDbSpline
 70
8
 71
3
 72
8
 73
4
 74
0
 40
0
 40
0
 40
0
 40
0
 40
1
 40
1
 40
1
 40
1
 10
-476.451080
 20
-565.393800
 30
0.0
 10
-478.459060
 20
-607.844030
 30
0.0
 10
-471.276020
 20
-628.425540
 30
0.0
 10
-464.534270
 20
-651.266860
 30
0.0
  0
SPLINE
  5
24d
100
AcDbEntity
  8
Layer_1
 62
1
100
AcDbSpline
 70
8
 71
3
 72
8
 73
4
 74
0
 40
0
 40
0
 40
0
 40
0
 40
1
 40
1
 40
1
 40
1
 10
-464.534270
 20
-651.266860
 30
0.0
 10
-457.307020
 20
-675.753200
 30
0.0
 10
-446.267420
 20
-694.341130
 30
0.0
 10
-432.339780
 20
-723.572300
 30
0.0
  0
SPLINE
  5
24e
100
AcDbEntity
  8
Layer_1
 62
1
100
AcDbSpline
 70
8
 71
3
 72
8
 73
4
 74
0
 40
0
 40
0
 40
0
 40
0
 40
1
 40
1
 40
1
 40
1
 10
-432.339780
 20
-723.572300
 30
0.0
 10
-429.415200
 20
-729.710300
 30
0.0
 10
-425.992240
 20
-736.036900
 30
0.0
 10
-422.351120
 20
-742.521500
 30
0.0
  0
LINE
  5
24f
100
AcDbEntity
  8
Layer_1
 62
1
100
AcDbLine
 10
-505.651622
 20
-456.804820
 30
0.0
 11
-502.481622
 21
-456.804820
 31
0.0
  0
LINE
  5
250
100
AcDbEntity
  8
Layer_1
 62
1
100
AcDbLine
 10
-502.481622
 20
-456.804820
 30
0.0
 11
-502.481622
 21
-452.359820
 31
0.0
  0
LINE
  5
251
100
AcDbEntity
  8
Layer_1
 62
1
100
AcDbLine
 10
-502.481622
 20
-452.359820
 30
0.0
 11
-499.311621
 21
-452.359820
 31
0.0
  0
LINE
  5
252
100
AcDbEntity
  8
Layer_1
 62
1
100
AcDbLine
 10
-499.311621
 20
-452.359820
 30
0.0
 11
-499.311621
 21
-456.804820
 31
0.0
  0
LINE
  5
253
100
AcDbEntity
  8
Layer_1
 62
1
100
AcDbLine
 10
-499.311621
 20
-456.804820
 30
0.0
 11
-496.141621
 21
-456.804820
 31
0.0
  0
LINE
  5
254
100
AcDbEntity
  8
Layer_1
 62
1
100
AcDbLine
 10
-496.141621
 20
-456.804820
 30
0.0
 11
-496.141621
 21
-463.154820
 31
0.0
  0
LINE
  5
255
100
AcDbEntity
  8
Layer_1
 62
1
100
AcDbLine
 10
-496.141621
 20
-463.154820
 30
0.0
 11
-499.311621
 21
-463.154820
 31
0.0
  0
LINE
  5
256
100
AcDbEntity
  8
Layer_1
 62
1
100
AcDbLine
 10
-499.311621
 20
-463.154820
 30
0.0
 11
-499.311621
 21
-467.329040
 31
0.0
  0
LINE
  5
257
100
AcDbEntity
  8
Layer_1
 62
1
100
AcDbLine
 10
-499.311621
 20
-467.329040
 30
0.0
 11
-496.141621
 21
-467.329040
 31
0.0
  0
SPLINE
  5
258
100
AcDbEntity
  8
Layer_1
 62
1
100
AcDbSpline
 70
8
 71
3
 72
8
 73
4
 74
0
 40
0
 40
0
 40
0
 40
0
 40
1
 40
1
 40
1
 40
1
 10
-496.141621
 20
-467.329040
 30
0.0
 10
-494.381628
 20
-466.233843
 30
0.0
 10
-493.311623
 20
-464.307748
 30
0.0
 10
-493.311622
 20
-462.234820
 30
0.0
  0
SPLINE
  5
259
100
AcDbEntity
  8
Layer_1
 62
1
100
AcDbSpline
 70
8
 71
3
 72
8
 73
4
 74
0
 40
0
 40
0
 40
0
 40
0
 40
1
 40
1
 40
1
 40
1
 10
-493.311622
 20
-462.234820
 30
0.0
 10
-493.311622
 20
-460.203256
 30
0.0
 10
-493.002089
 20
-458.183551
 30
0.0
 10
-492.393677
 20
-456.245230
 30
0.0
  0
SPLINE
  5
25a
100
AcDbEntity
  8
Layer_1
 62
1
100
AcDbSpline
 70
8
 71
3
 72
8
 73
4
 74
0
 40
0
 40
0
 40
0
 40
0
 40
1
 40
1
 40
1
 40
1
 10
-492.393677
 20
-456.245230
 30
0.0
 10
-491.676494
 20
-453.960376
 30
0.0
 10
-491.311621
 20
-451.579587
 30
0.0
 10
-491.311621
 20
-449.184820
 30
0.0
  0
SPLINE
  5
25b
100
AcDbEntity
  8
Layer_1
 62
1
100
AcDbSpline
 70
8
 71
3
 72
8
 73
4
 74
0
 40
0
 40
0
 40
0
 40
0
 40
1
 40
1
 40
1
 40
1
 10
-491.311621
 20
-449.184820
 30
0.0
 10
-491.311621
 20
-449.184820
 30
0.0
 10
-491.311621
 20
-436.484820
 30
0.0
 10
-491.311621
 20
-436.484820
 30
0.0
  0
SPLINE
  5
25c
100
AcDbEntity
  8
Layer_1
 62
1
100
AcDbSpline
 70
8
 71
3
 72
8
 73
4
 74
0
 40
0
 40
0
 40
0
 40
0
 40
1
 40
1
 40
1
 40
1
 10
-491.311621
 20
-436.484820
 30
0.0
 10
-491.311620
 20
-434.090049
 30
0.0
 10
-491.676493
 20
-431.709257
 30
0.0
 10
-492.393677
 20
-429.424400
 30
0.0
  0
SPLINE
  5
25d
100
AcDbEntity
  8
Layer_1
 62
1
100
AcDbSpline
 70
8
 71
3
 72
8
 73
4
 74
0
 40
0
 40
0
 40
0
 40
0
 40
1
 40
1
 40
1
 40
1
 10
-492.393677
 20
-429.424400
 30
0.0
 10
-493.002088
 20
-427.486083
 30
0.0
 10
-493.311621
 20
-425.466380
 30
0.0
 10
-493.311622
 20
-423.434820
 30
0.0
  0
SPLINE
  5
25e
100
AcDbEntity
  8
Layer_1
 62
1
100
AcDbSpline
 70
8
 71
3
 72
8
 73
4
 74
0
 40
0
 40
0
 40
0
 40
0
 40
1
 40
1
 40
1
 40
1
 10
-493.311622
 20
-423.434820
 30
0.0
 10
-493.311623
 20
-421.361892
 30
0.0
 10
-494.381628
 20
-419.435797
 30
0.0
 10
-496.141621
 20
-418.340600
 30
0.0
  0
LINE
  5
25f
100
AcDbEntity
  8
Layer_1
 62
1
100
AcDbLine
 10
-496.141621
 20
-418.340600
 30
0.0
 11
-499.311621
 21
-418.340600
 31
0.0
  0
LINE
  5
260
100
AcDbEntity
  8
Layer_1
 62
1
100
AcDbLine
 10
-499.311621
 20
-418.340600
 30
0.0
 11
-499.311621
 21
-433.309820
 31
0.0
  0
LINE
  5
261
100
AcDbEntity
  8
Layer_1
 62
1
100
AcDbLine
 10
-499.311621
 20
-433.309820
 30
0.0
 11
-502.481622
 21
-433.309820
 31
0.0
  0
LINE
  5
262
100
AcDbEntity
  8
Layer_1
 62
1
100
AcDbLine
 10
-502.481622
 20
-433.309820
 30
0.0
 11
-502.481622
 21
-418.340600
 31
0.0
  0
SPLINE
  5
263
100
AcDbEntity
  8
Layer_1
 62
1
100
AcDbSpline
 70
8
 71
3
 72
8
 73
4
 74
0
 40
0
 40
0
 40
0
 40
0
 40
1
 40
1
 40
1
 40
1
 10
-502.481622
 20
-418.340600
 30
0.0
 10
-502.481622
 20
-418.340600
 30
0.0
 10
-505.651622
 20
-418.340600
 30
0.0
 10
-505.651622
 20
-418.340600
 30
0.0
  0
SPLINE
  5
264
100
AcDbEntity
  8
Layer_1
 62
1
100
AcDbSpline
 70
8
 71
3
 72
8
 73
4
 74
0
 40
0
 40
0
 40
0
 40
0
 40
1
 40
1
 40
1
 40
1
 10
-505.651622
 20
-418.340600
 30
0.0
 10
-507.411615
 20
-419.435797
 30
0.0
 10
-508.481620
 20
-421.361892
 30
0.0
 10
-508.481621
 20
-423.434820
 30
0.0
  0
SPLINE
  5
265
100
AcDbEntity
  8
Layer_1
 62
1
100
AcDbSpline
 70
8
 71
3
 72
8
 73
4
 74
0
 40
0
 40
0
 40
0
 40
0
 40
1
 40
1
 40
1
 40
1
 10
-508.481621
 20
-423.434820
 30
0.0
 10
-508.481622
 20
-425.466380
 30
0.0
 10
-508.791155
 20
-427.486083
 30
0.0
 10
-509.399566
 20
-429.424400
 30
0.0
  0
SPLINE
  5
266
100
AcDbEntity
  8
Layer_1
 62
1
100
AcDbSpline
 70
8
 71
3
 72
8
 73
4
 74
0
 40
0
 40
0
 40
0
 40
0
 40
1
 40
1
 40
1
 40
1
 10
-509.399566
 20
-429.424400
 30
0.0
 10
-510.116750
 20
-431.709257
 30
0.0
 10
-510.481623
 20
-434.090049
 30
0.0
 10
-510.481622
 20
-436.484820
 30
0.0
  0
SPLINE
  5
267
100
AcDbEntity
  8
Layer_1
 62
1
100
AcDbSpline
 70
8
 71
3
 72
8
 73
4
 74
0
 40
0
 40
0
 40
0
 40
0
 40
1
 40
1
 40
1
 40
1
 10
-510.481622
 20
-436.484820
 30
0.0
 10
-510.481622
 20
-436.484820
 30
0.0
 10
-510.481622
 20
-449.184820
 30
0.0
 10
-510.481622
 20
-449.184820
 30
0.0
  0
SPLINE
  5
268
100
AcDbEntity
  8
Layer_1
 62
1
100
AcDbSpline
 70
8
 71
3
 72
8
 73
4
 74
0
 40
0
 40
0
 40
0
 40
0
 40
1
 40
1
 40
1
 40
1
 10
-510.481622
 20
-449.184820
 30
0.0
 10
-510.481622
 20
-451.579587
 30
0.0
 10
-510.116749
 20
-453.960376
 30
0.0
 10
-509.399566
 20
-456.245230
 30
0.0
  0
SPLINE
  5
269
100
AcDbEntity
  8
Layer_1
 62
1
100
AcDbSpline
 70
8
 71
3
 72
8
 73
4
 74
0
 40
0
 40
0
 40
0
 40
0
 40
1
 40
1
 40
1
 40
1
 10
-509.399566
 20
-456.245230
 30
0.0
 10
-508.791154
 20
-458.183551
 30
0.0
 10
-508.481621
 20
-460.203256
 30
0.0
 10
-508.481621
 20
-462.234820
 30
0.0
  0
SPLINE
  5
26a
100
AcDbEntity
  8
Layer_1
 62
1
100
AcDbSpline
 70
8
 71
3
 72
8
 73
4
 74
0
 40
0
 40
0
 40
0
 40
0
 40
1
 40
1
 40
1
 40
1
 10
-508.481621
 20
-462.234820
 30
0.0
 10
-508.481621
 20
-464.307748
 30
0.0
 10
-507.411615
 20
-466.233843
 30
0.0
 10
-505.651622
 20
-467.329040
 30
0.0
  0
LINE
  5
26b
100
AcDbEntity
  8
Layer_1
 62
1
100
AcDbLine
 10
-505.651622
 20
-467.329040
 30
0.0
 11
-502.481622
 21
-467.329040
 31
0.0
  0
LINE
  5
26c
100
AcDbEntity
  8
Layer_1
 62
1
100
AcDbLine
 10
-502.481622
 20
-467.329040
 30
0.0
 11
-502.481622
 21
-463.154820
 31
0.0
  0
LINE
  5
26d
100
AcDbEntity
  8
Layer_1
 62
1
100
AcDbLine
 10
-502.481622
 20
-463.154820
 30
0.0
 11
-505.651622
 21
-463.154820
 31
0.0
  0
LINE
  5
26e
100
AcDbEntity
  8
Layer_1
 62
1
100
AcDbLine
 10
-505.651622
 20
-463.154820
 30
0.0
 11
-505.651622
 21
-456.804820
 31
0.0
  0
LINE
  5
26f
100
AcDbEntity
  8
Layer_1
 62
1
100
AcDbLine
 10
-502.481622
 20
-442.834820
 30
0.0
 11
-502.481622
 21
-449.184820
 31
0.0
  0
LINE
  5
270
100
AcDbEntity
  8
Layer_1
 62
1
100
AcDbLine
 10
-502.481622
 20
-449.184820
 30
0.0
 11
-505.651622
 21
-449.184820
 31
0.0
  0
LINE
  5
271
100
AcDbEntity
  8
Layer_1
 62
1
100
AcDbLine
 10
-505.651622
 20
-449.184820
 30
0.0
 11
-505.651622
 21
-442.834820
 31
0.0
  0
LINE
  5
272
100
AcDbEntity
  8
Layer_1
 62
1
100
AcDbLine
 10
-505.651622
 20
-442.834820
 30
0.0
 11
-502.481622
 21
-442.834820
 31
0.0
  0
LINE
  5
273
100
AcDbEntity
  8
Layer_1
 62
1
100
AcDbLine
 10
-499.311621
 20
-449.184820
 30
0.0
 11
-499.311621
 21
-442.834820
 31
0.0
  0
LINE
  5
274
100
AcDbEntity
  8
Layer_1
 62
1
100
AcDbLine
 10
-499.311621
 20
-442.834820
 30
0.0
 11
-496.141621
 21
-442.834820
 31
0.0
  0
LINE
  5
275
100
AcDbEntity
  8
Layer_1
 62
1
100
AcDbLine
 10
-496.141621
 20
-442.834820
 30
0.0
 11
-496.141621
 21
-449.184820
 31
0.0
  0
LINE
  5
276
100
AcDbEntity
  8
Layer_1
 62
1
100
AcDbLine
 10
-496.141621
 20
-449.184820
 30
0.0
 11
-499.311621
 21
-449.184820
 31
0.0
  0
LINE
  5
277
100
AcDbEntity
  8
Layer_1
 62
1
100
AcDbLine
 10
-527.574242
 20
-490.242280
 30
0.0
 11
-524.404242
 21
-490.242280
 31
0.0
  0
LINE
  5
278
100
AcDbEntity
  8
Layer_1
 62
1
100
AcDbLine
 10
-524.404242
 20
-490.242280
 30
0.0
 11
-524.404242
 21
-485.797280
 31
0.0
  0
LINE
  5
279
100
AcDbEntity
  8
Layer_1
 62
1
100
AcDbLine
 10
-524.404242
 20
-485.797280
 30
0.0
 11
-521.234241
 21
-485.797280
 31
0.0
  0
LINE
  5
27a
100
AcDbEntity
  8
Layer_1
 62
1
100
AcDbLine
 10
-521.234241
 20
-485.797280
 30
0.0
 11
-521.234241
 21
-490.242280
 31
0.0
  0
LINE
  5
27b
100
AcDbEntity
  8
Layer_1
 62
1
100
AcDbLine
 10
-521.234241
 20
-490.242280
 30
0.0
 11
-518.064241
 21
-490.242280
 31
0.0
  0
LINE
  5
27c
100
AcDbEntity
  8
Layer_1
 62
1
100
AcDbLine
 10
-518.064241
 20
-490.242280
 30
0.0
 11
-518.064241
 21
-496.592280
 31
0.0
  0
LINE
  5
27d
100
AcDbEntity
  8
Layer_1
 62
1
100
AcDbLine
 10
-518.064241
 20
-496.592280
 30
0.0
 11
-521.234241
 21
-496.592280
 31
0.0
  0
LINE
  5
27e
100
AcDbEntity
  8
Layer_1
 62
1
100
AcDbLine
 10
-521.234241
 20
-496.592280
 30
0.0
 11
-521.234241
 21
-500.766500
 31
0.0
  0
LINE
  5
27f
100
AcDbEntity
  8
Layer_1
 62
1
100
AcDbLine
 10
-521.234241
 20
-500.766500
 30
0.0
 11
-518.064241
 21
-500.766500
 31
0.0
  0
SPLINE
  5
280
100
AcDbEntity
  8
Layer_1
 62
1
100
AcDbSpline
 70
8
 71
3
 72
8
 73
4
 74
0
 40
0
 40
0
 40
0
 40
0
 40
1
 40
1
 40
1
 40
1
 10
-518.064241
 20
-500.766500
 30
0.0
 10
-516.304248
 20
-499.671303
 30
0.0
 10
-515.234243
 20
-497.745208
 30
0.0
 10
-515.234242
 20
-495.672280
 30
0.0
  0
SPLINE
  5
281
100
AcDbEntity
  8
Layer_1
 62
1
100
AcDbSpline
 70
8
 71
3
 72
8
 73
4
 74
0
 40
0
 40
0
 40
0
 40
0
 40
1
 40
1
 40
1
 40
1
 10
-515.234242
 20
-495.672280
 30
0.0
 10
-515.234242
 20
-493.640716
 30
0.0
 10
-514.924709
 20
-491.621011
 30
0.0
 10
-514.316297
 20
-489.682690
 30
0.0
  0
SPLINE
  5
282
100
AcDbEntity
  8
Layer_1
 62
1
100
AcDbSpline
 70
8
 71
3
 72
8
 73
4
 74
0
 40
0
 40
0
 40
0
 40
0
 40
1
 40
1
 40
1
 40
1
 10
-514.316297
 20
-489.682690
 30
0.0
 10
-513.599114
 20
-487.397836
 30
0.0
 10
-513.234241
 20
-485.017047
 30
0.0
 10
-513.234241
 20
-482.622280
 30
0.0
  0
SPLINE
  5
283
100
AcDbEntity
  8
Layer_1
 62
1
100
AcDbSpline
 70
8
 71
3
 72
8
 73
4
 74
0
 40
0
 40
0
 40
0
 40
0
 40
1
 40
1
 40
1
 40
1
 10
-513.234241
 20
-482.622280
 30
0.0
 10
-513.234241
 20
-482.622280
 30
0.0
 10
-513.234241
 20
-469.922280
 30
0.0
 10
-513.234241
 20
-469.922280
 30
0.0
  0
SPLINE
  5
284
100
AcDbEntity
  8
Layer_1
 62
1
100
AcDbSpline
 70
8
 71
3
 72
8
 73
4
 74
0
 40
0
 40
0
 40
0
 40
0
 40
1
 40
1
 40
1
 40
1
 10
-513.234241
 20
-469.922280
 30
0.0
 10
-513.234240
 20
-467.527509
 30
0.0
 10
-513.599113
 20
-465.146717
 30
0.0
 10
-514.316297
 20
-462.861860
 30
0.0
  0
SPLINE
  5
285
100
AcDbEntity
  8
Layer_1
 62
1
100
AcDbSpline
 70
8
 71
3
 72
8
 73
4
 74
0
 40
0
 40
0
 40
0
 40
0
 40
1
 40
1
 40
1
 40
1
 10
-514.316297
 20
-462.861860
 30
0.0
 10
-514.924708
 20
-460.923543
 30
0.0
 10
-515.234241
 20
-458.903840
 30
0.0
 10
-515.234242
 20
-456.872280
 30
0.0
  0
SPLINE
  5
286
100
AcDbEntity
  8
Layer_1
 62
1
100
AcDbSpline
 70
8
 71
3
 72
8
 73
4
 74
0
 40
0
 40
0
 40
0
 40
0
 40
1
 40
1
 40
1
 40
1
 10
-515.234242
 20
-456.872280
 30
0.0
 10
-515.234243
 20
-454.799352
 30
0.0
 10
-516.304248
 20
-452.873257
 30
0.0
 10
-518.064241
 20
-451.778060
 30
0.0
  0
LINE
  5
287
100
AcDbEntity
  8
Layer_1
 62
1
100
AcDbLine
 10
-518.064241
 20
-451.778060
 30
0.0
 11
-521.234241
 21
-451.778060
 31
0.0
  0
LINE
  5
288
100
AcDbEntity
  8
Layer_1
 62
1
100
AcDbLine
 10
-521.234241
 20
-451.778060
 30
0.0
 11
-521.234241
 21
-466.747280
 31
0.0
  0
LINE
  5
289
100
AcDbEntity
  8
Layer_1
 62
1
100
AcDbLine
 10
-521.234241
 20
-466.747280
 30
0.0
 11
-524.404242
 21
-466.747280
 31
0.0
  0
LINE
  5
28a
100
AcDbEntity
  8
Layer_1
 62
1
100
AcDbLine
 10
-524.404242
 20
-466.747280
 30
0.0
 11
-524.404242
 21
-451.778060
 31
0.0
  0
LINE
  5
28b
100
AcDbEntity
  8
Layer_1
 62
1
100
AcDbLine
 10
-524.404242
 20
-451.778060
 30
0.0
 11
-527.574242
 21
-451.778060
 31
0.0
  0
SPLINE
  5
28c
100
AcDbEntity
  8
Layer_1
 62
1
100
AcDbSpline
 70
8
 71
3
 72
8
 73
4
 74
0
 40
0
 40
0
 40
0
 40
0
 40
1
 40
1
 40
1
 40
1
 10
-527.574242
 20
-451.778060
 30
0.0
 10
-529.334235
 20
-452.873257
 30
0.0
 10
-530.404240
 20
-454.799352
 30
0.0
 10
-530.404241
 20
-456.872280
 30
0.0
  0
SPLINE
  5
28d
100
AcDbEntity
  8
Layer_1
 62
1
100
AcDbSpline
 70
8
 71
3
 72
8
 73
4
 74
0
 40
0
 40
0
 40
0
 40
0
 40
1
 40
1
 40
1
 40
1
 10
-530.404241
 20
-456.872280
 30
0.0
 10
-530.404242
 20
-458.903840
 30
0.0
 10
-530.713775
 20
-460.923543
 30
0.0
 10
-531.322186
 20
-462.861860
 30
0.0
  0
SPLINE
  5
28e
100
AcDbEntity
  8
Layer_1
 62
1
100
AcDbSpline
 70
8
 71
3
 72
8
 73
4
 74
0
 40
0
 40
0
 40
0
 40
0
 40
1
 40
1
 40
1
 40
1
 10
-531.322186
 20
-462.861860
 30
0.0
 10
-532.039370
 20
-465.146717
 30
0.0
 10
-532.404243
 20
-467.527509
 30
0.0
 10
-532.404242
 20
-469.922280
 30
0.0
  0
SPLINE
  5
28f
100
AcDbEntity
  8
Layer_1
 62
1
100
AcDbSpline
 70
8
 71
3
 72
8
 73
4
 74
0
 40
0
 40
0
 40
0
 40
0
 40
1
 40
1
 40
1
 40
1
 10
-532.404242
 20
-469.922280
 30
0.0
 10
-532.404242
 20
-469.922280
 30
0.0
 10
-532.404242
 20
-482.622280
 30
0.0
 10
-532.404242
 20
-482.622280
 30
0.0
  0
SPLINE
  5
290
100
AcDbEntity
  8
Layer_1
 62
1
100
AcDbSpline
 70
8
 71
3
 72
8
 73
4
 74
0
 40
0
 40
0
 40
0
 40
0
 40
1
 40
1
 40
1
 40
1
 10
-532.404242
 20
-482.622280
 30
0.0
 10
-532.404242
 20
-485.017047
 30
0.0
 10
-532.039369
 20
-487.397836
 30
0.0
 10
-531.322186
 20
-489.682690
 30
0.0
  0
SPLINE
  5
291
100
AcDbEntity
  8
Layer_1
 62
1
100
AcDbSpline
 70
8
 71
3
 72
8
 73
4
 74
0
 40
0
 40
0
 40
0
 40
0
 40
1
 40
1
 40
1
 40
1
 10
-531.322186
 20
-489.682690
 30
0.0
 10
-530.713774
 20
-491.621011
 30
0.0
 10
-530.404241
 20
-493.640716
 30
0.0
 10
-530.404241
 20
-495.672280
 30
0.0
  0
SPLINE
  5
292
100
AcDbEntity
  8
Layer_1
 62
1
100
AcDbSpline
 70
8
 71
3
 72
8
 73
4
 74
0
 40
0
 40
0
 40
0
 40
0
 40
1
 40
1
 40
1
 40
1
 10
-530.404241
 20
-495.672280
 30
0.0
 10
-530.404241
 20
-497.745208
 30
0.0
 10
-529.334235
 20
-499.671303
 30
0.0
 10
-527.574242
 20
-500.766500
 30
0.0
  0
LINE
  5
293
100
AcDbEntity
  8
Layer_1
 62
1
100
AcDbLine
 10
-527.574242
 20
-500.766500
 30
0.0
 11
-524.404242
 21
-500.766500
 31
0.0
  0
LINE
  5
294
100
AcDbEntity
  8
Layer_1
 62
1
100
AcDbLine
 10
-524.404242
 20
-500.766500
 30
0.0
 11
-524.404242
 21
-496.592280
 31
0.0
  0
LINE
  5
295
100
AcDbEntity
  8
Layer_1
 62
1
100
AcDbLine
 10
-524.404242
 20
-496.592280
 30
0.0
 11
-527.574242
 21
-496.592280
 31
0.0
  0
LINE
  5
296
100
AcDbEntity
  8
Layer_1
 62
1
100
AcDbLine
 10
-527.574242
 20
-496.592280
 30
0.0
 11
-527.574242
 21
-490.242280
 31
0.0
  0
LINE
  5
297
100
AcDbEntity
  8
Layer_1
 62
1
100
AcDbLine
 10
-524.404242
 20
-476.272280
 30
0.0
 11
-524.404242
 21
-482.622280
 31
0.0
  0
LINE
  5
298
100
AcDbEntity
  8
Layer_1
 62
1
100
AcDbLine
 10
-524.404242
 20
-482.622280
 30
0.0
 11
-527.574242
 21
-482.622280
 31
0.0
  0
LINE
  5
299
100
AcDbEntity
  8
Layer_1
 62
1
100
AcDbLine
 10
-527.574242
 20
-482.622280
 30
0.0
 11
-527.574242
 21
-476.272280
 31
0.0
  0
LINE
  5
29a
100
AcDbEntity
  8
Layer_1
 62
1
100
AcDbLine
 10
-527.574242
 20
-476.272280
 30
0.0
 11
-524.404242
 21
-476.272280
 31
0.0
  0
LINE
  5
29b
100
AcDbEntity
  8
Layer_1
 62
1
100
AcDbLine
 10
-521.234241
 20
-482.622280
 30
0.0
 11
-521.234241
 21
-476.272280
 31
0.0
  0
LINE
  5
29c
100
AcDbEntity
  8
Layer_1
 62
1
100
AcDbLine
 10
-521.234241
 20
-476.272280
 30
0.0
 11
-518.064241
 21
-476.272280
 31
0.0
  0
LINE
  5
29d
100
AcDbEntity
  8
Layer_1
 62
1
100
AcDbLine
 10
-518.064241
 20
-476.272280
 30
0.0
 11
-518.064241
 21
-482.622280
 31
0.0
  0
LINE
  5
29e
100
AcDbEntity
  8
Layer_1
 62
1
100
AcDbLine
 10
-518.064241
 20
-482.622280
 30
0.0
 11
-521.234241
 21
-482.622280
 31
0.0
  0
SPLINE
  5
29f
100
AcDbEntity
  8
Layer_1
 62
1
100
AcDbSpline
 70
8
 71
3
 72
8
 73
4
 74
0
 40
0
 40
0
 40
0
 40
0
 40
1
 40
1
 40
1
 40
1
 10
-536.906870
 20
-468.444900
 30
0.0
 10
-536.906870
 20
-468.444900
 30
0.0
 10
-536.906870
 20
-464.444900
 30
0.0
 10
-536.906870
 20
-464.444900
 30
0.0
  0
SPLINE
  5
2a0
100
AcDbEntity
  8
Layer_1
 62
1
100
AcDbSpline
 70
8
 71
3
 72
8
 73
4
 74
0
 40
0
 40
0
 40
0
 40
0
 40
1
 40
1
 40
1
 40
1
 10
-536.906870
 20
-464.444900
 30
0.0
 10
-536.906867
 20
-463.064875
 30
0.0
 10
-537.287624
 20
-461.711605
 30
0.0
 10
-538.007230
 20
-460.534050
 30
0.0
  0
SPLINE
  5
2a1
100
AcDbEntity
  8
Layer_1
 62
1
100
AcDbSpline
 70
8
 71
3
 72
8
 73
4
 74
0
 40
0
 40
0
 40
0
 40
0
 40
1
 40
1
 40
1
 40
1
 10
-538.007230
 20
-460.534050
 30
0.0
 10
-539.736056
 20
-457.705030
 30
0.0
 10
-540.734467
 20
-454.490597
 30
0.0
 10
-540.912640
 20
-451.179940
 30
0.0
  0
SPLINE
  5
2a2
100
AcDbEntity
  8
Layer_1
 62
1
100
AcDbSpline
 70
8
 71
3
 72
8
 73
4
 74
0
 40
0
 40
0
 40
0
 40
0
 40
1
 40
1
 40
1
 40
1
 10
-540.912640
 20
-451.179940
 30
0.0
 10
-541.026871
 20
-449.057396
 30
0.0
 10
-542.781255
 20
-447.394895
 30
0.0
 10
-544.906870
 20
-447.394900
 30
0.0
  0
LINE
  5
2a3
100
AcDbEntity
  8
Layer_1
 62
1
100
AcDbLine
 10
-544.906870
 20
-447.394900
 30
0.0
 11
-544.906870
 21
-456.919900
 31
0.0
  0
LINE
  5
2a4
100
AcDbEntity
  8
Layer_1
 62
1
100
AcDbLine
 10
-544.906870
 20
-456.919900
 30
0.0
 11
-548.076850
 21
-456.919900
 31
0.0
  0
SPLINE
  5
2a5
100
AcDbEntity
  8
Layer_1
 62
1
100
AcDbSpline
 70
8
 71
3
 72
8
 73
4
 74
0
 40
0
 40
0
 40
0
 40
0
 40
1
 40
1
 40
1
 40
1
 10
-548.076850
 20
-456.919900
 30
0.0
 10
-548.076850
 20
-456.919900
 30
0.0
 10
-548.076850
 20
-447.394900
 30
0.0
 10
-548.076850
 20
-447.394900
 30
0.0
  0
SPLINE
  5
2a6
100
AcDbEntity
  8
Layer_1
 62
1
100
AcDbSpline
 70
8
 71
3
 72
8
 73
4
 74
0
 40
0
 40
0
 40
0
 40
0
 40
1
 40
1
 40
1
 40
1
 10
-548.076850
 20
-447.394900
 30
0.0
 10
-550.202462
 20
-447.394900
 30
0.0
 10
-551.956840
 20
-449.057400
 30
0.0
 10
-552.071070
 20
-451.179940
 30
0.0
  0
SPLINE
  5
2a7
100
AcDbEntity
  8
Layer_1
 62
1
100
AcDbSpline
 70
8
 71
3
 72
8
 73
4
 74
0
 40
0
 40
0
 40
0
 40
0
 40
1
 40
1
 40
1
 40
1
 10
-552.071070
 20
-451.179940
 30
0.0
 10
-552.249246
 20
-454.490598
 30
0.0
 10
-553.247660
 20
-457.705031
 30
0.0
 10
-554.976490
 20
-460.534050
 30
0.0
  0
SPLINE
  5
2a8
100
AcDbEntity
  8
Layer_1
 62
1
100
AcDbSpline
 70
8
 71
3
 72
8
 73
4
 74
0
 40
0
 40
0
 40
0
 40
0
 40
1
 40
1
 40
1
 40
1
 10
-554.976490
 20
-460.534050
 30
0.0
 10
-555.696096
 20
-461.711605
 30
0.0
 10
-556.076853
 20
-463.064875
 30
0.0
 10
-556.076850
 20
-464.444900
 30
0.0
  0
SPLINE
  5
2a9
100
AcDbEntity
  8
Layer_1
 62
1
100
AcDbSpline
 70
8
 71
3
 72
8
 73
4
 74
0
 40
0
 40
0
 40
0
 40
0
 40
1
 40
1
 40
1
 40
1
 10
-556.076850
 20
-464.444900
 30
0.0
 10
-556.076850
 20
-464.444900
 30
0.0
 10
-556.076850
 20
-468.444900
 30
0.0
 10
-556.076850
 20
-468.444900
 30
0.0
  0
SPLINE
  5
2aa
100
AcDbEntity
  8
Layer_1
 62
1
100
AcDbSpline
 70
8
 71
3
 72
8
 73
4
 74
0
 40
0
 40
0
 40
0
 40
0
 40
1
 40
1
 40
1
 40
1
 10
-556.076850
 20
-468.444900
 30
0.0
 10
-556.076851
 20
-469.824921
 30
0.0
 10
-555.696094
 20
-471.178188
 30
0.0
 10
-554.976490
 20
-472.355740
 30
0.0
  0
SPLINE
  5
2ab
100
AcDbEntity
  8
Layer_1
 62
1
100
AcDbSpline
 70
8
 71
3
 72
8
 73
4
 74
0
 40
0
 40
0
 40
0
 40
0
 40
1
 40
1
 40
1
 40
1
 10
-554.976490
 20
-472.355740
 30
0.0
 10
-553.247659
 20
-475.184762
 30
0.0
 10
-552.249244
 20
-478.399199
 30
0.0
 10
-552.071070
 20
-481.709860
 30
0.0
  0
SPLINE
  5
2ac
100
AcDbEntity
  8
Layer_1
 62
1
100
AcDbSpline
 70
8
 71
3
 72
8
 73
4
 74
0
 40
0
 40
0
 40
0
 40
0
 40
1
 40
1
 40
1
 40
1
 10
-552.071070
 20
-481.709860
 30
0.0
 10
-551.956840
 20
-483.832400
 30
0.0
 10
-550.202462
 20
-485.494900
 30
0.0
 10
-548.076850
 20
-485.494900
 30
0.0
  0
LINE
  5
2ad
100
AcDbEntity
  8
Layer_1
 62
1
100
AcDbLine
 10
-548.076850
 20
-485.494900
 30
0.0
 11
-548.076850
 21
-475.969900
 31
0.0
  0
LINE
  5
2ae
100
AcDbEntity
  8
Layer_1
 62
1
100
AcDbLine
 10
-548.076850
 20
-475.969900
 30
0.0
 11
-544.906870
 21
-475.969900
 31
0.0
  0
SPLINE
  5
2af
100
AcDbEntity
  8
Layer_1
 62
1
100
AcDbSpline
 70
8
 71
3
 72
8
 73
4
 74
0
 40
0
 40
0
 40
0
 40
0
 40
1
 40
1
 40
1
 40
1
 10
-544.906870
 20
-475.969900
 30
0.0
 10
-544.906870
 20
-475.969900
 30
0.0
 10
-544.906870
 20
-485.494900
 30
0.0
 10
-544.906870
 20
-485.494900
 30
0.0
  0
SPLINE
  5
2b0
100
AcDbEntity
  8
Layer_1
 62
1
100
AcDbSpline
 70
8
 71
3
 72
8
 73
4
 74
0
 40
0
 40
0
 40
0
 40
0
 40
1
 40
1
 40
1
 40
1
 10
-544.906870
 20
-485.494900
 30
0.0
 10
-542.781255
 20
-485.494905
 30
0.0
 10
-541.026871
 20
-483.832404
 30
0.0
 10
-540.912640
 20
-481.709860
 30
0.0
  0
SPLINE
  5
2b1
100
AcDbEntity
  8
Layer_1
 62
1
100
AcDbSpline
 70
8
 71
3
 72
8
 73
4
 74
0
 40
0
 40
0
 40
0
 40
0
 40
1
 40
1
 40
1
 40
1
 10
-540.912640
 20
-481.709860
 30
0.0
 10
-540.734469
 20
-478.399199
 30
0.0
 10
-539.736058
 20
-475.184763
 30
0.0
 10
-538.007230
 20
-472.355740
 30
0.0
  0
SPLINE
  5
2b2
100
AcDbEntity
  8
Layer_1
 62
1
100
AcDbSpline
 70
8
 71
3
 72
8
 73
4
 74
0
 40
0
 40
0
 40
0
 40
0
 40
1
 40
1
 40
1
 40
1
 10
-538.007230
 20
-472.355740
 30
0.0
 10
-537.287626
 20
-471.178188
 30
0.0
 10
-536.906869
 20
-469.824921
 30
0.0
 10
-536.906870
 20
-468.444900
 30
0.0
  0
LINE
  5
2b3
100
AcDbEntity
  8
Layer_1
 62
1
100
AcDbLine
 10
-536.906870
 20
-468.444900
 30
0.0
 11
-536.906870
 21
-468.444900
 31
0.0
  0
SPLINE
  5
2b4
100
AcDbEntity
  8
Layer_1
 62
1
100
AcDbSpline
 70
8
 71
3
 72
8
 73
4
 74
0
 40
0
 40
0
 40
0
 40
0
 40
1
 40
1
 40
1
 40
1
 10
-576.027400
 20
-424.032700
 30
0.0
 10
-576.027400
 20
-424.032700
 30
0.0
 10
-576.027400
 20
-420.032700
 30
0.0
 10
-576.027400
 20
-420.032700
 30
0.0
  0
SPLINE
  5
2b5
100
AcDbEntity
  8
Layer_1
 62
1
100
AcDbSpline
 70
8
 71
3
 72
8
 73
4
 74
0
 40
0
 40
0
 40
0
 40
0
 40
1
 40
1
 40
1
 40
1
 10
-576.027400
 20
-420.032700
 30
0.0
 10
-576.027397
 20
-418.652675
 30
0.0
 10
-576.408154
 20
-417.299405
 30
0.0
 10
-577.127760
 20
-416.121850
 30
0.0
  0
SPLINE
  5
2b6
100
AcDbEntity
  8
Layer_1
 62
1
100
AcDbSpline
 70
8
 71
3
 72
8
 73
4
 74
0
 40
0
 40
0
 40
0
 40
0
 40
1
 40
1
 40
1
 40
1
 10
-577.127760
 20
-416.121850
 30
0.0
 10
-578.856586
 20
-413.292830
 30
0.0
 10
-579.854997
 20
-410.078397
 30
0.0
 10
-580.033170
 20
-406.767740
 30
0.0
  0
SPLINE
  5
2b7
100
AcDbEntity
  8
Layer_1
 62
1
100
AcDbSpline
 70
8
 71
3
 72
8
 73
4
 74
0
 40
0
 40
0
 40
0
 40
0
 40
1
 40
1
 40
1
 40
1
 10
-580.033170
 20
-406.767740
 30
0.0
 10
-580.147401
 20
-404.645196
 30
0.0
 10
-581.901785
 20
-402.982695
 30
0.0
 10
-584.027400
 20
-402.982700
 30
0.0
  0
LINE
  5
2b8
100
AcDbEntity
  8
Layer_1
 62
1
100
AcDbLine
 10
-584.027400
 20
-402.982700
 30
0.0
 11
-584.027400
 21
-412.507700
 31
0.0
  0
LINE
  5
2b9
100
AcDbEntity
  8
Layer_1
 62
1
100
AcDbLine
 10
-584.027400
 20
-412.507700
 30
0.0
 11
-587.197390
 21
-412.507700
 31
0.0
  0
SPLINE
  5
2ba
100
AcDbEntity
  8
Layer_1
 62
1
100
AcDbSpline
 70
8
 71
3
 72
8
 73
4
 74
0
 40
0
 40
0
 40
0
 40
0
 40
1
 40
1
 40
1
 40
1
 10
-587.197390
 20
-412.507700
 30
0.0
 10
-587.197390
 20
-412.507700
 30
0.0
 10
-587.197390
 20
-402.982700
 30
0.0
 10
-587.197390
 20
-402.982700
 30
0.0
  0
SPLINE
  5
2bb
100
AcDbEntity
  8
Layer_1
 62
1
100
AcDbSpline
 70
8
 71
3
 72
8
 73
4
 74
0
 40
0
 40
0
 40
0
 40
0
 40
1
 40
1
 40
1
 40
1
 10
-587.197390
 20
-402.982700
 30
0.0
 10
-589.323002
 20
-402.982700
 30
0.0
 10
-591.077380
 20
-404.645200
 30
0.0
 10
-591.191610
 20
-406.767740
 30
0.0
  0
SPLINE
  5
2bc
100
AcDbEntity
  8
Layer_1
 62
1
100
AcDbSpline
 70
8
 71
3
 72
8
 73
4
 74
0
 40
0
 40
0
 40
0
 40
0
 40
1
 40
1
 40
1
 40
1
 10
-591.191610
 20
-406.767740
 30
0.0
 10
-591.369786
 20
-410.078398
 30
0.0
 10
-592.368200
 20
-413.292831
 30
0.0
 10
-594.097030
 20
-416.121850
 30
0.0
  0
SPLINE
  5
2bd
100
AcDbEntity
  8
Layer_1
 62
1
100
AcDbSpline
 70
8
 71
3
 72
8
 73
4
 74
0
 40
0
 40
0
 40
0
 40
0
 40
1
 40
1
 40
1
 40
1
 10
-594.097030
 20
-416.121850
 30
0.0
 10
-594.816636
 20
-417.299405
 30
0.0
 10
-595.197393
 20
-418.652675
 30
0.0
 10
-595.197390
 20
-420.032700
 30
0.0
  0
SPLINE
  5
2be
100
AcDbEntity
  8
Layer_1
 62
1
100
AcDbSpline
 70
8
 71
3
 72
8
 73
4
 74
0
 40
0
 40
0
 40
0
 40
0
 40
1
 40
1
 40
1
 40
1
 10
-595.197390
 20
-420.032700
 30
0.0
 10
-595.197390
 20
-420.032700
 30
0.0
 10
-595.197390
 20
-424.032700
 30
0.0
 10
-595.197390
 20
-424.032700
 30
0.0
  0
SPLINE
  5
2bf
100
AcDbEntity
  8
Layer_1
 62
1
100
AcDbSpline
 70
8
 71
3
 72
8
 73
4
 74
0
 40
0
 40
0
 40
0
 40
0
 40
1
 40
1
 40
1
 40
1
 10
-595.197390
 20
-424.032700
 30
0.0
 10
-595.197391
 20
-425.412721
 30
0.0
 10
-594.816634
 20
-426.765988
 30
0.0
 10
-594.097030
 20
-427.943540
 30
0.0
  0
SPLINE
  5
2c0
100
AcDbEntity
  8
Layer_1
 62
1
100
AcDbSpline
 70
8
 71
3
 72
8
 73
4
 74
0
 40
0
 40
0
 40
0
 40
0
 40
1
 40
1
 40
1
 40
1
 10
-594.097030
 20
-427.943540
 30
0.0
 10
-592.368199
 20
-430.772562
 30
0.0
 10
-591.369784
 20
-433.986999
 30
0.0
 10
-591.191610
 20
-437.297660
 30
0.0
  0
SPLINE
  5
2c1
100
AcDbEntity
  8
Layer_1
 62
1
100
AcDbSpline
 70
8
 71
3
 72
8
 73
4
 74
0
 40
0
 40
0
 40
0
 40
0
 40
1
 40
1
 40
1
 40
1
 10
-591.191610
 20
-437.297660
 30
0.0
 10
-591.077380
 20
-439.420200
 30
0.0
 10
-589.323002
 20
-441.082700
 30
0.0
 10
-587.197390
 20
-441.082700
 30
0.0
  0
LINE
  5
2c2
100
AcDbEntity
  8
Layer_1
 62
1
100
AcDbLine
 10
-587.197390
 20
-441.082700
 30
0.0
 11
-587.197390
 21
-431.557700
 31
0.0
  0
LINE
  5
2c3
100
AcDbEntity
  8
Layer_1
 62
1
100
AcDbLine
 10
-587.197390
 20
-431.557700
 30
0.0
 11
-584.027400
 21
-431.557700
 31
0.0
  0
LINE
  5
2c4
100
AcDbEntity
  8
Layer_1
 62
1
100
AcDbLine
 10
-584.027400
 20
-431.557700
 30
0.0
 11
-584.027400
 21
-441.082700
 31
0.0
  0
SPLINE
  5
2c5
100
AcDbEntity
  8
Layer_1
 62
1
100
AcDbSpline
 70
8
 71
3
 72
8
 73
4
 74
0
 40
0
 40
0
 40
0
 40
0
 40
1
 40
1
 40
1
 40
1
 10
-584.027400
 20
-441.082700
 30
0.0
 10
-581.901785
 20
-441.082705
 30
0.0
 10
-580.147401
 20
-439.420204
 30
0.0
 10
-580.033170
 20
-437.297660
 30
0.0
  0
SPLINE
  5
2c6
100
AcDbEntity
  8
Layer_1
 62
1
100
AcDbSpline
 70
8
 71
3
 72
8
 73
4
 74
0
 40
0
 40
0
 40
0
 40
0
 40
1
 40
1
 40
1
 40
1
 10
-580.033170
 20
-437.297660
 30
0.0
 10
-579.854999
 20
-433.986999
 30
0.0
 10
-578.856588
 20
-430.772563
 30
0.0
 10
-577.127760
 20
-427.943540
 30
0.0
  0
SPLINE
  5
2c7
100
AcDbEntity
  8
Layer_1
 62
1
100
AcDbSpline
 70
8
 71
3
 72
8
 73
4
 74
0
 40
0
 40
0
 40
0
 40
0
 40
1
 40
1
 40
1
 40
1
 10
-577.127760
 20
-427.943540
 30
0.0
 10
-576.408156
 20
-426.765988
 30
0.0
 10
-576.027399
 20
-425.412721
 30
0.0
 10
-576.027400
 20
-424.032700
 30
0.0
  0
LINE
  5
2c8
100
AcDbEntity
  8
Layer_1
 62
1
100
AcDbLine
 10
-576.027400
 20
-424.032700
 30
0.0
 11
-576.027400
 21
-424.032700
 31
0.0
  0
SPLINE
  5
2c9
100
AcDbEntity
  8
Layer_1
 62
1
100
AcDbSpline
 70
8
 71
3
 72
8
 73
4
 74
0
 40
0
 40
0
 40
0
 40
0
 40
1
 40
1
 40
1
 40
1
 10
-535.985990
 20
-443.908670
 30
0.0
 10
-535.985990
 20
-443.908670
 30
0.0
 10
-531.986010
 20
-443.895070
 30
0.0
 10
-531.986010
 20
-443.895070
 30
0.0
  0
SPLINE
  5
2ca
100
AcDbEntity
  8
Layer_1
 62
1
100
AcDbSpline
 70
8
 71
3
 72
8
 73
4
 74
0
 40
0
 40
0
 40
0
 40
0
 40
1
 40
1
 40
1
 40
1
 10
-531.986010
 20
-443.895070
 30
0.0
 10
-530.605994
 20
-443.890374
 30
0.0
 10
-529.254028
 20
-443.505011
 30
0.0
 10
-528.078930
 20
-442.781400
 30
0.0
  0
SPLINE
  5
2cb
100
AcDbEntity
  8
Layer_1
 62
1
100
AcDbSpline
 70
8
 71
3
 72
8
 73
4
 74
0
 40
0
 40
0
 40
0
 40
0
 40
1
 40
1
 40
1
 40
1
 10
-528.078930
 20
-442.781400
 30
0.0
 10
-525.255815
 20
-441.042946
 30
0.0
 10
-522.044802
 20
-440.033590
 30
0.0
 10
-518.734770
 20
-439.844140
 30
0.0
  0
SPLINE
  5
2cc
100
AcDbEntity
  8
Layer_1
 62
1
100
AcDbSpline
 70
8
 71
3
 72
8
 73
4
 74
0
 40
0
 40
0
 40
0
 40
0
 40
1
 40
1
 40
1
 40
1
 10
-518.734770
 20
-439.844140
 30
0.0
 10
-516.612629
 20
-439.722679
 30
0.0
 10
-514.956114
 20
-437.962642
 30
0.0
 10
-514.963360
 20
-435.837040
 30
0.0
  0
LINE
  5
2cd
100
AcDbEntity
  8
Layer_1
 62
1
100
AcDbLine
 10
-514.963360
 20
-435.837040
 30
0.0
 11
-524.488310
 21
-435.869440
 31
0.0
  0
LINE
  5
2ce
100
AcDbEntity
  8
Layer_1
 62
1
100
AcDbLine
 10
-524.488310
 20
-435.869440
 30
0.0
 11
-524.499110
 21
-432.699480
 31
0.0
  0
SPLINE
  5
2cf
100
AcDbEntity
  8
Layer_1
 62
1
100
AcDbSpline
 70
8
 71
3
 72
8
 73
4
 74
0
 40
0
 40
0
 40
0
 40
0
 40
1
 40
1
 40
1
 40
1
 10
-524.499110
 20
-432.699480
 30
0.0
 10
-524.499110
 20
-432.699480
 30
0.0
 10
-514.974170
 20
-432.667080
 30
0.0
 10
-514.974170
 20
-432.667080
 30
0.0
  0
SPLINE
  5
2d0
100
AcDbEntity
  8
Layer_1
 62
1
100
AcDbSpline
 70
8
 71
3
 72
8
 73
4
 74
0
 40
0
 40
0
 40
0
 40
0
 40
1
 40
1
 40
1
 40
1
 10
-514.974170
 20
-432.667080
 30
0.0
 10
-514.981412
 20
-430.541484
 30
0.0
 10
-516.649876
 20
-428.792781
 30
0.0
 10
-518.772790
 20
-428.685780
 30
0.0
  0
SPLINE
  5
2d1
100
AcDbEntity
  8
Layer_1
 62
1
100
AcDbSpline
 70
8
 71
3
 72
8
 73
4
 74
0
 40
0
 40
0
 40
0
 40
0
 40
1
 40
1
 40
1
 40
1
 10
-518.772790
 20
-428.685780
 30
0.0
 10
-522.084035
 20
-428.518882
 30
0.0
 10
-525.301849
 20
-427.531423
 30
0.0
 10
-528.136740
 20
-425.812240
 30
0.0
  0
SPLINE
  5
2d2
100
AcDbEntity
  8
Layer_1
 62
1
100
AcDbSpline
 70
8
 71
3
 72
8
 73
4
 74
0
 40
0
 40
0
 40
0
 40
0
 40
1
 40
1
 40
1
 40
1
 10
-528.136740
 20
-425.812240
 30
0.0
 10
-529.316740
 20
-425.096646
 30
0.0
 10
-530.671301
 20
-424.720497
 30
0.0
 10
-532.051320
 20
-424.725200
 30
0.0
  0
LINE
  5
2d3
100
AcDbEntity
  8
Layer_1
 62
1
100
AcDbLine
 10
-532.051320
 20
-424.725200
 30
0.0
 11
-536.051300
 21
-424.738800
 31
0.0
  0
SPLINE
  5
2d4
100
AcDbEntity
  8
Layer_1
 62
1
100
AcDbSpline
 70
8
 71
3
 72
8
 73
4
 74
0
 40
0
 40
0
 40
0
 40
0
 40
1
 40
1
 40
1
 40
1
 10
-536.051300
 20
-424.738800
 30
0.0
 10
-537.431313
 20
-424.743498
 30
0.0
 10
-538.783275
 20
-425.128861
 30
0.0
 10
-539.958370
 20
-425.852470
 30
0.0
  0
SPLINE
  5
2d5
100
AcDbEntity
  8
Layer_1
 62
1
100
AcDbSpline
 70
8
 71
3
 72
8
 73
4
 74
0
 40
0
 40
0
 40
0
 40
0
 40
1
 40
1
 40
1
 40
1
 10
-539.958370
 20
-425.852470
 30
0.0
 10
-542.781487
 20
-427.590929
 30
0.0
 10
-545.992504
 20
-428.600289
 30
0.0
 10
-549.302540
 20
-428.789740
 30
0.0
  0
SPLINE
  5
2d6
100
AcDbEntity
  8
Layer_1
 62
1
100
AcDbSpline
 70
8
 71
3
 72
8
 73
4
 74
0
 40
0
 40
0
 40
0
 40
0
 40
1
 40
1
 40
1
 40
1
 10
-549.302540
 20
-428.789740
 30
0.0
 10
-551.424678
 20
-428.911201
 30
0.0
 10
-553.081191
 20
-430.671232
 30
0.0
 10
-553.073950
 20
-432.796830
 30
0.0
  0
LINE
  5
2d7
100
AcDbEntity
  8
Layer_1
 62
1
100
AcDbLine
 10
-553.073950
 20
-432.796830
 30
0.0
 11
-543.549000
 21
-432.764430
 31
0.0
  0
LINE
  5
2d8
100
AcDbEntity
  8
Layer_1
 62
1
100
AcDbLine
 10
-543.549000
 20
-432.764430
 30
0.0
 11
-543.538200
 21
-435.934390
 31
0.0
  0
SPLINE
  5
2d9
100
AcDbEntity
  8
Layer_1
 62
1
100
AcDbSpline
 70
8
 71
3
 72
8
 73
4
 74
0
 40
0
 40
0
 40
0
 40
0
 40
1
 40
1
 40
1
 40
1
 10
-543.538200
 20
-435.934390
 30
0.0
 10
-543.538200
 20
-435.934390
 30
0.0
 10
-553.063140
 20
-435.966790
 30
0.0
 10
-553.063140
 20
-435.966790
 30
0.0
  0
SPLINE
  5
2da
100
AcDbEntity
  8
Layer_1
 62
1
100
AcDbSpline
 70
8
 71
3
 72
8
 73
4
 74
0
 40
0
 40
0
 40
0
 40
0
 40
1
 40
1
 40
1
 40
1
 10
-553.063140
 20
-435.966790
 30
0.0
 10
-553.055903
 20
-438.092390
 30
0.0
 10
-551.387438
 20
-439.841098
 30
0.0
 10
-549.264520
 20
-439.948100
 30
0.0
  0
SPLINE
  5
2db
100
AcDbEntity
  8
Layer_1
 62
1
100
AcDbSpline
 70
8
 71
3
 72
8
 73
4
 74
0
 40
0
 40
0
 40
0
 40
0
 40
1
 40
1
 40
1
 40
1
 10
-549.264520
 20
-439.948100
 30
0.0
 10
-545.953273
 20
-440.114994
 30
0.0
 10
-542.735455
 20
-441.102449
 30
0.0
 10
-539.900560
 20
-442.821630
 30
0.0
  0
SPLINE
  5
2dc
100
AcDbEntity
  8
Layer_1
 62
1
100
AcDbSpline
 70
8
 71
3
 72
8
 73
4
 74
0
 40
0
 40
0
 40
0
 40
0
 40
1
 40
1
 40
1
 40
1
 10
-539.900560
 20
-442.821630
 30
0.0
 10
-538.720563
 20
-443.537222
 30
0.0
 10
-537.366006
 20
-443.913371
 30
0.0
 10
-535.985990
 20
-443.908670
 30
0.0
  0
LINE
  5
2dd
100
AcDbEntity
  8
Layer_1
 62
1
100
AcDbLine
 10
-535.985990
 20
-443.908670
 30
0.0
 11
-535.985990
 21
-443.908670
 31
0.0
  0
SPLINE
  5
2de
100
AcDbEntity
  8
Layer_1
 62
1
100
AcDbSpline
 70
8
 71
3
 72
8
 73
4
 74
0
 40
0
 40
0
 40
0
 40
0
 40
1
 40
1
 40
1
 40
1
 10
-596.249130
 20
-478.650250
 30
0.0
 10
-596.249130
 20
-478.650250
 30
0.0
 10
-596.249130
 20
-474.650250
 30
0.0
 10
-596.249130
 20
-474.650250
 30
0.0
  0
SPLINE
  5
2df
100
AcDbEntity
  8
Layer_1
 62
1
100
AcDbSpline
 70
8
 71
3
 72
8
 73
4
 74
0
 40
0
 40
0
 40
0
 40
0
 40
1
 40
1
 40
1
 40
1
 10
-596.249130
 20
-474.650250
 30
0.0
 10
-596.249127
 20
-473.270225
 30
0.0
 10
-596.629884
 20
-471.916955
 30
0.0
 10
-597.349490
 20
-470.739400
 30
0.0
  0
SPLINE
  5
2e0
100
AcDbEntity
  8
Layer_1
 62
1
100
AcDbSpline
 70
8
 71
3
 72
8
 73
4
 74
0
 40
0
 40
0
 40
0
 40
0
 40
1
 40
1
 40
1
 40
1
 10
-597.349490
 20
-470.739400
 30
0.0
 10
-599.078316
 20
-467.910380
 30
0.0
 10
-600.076727
 20
-464.695947
 30
0.0
 10
-600.254900
 20
-461.385290
 30
0.0
  0
SPLINE
  5
2e1
100
AcDbEntity
  8
Layer_1
 62
1
100
AcDbSpline
 70
8
 71
3
 72
8
 73
4
 74
0
 40
0
 40
0
 40
0
 40
0
 40
1
 40
1
 40
1
 40
1
 10
-600.254900
 20
-461.385290
 30
0.0
 10
-600.369131
 20
-459.262746
 30
0.0
 10
-602.123515
 20
-457.600245
 30
0.0
 10
-604.249130
 20
-457.600250
 30
0.0
  0
LINE
  5
2e2
100
AcDbEntity
  8
Layer_1
 62
1
100
AcDbLine
 10
-604.249130
 20
-457.600250
 30
0.0
 11
-604.249130
 21
-467.125250
 31
0.0
  0
LINE
  5
2e3
100
AcDbEntity
  8
Layer_1
 62
1
100
AcDbLine
 10
-604.249130
 20
-467.125250
 30
0.0
 11
-607.419120
 21
-467.125250
 31
0.0
  0
SPLINE
  5
2e4
100
AcDbEntity
  8
Layer_1
 62
1
100
AcDbSpline
 70
8
 71
3
 72
8
 73
4
 74
0
 40
0
 40
0
 40
0
 40
0
 40
1
 40
1
 40
1
 40
1
 10
-607.419120
 20
-467.125250
 30
0.0
 10
-607.419120
 20
-467.125250
 30
0.0
 10
-607.419120
 20
-457.600250
 30
0.0
 10
-607.419120
 20
-457.600250
 30
0.0
  0
SPLINE
  5
2e5
100
AcDbEntity
  8
Layer_1
 62
1
100
AcDbSpline
 70
8
 71
3
 72
8
 73
4
 74
0
 40
0
 40
0
 40
0
 40
0
 40
1
 40
1
 40
1
 40
1
 10
-607.419120
 20
-457.600250
 30
0.0
 10
-609.544732
 20
-457.600250
 30
0.0
 10
-611.299110
 20
-459.262750
 30
0.0
 10
-611.413340
 20
-461.385290
 30
0.0
  0
SPLINE
  5
2e6
100
AcDbEntity
  8
Layer_1
 62
1
100
AcDbSpline
 70
8
 71
3
 72
8
 73
4
 74
0
 40
0
 40
0
 40
0
 40
0
 40
1
 40
1
 40
1
 40
1
 10
-611.413340
 20
-461.385290
 30
0.0
 10
-611.591516
 20
-464.695948
 30
0.0
 10
-612.589930
 20
-467.910381
 30
0.0
 10
-614.318760
 20
-470.739400
 30
0.0
  0
SPLINE
  5
2e7
100
AcDbEntity
  8
Layer_1
 62
1
100
AcDbSpline
 70
8
 71
3
 72
8
 73
4
 74
0
 40
0
 40
0
 40
0
 40
0
 40
1
 40
1
 40
1
 40
1
 10
-614.318760
 20
-470.739400
 30
0.0
 10
-615.038366
 20
-471.916955
 30
0.0
 10
-615.419123
 20
-473.270225
 30
0.0
 10
-615.419120
 20
-474.650250
 30
0.0
  0
SPLINE
  5
2e8
100
AcDbEntity
  8
Layer_1
 62
1
100
AcDbSpline
 70
8
 71
3
 72
8
 73
4
 74
0
 40
0
 40
0
 40
0
 40
0
 40
1
 40
1
 40
1
 40
1
 10
-615.419120
 20
-474.650250
 30
0.0
 10
-615.419120
 20
-474.650250
 30
0.0
 10
-615.419120
 20
-478.650250
 30
0.0
 10
-615.419120
 20
-478.650250
 30
0.0
  0
SPLINE
  5
2e9
100
AcDbEntity
  8
Layer_1
 62
1
100
AcDbSpline
 70
8
 71
3
 72
8
 73
4
 74
0
 40
0
 40
0
 40
0
 40
0
 40
1
 40
1
 40
1
 40
1
 10
-615.419120
 20
-478.650250
 30
0.0
 10
-615.419121
 20
-480.030271
 30
0.0
 10
-615.038364
 20
-481.383538
 30
0.0
 10
-614.318760
 20
-482.561090
 30
0.0
  0
SPLINE
  5
2ea
100
AcDbEntity
  8
Layer_1
 62
1
100
AcDbSpline
 70
8
 71
3
 72
8
 73
4
 74
0
 40
0
 40
0
 40
0
 40
0
 40
1
 40
1
 40
1
 40
1
 10
-614.318760
 20
-482.561090
 30
0.0
 10
-612.589929
 20
-485.390112
 30
0.0
 10
-611.591514
 20
-488.604549
 30
0.0
 10
-611.413340
 20
-491.915210
 30
0.0
  0
SPLINE
  5
2eb
100
AcDbEntity
  8
Layer_1
 62
1
100
AcDbSpline
 70
8
 71
3
 72
8
 73
4
 74
0
 40
0
 40
0
 40
0
 40
0
 40
1
 40
1
 40
1
 40
1
 10
-611.413340
 20
-491.915210
 30
0.0
 10
-611.299110
 20
-494.037750
 30
0.0
 10
-609.544732
 20
-495.700250
 30
0.0
 10
-607.419120
 20
-495.700250
 30
0.0
  0
LINE
  5
2ec
100
AcDbEntity
  8
Layer_1
 62
1
100
AcDbLine
 10
-607.419120
 20
-495.700250
 30
0.0
 11
-607.419120
 21
-486.175260
 31
0.0
  0
LINE
  5
2ed
100
AcDbEntity
  8
Layer_1
 62
1
100
AcDbLine
 10
-607.419120
 20
-486.175260
 30
0.0
 11
-604.249130
 21
-486.175260
 31
0.0
  0
SPLINE
  5
2ee
100
AcDbEntity
  8
Layer_1
 62
1
100
AcDbSpline
 70
8
 71
3
 72
8
 73
4
 74
0
 40
0
 40
0
 40
0
 40
0
 40
1
 40
1
 40
1
 40
1
 10
-604.249130
 20
-486.175260
 30
0.0
 10
-604.249130
 20
-486.175260
 30
0.0
 10
-604.249130
 20
-495.700250
 30
0.0
 10
-604.249130
 20
-495.700250
 30
0.0
  0
SPLINE
  5
2ef
100
AcDbEntity
  8
Layer_1
 62
1
100
AcDbSpline
 70
8
 71
3
 72
8
 73
4
 74
0
 40
0
 40
0
 40
0
 40
0
 40
1
 40
1
 40
1
 40
1
 10
-604.249130
 20
-495.700250
 30
0.0
 10
-602.123515
 20
-495.700255
 30
0.0
 10
-600.369131
 20
-494.037754
 30
0.0
 10
-600.254900
 20
-491.915210
 30
0.0
  0
SPLINE
  5
2f0
100
AcDbEntity
  8
Layer_1
 62
1
100
AcDbSpline
 70
8
 71
3
 72
8
 73
4
 74
0
 40
0
 40
0
 40
0
 40
0
 40
1
 40
1
 40
1
 40
1
 10
-600.254900
 20
-491.915210
 30
0.0
 10
-600.076729
 20
-488.604549
 30
0.0
 10
-599.078318
 20
-485.390113
 30
0.0
 10
-597.349490
 20
-482.561090
 30
0.0
  0
SPLINE
  5
2f1
100
AcDbEntity
  8
Layer_1
 62
1
100
AcDbSpline
 70
8
 71
3
 72
8
 73
4
 74
0
 40
0
 40
0
 40
0
 40
0
 40
1
 40
1
 40
1
 40
1
 10
-597.349490
 20
-482.561090
 30
0.0
 10
-596.629886
 20
-481.383538
 30
0.0
 10
-596.249129
 20
-480.030271
 30
0.0
 10
-596.249130
 20
-478.650250
 30
0.0
  0
LINE
  5
2f2
100
AcDbEntity
  8
Layer_1
 62
1
100
AcDbLine
 10
-596.249130
 20
-478.650250
 30
0.0
 11
-596.249130
 21
-478.650250
 31
0.0
  0
SPLINE
  5
2f3
100
AcDbEntity
  8
Layer_1
 62
1
100
AcDbSpline
 70
8
 71
3
 72
8
 73
4
 74
0
 40
0
 40
0
 40
0
 40
0
 40
1
 40
1
 40
1
 40
1
 10
-571.302700
 20
-479.406210
 30
0.0
 10
-571.302700
 20
-479.406210
 30
0.0
 10
-571.302700
 20
-475.406210
 30
0.0
 10
-571.302700
 20
-475.406210
 30
0.0
  0
SPLINE
  5
2f4
100
AcDbEntity
  8
Layer_1
 62
1
100
AcDbSpline
 70
8
 71
3
 72
8
 73
4
 74
0
 40
0
 40
0
 40
0
 40
0
 40
1
 40
1
 40
1
 40
1
 10
-571.302700
 20
-475.406210
 30
0.0
 10
-571.302697
 20
-474.026185
 30
0.0
 10
-571.683454
 20
-472.672915
 30
0.0
 10
-572.403060
 20
-471.495360
 30
0.0
  0
SPLINE
  5
2f5
100
AcDbEntity
  8
Layer_1
 62
1
100
AcDbSpline
 70
8
 71
3
 72
8
 73
4
 74
0
 40
0
 40
0
 40
0
 40
0
 40
1
 40
1
 40
1
 40
1
 10
-572.403060
 20
-471.495360
 30
0.0
 10
-574.131886
 20
-468.666340
 30
0.0
 10
-575.130297
 20
-465.451907
 30
0.0
 10
-575.308470
 20
-462.141250
 30
0.0
  0
SPLINE
  5
2f6
100
AcDbEntity
  8
Layer_1
 62
1
100
AcDbSpline
 70
8
 71
3
 72
8
 73
4
 74
0
 40
0
 40
0
 40
0
 40
0
 40
1
 40
1
 40
1
 40
1
 10
-575.308470
 20
-462.141250
 30
0.0
 10
-575.422701
 20
-460.018706
 30
0.0
 10
-577.177085
 20
-458.356205
 30
0.0
 10
-579.302700
 20
-458.356210
 30
0.0
  0
LINE
  5
2f7
100
AcDbEntity
  8
Layer_1
 62
1
100
AcDbLine
 10
-579.302700
 20
-458.356210
 30
0.0
 11
-579.302700
 21
-467.881210
 31
0.0
  0
LINE
  5
2f8
100
AcDbEntity
  8
Layer_1
 62
1
100
AcDbLine
 10
-579.302700
 20
-467.881210
 30
0.0
 11
-582.472690
 21
-467.881210
 31
0.0
  0
SPLINE
  5
2f9
100
AcDbEntity
  8
Layer_1
 62
1
100
AcDbSpline
 70
8
 71
3
 72
8
 73
4
 74
0
 40
0
 40
0
 40
0
 40
0
 40
1
 40
1
 40
1
 40
1
 10
-582.472690
 20
-467.881210
 30
0.0
 10
-582.472690
 20
-467.881210
 30
0.0
 10
-582.472690
 20
-458.356210
 30
0.0
 10
-582.472690
 20
-458.356210
 30
0.0
  0
SPLINE
  5
2fa
100
AcDbEntity
  8
Layer_1
 62
1
100
AcDbSpline
 70
8
 71
3
 72
8
 73
4
 74
0
 40
0
 40
0
 40
0
 40
0
 40
1
 40
1
 40
1
 40
1
 10
-582.472690
 20
-458.356210
 30
0.0
 10
-584.598302
 20
-458.356210
 30
0.0
 10
-586.352680
 20
-460.018710
 30
0.0
 10
-586.466910
 20
-462.141250
 30
0.0
  0
SPLINE
  5
2fb
100
AcDbEntity
  8
Layer_1
 62
1
100
AcDbSpline
 70
8
 71
3
 72
8
 73
4
 74
0
 40
0
 40
0
 40
0
 40
0
 40
1
 40
1
 40
1
 40
1
 10
-586.466910
 20
-462.141250
 30
0.0
 10
-586.645086
 20
-465.451908
 30
0.0
 10
-587.643500
 20
-468.666341
 30
0.0
 10
-589.372330
 20
-471.495360
 30
0.0
  0
SPLINE
  5
2fc
100
AcDbEntity
  8
Layer_1
 62
1
100
AcDbSpline
 70
8
 71
3
 72
8
 73
4
 74
0
 40
0
 40
0
 40
0
 40
0
 40
1
 40
1
 40
1
 40
1
 10
-589.372330
 20
-471.495360
 30
0.0
 10
-590.091936
 20
-472.672915
 30
0.0
 10
-590.472693
 20
-474.026185
 30
0.0
 10
-590.472690
 20
-475.406210
 30
0.0
  0
SPLINE
  5
2fd
100
AcDbEntity
  8
Layer_1
 62
1
100
AcDbSpline
 70
8
 71
3
 72
8
 73
4
 74
0
 40
0
 40
0
 40
0
 40
0
 40
1
 40
1
 40
1
 40
1
 10
-590.472690
 20
-475.406210
 30
0.0
 10
-590.472690
 20
-475.406210
 30
0.0
 10
-590.472690
 20
-479.406210
 30
0.0
 10
-590.472690
 20
-479.406210
 30
0.0
  0
SPLINE
  5
2fe
100
AcDbEntity
  8
Layer_1
 62
1
100
AcDbSpline
 70
8
 71
3
 72
8
 73
4
 74
0
 40
0
 40
0
 40
0
 40
0
 40
1
 40
1
 40
1
 40
1
 10
-590.472690
 20
-479.406210
 30
0.0
 10
-590.472691
 20
-480.786231
 30
0.0
 10
-590.091934
 20
-482.139498
 30
0.0
 10
-589.372330
 20
-483.317050
 30
0.0
  0
SPLINE
  5
2ff
100
AcDbEntity
  8
Layer_1
 62
1
100
AcDbSpline
 70
8
 71
3
 72
8
 73
4
 74
0
 40
0
 40
0
 40
0
 40
0
 40
1
 40
1
 40
1
 40
1
 10
-589.372330
 20
-483.317050
 30
0.0
 10
-587.643499
 20
-486.146072
 30
0.0
 10
-586.645084
 20
-489.360509
 30
0.0
 10
-586.466910
 20
-492.671170
 30
0.0
  0
SPLINE
  5
300
100
AcDbEntity
  8
Layer_1
 62
1
100
AcDbSpline
 70
8
 71
3
 72
8
 73
4
 74
0
 40
0
 40
0
 40
0
 40
0
 40
1
 40
1
 40
1
 40
1
 10
-586.466910
 20
-492.671170
 30
0.0
 10
-586.352680
 20
-494.793710
 30
0.0
 10
-584.598302
 20
-496.456210
 30
0.0
 10
-582.472690
 20
-496.456210
 30
0.0
  0
LINE
  5
301
100
AcDbEntity
  8
Layer_1
 62
1
100
AcDbLine
 10
-582.472690
 20
-496.456210
 30
0.0
 11
-582.472690
 21
-486.931210
 31
0.0
  0
LINE
  5
302
100
AcDbEntity
  8
Layer_1
 62
1
100
AcDbLine
 10
-582.472690
 20
-486.931210
 30
0.0
 11
-579.302700
 21
-486.931210
 31
0.0
  0
LINE
  5
303
100
AcDbEntity
  8
Layer_1
 62
1
100
AcDbLine
 10
-579.302700
 20
-486.931210
 30
0.0
 11
-579.302700
 21
-496.456210
 31
0.0
  0
SPLINE
  5
304
100
AcDbEntity
  8
Layer_1
 62
1
100
AcDbSpline
 70
8
 71
3
 72
8
 73
4
 74
0
 40
0
 40
0
 40
0
 40
0
 40
1
 40
1
 40
1
 40
1
 10
-579.302700
 20
-496.456210
 30
0.0
 10
-577.177085
 20
-496.456215
 30
0.0
 10
-575.422701
 20
-494.793714
 30
0.0
 10
-575.308470
 20
-492.671170
 30
0.0
  0
SPLINE
  5
305
100
AcDbEntity
  8
Layer_1
 62
1
100
AcDbSpline
 70
8
 71
3
 72
8
 73
4
 74
0
 40
0
 40
0
 40
0
 40
0
 40
1
 40
1
 40
1
 40
1
 10
-575.308470
 20
-492.671170
 30
0.0
 10
-575.130299
 20
-489.360509
 30
0.0
 10
-574.131888
 20
-486.146073
 30
0.0
 10
-572.403060
 20
-483.317050
 30
0.0
  0
SPLINE
  5
306
100
AcDbEntity
  8
Layer_1
 62
1
100
AcDbSpline
 70
8
 71
3
 72
8
 73
4
 74
0
 40
0
 40
0
 40
0
 40
0
 40
1
 40
1
 40
1
 40
1
 10
-572.403060
 20
-483.317050
 30
0.0
 10
-571.683456
 20
-482.139498
 30
0.0
 10
-571.302699
 20
-480.786231
 30
0.0
 10
-571.302700
 20
-479.406210
 30
0.0
  0
LINE
  5
307
100
AcDbEntity
  8
Layer_1
 62
1
100
AcDbLine
 10
-571.302700
 20
-479.406210
 30
0.0
 11
-571.302700
 21
-479.406210
 31
0.0
  0
SPLINE
  5
308
100
AcDbEntity
  8
Layer_1
 62
1
100
AcDbSpline
 70
8
 71
3
 72
8
 73
4
 74
0
 40
0
 40
0
 40
0
 40
0
 40
1
 40
1
 40
1
 40
1
 10
-753.235120
 20
-694.745150
 30
0.0
 10
-753.235120
 20
-694.745150
 30
0.0
 10
-753.235120
 20
-682.045150
 30
0.0
 10
-753.235120
 20
-682.045150
 30
0.0
  0
SPLINE
  5
309
100
AcDbEntity
  8
Layer_1
 62
1
100
AcDbSpline
 70
8
 71
3
 72
8
 73
4
 74
0
 40
0
 40
0
 40
0
 40
0
 40
1
 40
1
 40
1
 40
1
 10
-753.235120
 20
-682.045150
 30
0.0
 10
-753.235121
 20
-680.669222
 30
0.0
 10
-753.613626
 20
-679.319809
 30
0.0
 10
-754.329210
 20
-678.144600
 30
0.0
  0
SPLINE
  5
30a
100
AcDbEntity
  8
Layer_1
 62
1
100
AcDbSpline
 70
8
 71
3
 72
8
 73
4
 74
0
 40
0
 40
0
 40
0
 40
0
 40
1
 40
1
 40
1
 40
1
 10
-754.329210
 20
-678.144600
 30
0.0
 10
-756.347677
 20
-674.829657
 30
0.0
 10
-757.358027
 20
-670.999040
 30
0.0
 10
-757.237070
 20
-667.119810
 30
0.0
  0
SPLINE
  5
30b
100
AcDbEntity
  8
Layer_1
 62
1
100
AcDbSpline
 70
8
 71
3
 72
8
 73
4
 74
0
 40
0
 40
0
 40
0
 40
0
 40
1
 40
1
 40
1
 40
1
 10
-757.237070
 20
-667.119810
 30
0.0
 10
-757.203334
 20
-666.037852
 30
0.0
 10
-757.609552
 20
-664.988416
 30
0.0
 10
-758.362962
 20
-664.211148
 30
0.0
  0
SPLINE
  5
30c
100
AcDbEntity
  8
Layer_1
 62
1
100
AcDbSpline
 70
8
 71
3
 72
8
 73
4
 74
0
 40
0
 40
0
 40
0
 40
0
 40
1
 40
1
 40
1
 40
1
 10
-758.362962
 20
-664.211148
 30
0.0
 10
-759.116371
 20
-663.433880
 30
0.0
 10
-760.152636
 20
-662.995152
 30
0.0
 10
-761.235120
 20
-662.995150
 30
0.0
  0
LINE
  5
30d
100
AcDbEntity
  8
Layer_1
 62
1
100
AcDbLine
 10
-761.235120
 20
-662.995150
 30
0.0
 11
-761.235120
 21
-678.870150
 31
0.0
  0
LINE
  5
30e
100
AcDbEntity
  8
Layer_1
 62
1
100
AcDbLine
 10
-761.235120
 20
-678.870150
 30
0.0
 11
-764.405120
 21
-678.870150
 31
0.0
  0
SPLINE
  5
30f
100
AcDbEntity
  8
Layer_1
 62
1
100
AcDbSpline
 70
8
 71
3
 72
8
 73
4
 74
0
 40
0
 40
0
 40
0
 40
0
 40
1
 40
1
 40
1
 40
1
 10
-764.405120
 20
-678.870150
 30
0.0
 10
-764.405120
 20
-678.870150
 30
0.0
 10
-764.405120
 20
-662.995150
 30
0.0
 10
-764.405120
 20
-662.995150
 30
0.0
  0
SPLINE
  5
310
100
AcDbEntity
  8
Layer_1
 62
1
100
AcDbSpline
 70
8
 71
3
 72
8
 73
4
 74
0
 40
0
 40
0
 40
0
 40
0
 40
1
 40
1
 40
1
 40
1
 10
-764.405120
 20
-662.995150
 30
0.0
 10
-765.487606
 20
-662.995149
 30
0.0
 10
-766.523874
 20
-663.433876
 30
0.0
 10
-767.277285
 20
-664.211145
 30
0.0
  0
SPLINE
  5
311
100
AcDbEntity
  8
Layer_1
 62
1
100
AcDbSpline
 70
8
 71
3
 72
8
 73
4
 74
0
 40
0
 40
0
 40
0
 40
0
 40
1
 40
1
 40
1
 40
1
 10
-767.277285
 20
-664.211145
 30
0.0
 10
-768.030696
 20
-664.988413
 30
0.0
 10
-768.436916
 20
-666.037850
 30
0.0
 10
-768.403180
 20
-667.119810
 30
0.0
  0
SPLINE
  5
312
100
AcDbEntity
  8
Layer_1
 62
1
100
AcDbSpline
 70
8
 71
3
 72
8
 73
4
 74
0
 40
0
 40
0
 40
0
 40
0
 40
1
 40
1
 40
1
 40
1
 10
-768.403180
 20
-667.119810
 30
0.0
 10
-768.282220
 20
-670.999039
 30
0.0
 10
-769.292567
 20
-674.829656
 30
0.0
 10
-771.311030
 20
-678.144600
 30
0.0
  0
SPLINE
  5
313
100
AcDbEntity
  8
Layer_1
 62
1
100
AcDbSpline
 70
8
 71
3
 72
8
 73
4
 74
0
 40
0
 40
0
 40
0
 40
0
 40
1
 40
1
 40
1
 40
1
 10
-771.311030
 20
-678.144600
 30
0.0
 10
-772.026614
 20
-679.319809
 30
0.0
 10
-772.405119
 20
-680.669222
 30
0.0
 10
-772.405120
 20
-682.045150
 30
0.0
  0
SPLINE
  5
314
100
AcDbEntity
  8
Layer_1
 62
1
100
AcDbSpline
 70
8
 71
3
 72
8
 73
4
 74
0
 40
0
 40
0
 40
0
 40
0
 40
1
 40
1
 40
1
 40
1
 10
-772.405120
 20
-682.045150
 30
0.0
 10
-772.405120
 20
-682.045150
 30
0.0
 10
-772.405120
 20
-694.745150
 30
0.0
 10
-772.405120
 20
-694.745150
 30
0.0
  0
SPLINE
  5
315
100
AcDbEntity
  8
Layer_1
 62
1
100
AcDbSpline
 70
8
 71
3
 72
8
 73
4
 74
0
 40
0
 40
0
 40
0
 40
0
 40
1
 40
1
 40
1
 40
1
 10
-772.405120
 20
-694.745150
 30
0.0
 10
-772.405118
 20
-696.121074
 30
0.0
 10
-772.026612
 20
-697.470484
 30
0.0
 10
-771.311030
 20
-698.645690
 30
0.0
  0
SPLINE
  5
316
100
AcDbEntity
  8
Layer_1
 62
1
100
AcDbSpline
 70
8
 71
3
 72
8
 73
4
 74
0
 40
0
 40
0
 40
0
 40
0
 40
1
 40
1
 40
1
 40
1
 10
-771.311030
 20
-698.645690
 30
0.0
 10
-769.292563
 20
-701.960639
 30
0.0
 10
-768.282216
 20
-705.791265
 30
0.0
 10
-768.403180
 20
-709.670500
 30
0.0
  0
SPLINE
  5
317
100
AcDbEntity
  8
Layer_1
 62
1
100
AcDbSpline
 70
8
 71
3
 72
8
 73
4
 74
0
 40
0
 40
0
 40
0
 40
0
 40
1
 40
1
 40
1
 40
1
 10
-768.403180
 20
-709.670500
 30
0.0
 10
-768.436927
 20
-710.752467
 30
0.0
 10
-768.030712
 20
-711.801914
 30
0.0
 10
-767.277300
 20
-712.579192
 30
0.0
  0
SPLINE
  5
318
100
AcDbEntity
  8
Layer_1
 62
1
100
AcDbSpline
 70
8
 71
3
 72
8
 73
4
 74
0
 40
0
 40
0
 40
0
 40
0
 40
1
 40
1
 40
1
 40
1
 10
-767.277300
 20
-712.579192
 30
0.0
 10
-766.523887
 20
-713.356469
 30
0.0
 10
-765.487613
 20
-713.795201
 30
0.0
 10
-764.405120
 20
-713.795200
 30
0.0
  0
LINE
  5
319
100
AcDbEntity
  8
Layer_1
 62
1
100
AcDbLine
 10
-764.405120
 20
-713.795200
 30
0.0
 11
-764.405120
 21
-697.920150
 31
0.0
  0
LINE
  5
31a
100
AcDbEntity
  8
Layer_1
 62
1
100
AcDbLine
 10
-764.405120
 20
-697.920150
 30
0.0
 11
-761.235120
 21
-697.920150
 31
0.0
  0
LINE
  5
31b
100
AcDbEntity
  8
Layer_1
 62
1
100
AcDbLine
 10
-761.235120
 20
-697.920150
 30
0.0
 11
-761.235120
 21
-713.795200
 31
0.0
  0
SPLINE
  5
31c
100
AcDbEntity
  8
Layer_1
 62
1
100
AcDbSpline
 70
8
 71
3
 72
8
 73
4
 74
0
 40
0
 40
0
 40
0
 40
0
 40
1
 40
1
 40
1
 40
1
 10
-761.235120
 20
-713.795200
 30
0.0
 10
-760.152629
 20
-713.795198
 30
0.0
 10
-759.116357
 20
-713.356465
 30
0.0
 10
-758.362947
 20
-712.579188
 30
0.0
  0
SPLINE
  5
31d
100
AcDbEntity
  8
Layer_1
 62
1
100
AcDbSpline
 70
8
 71
3
 72
8
 73
4
 74
0
 40
0
 40
0
 40
0
 40
0
 40
1
 40
1
 40
1
 40
1
 10
-758.362947
 20
-712.579188
 30
0.0
 10
-757.609536
 20
-711.801911
 30
0.0
 10
-757.203323
 20
-710.752465
 30
0.0
 10
-757.237070
 20
-709.670500
 30
0.0
  0
SPLINE
  5
31e
100
AcDbEntity
  8
Layer_1
 62
1
100
AcDbSpline
 70
8
 71
3
 72
8
 73
4
 74
0
 40
0
 40
0
 40
0
 40
0
 40
1
 40
1
 40
1
 40
1
 10
-757.237070
 20
-709.670500
 30
0.0
 10
-757.358031
 20
-705.791264
 30
0.0
 10
-756.347681
 20
-701.960638
 30
0.0
 10
-754.329210
 20
-698.645690
 30
0.0
  0
SPLINE
  5
31f
100
AcDbEntity
  8
Layer_1
 62
1
100
AcDbSpline
 70
8
 71
3
 72
8
 73
4
 74
0
 40
0
 40
0
 40
0
 40
0
 40
1
 40
1
 40
1
 40
1
 10
-754.329210
 20
-698.645690
 30
0.0
 10
-753.613628
 20
-697.470484
 30
0.0
 10
-753.235122
 20
-696.121074
 30
0.0
 10
-753.235120
 20
-694.745150
 30
0.0
  0
LINE
  5
320
100
AcDbEntity
  8
Layer_1
 62
1
100
AcDbLine
 10
-753.235120
 20
-694.745150
 30
0.0
 11
-753.235120
 21
-694.745150
 31
0.0
  0
SPLINE
  5
321
100
AcDbEntity
  8
Layer_1
 62
1
100
AcDbSpline
 70
8
 71
3
 72
8
 73
4
 74
0
 40
0
 40
0
 40
0
 40
0
 40
1
 40
1
 40
1
 40
1
 10
-724.508930
 20
-693.989200
 30
0.0
 10
-724.508930
 20
-693.989200
 30
0.0
 10
-724.508930
 20
-681.289200
 30
0.0
 10
-724.508930
 20
-681.289200
 30
0.0
  0
SPLINE
  5
322
100
AcDbEntity
  8
Layer_1
 62
1
100
AcDbSpline
 70
8
 71
3
 72
8
 73
4
 74
0
 40
0
 40
0
 40
0
 40
0
 40
1
 40
1
 40
1
 40
1
 10
-724.508930
 20
-681.289200
 30
0.0
 10
-724.508931
 20
-679.913272
 30
0.0
 10
-724.887436
 20
-678.563859
 30
0.0
 10
-725.603020
 20
-677.388650
 30
0.0
  0
SPLINE
  5
323
100
AcDbEntity
  8
Layer_1
 62
1
100
AcDbSpline
 70
8
 71
3
 72
8
 73
4
 74
0
 40
0
 40
0
 40
0
 40
0
 40
1
 40
1
 40
1
 40
1
 10
-725.603020
 20
-677.388650
 30
0.0
 10
-727.621487
 20
-674.073707
 30
0.0
 10
-728.631837
 20
-670.243090
 30
0.0
 10
-728.510880
 20
-666.363860
 30
0.0
  0
SPLINE
  5
324
100
AcDbEntity
  8
Layer_1
 62
1
100
AcDbSpline
 70
8
 71
3
 72
8
 73
4
 74
0
 40
0
 40
0
 40
0
 40
0
 40
1
 40
1
 40
1
 40
1
 10
-728.510880
 20
-666.363860
 30
0.0
 10
-728.477144
 20
-665.281902
 30
0.0
 10
-728.883362
 20
-664.232466
 30
0.0
 10
-729.636772
 20
-663.455198
 30
0.0
  0
SPLINE
  5
325
100
AcDbEntity
  8
Layer_1
 62
1
100
AcDbSpline
 70
8
 71
3
 72
8
 73
4
 74
0
 40
0
 40
0
 40
0
 40
0
 40
1
 40
1
 40
1
 40
1
 10
-729.636772
 20
-663.455198
 30
0.0
 10
-730.390181
 20
-662.677930
 30
0.0
 10
-731.426446
 20
-662.239202
 30
0.0
 10
-732.508930
 20
-662.239200
 30
0.0
  0
LINE
  5
326
100
AcDbEntity
  8
Layer_1
 62
1
100
AcDbLine
 10
-732.508930
 20
-662.239200
 30
0.0
 11
-732.508930
 21
-678.114200
 31
0.0
  0
LINE
  5
327
100
AcDbEntity
  8
Layer_1
 62
1
100
AcDbLine
 10
-732.508930
 20
-678.114200
 30
0.0
 11
-735.678930
 21
-678.114200
 31
0.0
  0
SPLINE
  5
328
100
AcDbEntity
  8
Layer_1
 62
1
100
AcDbSpline
 70
8
 71
3
 72
8
 73
4
 74
0
 40
0
 40
0
 40
0
 40
0
 40
1
 40
1
 40
1
 40
1
 10
-735.678930
 20
-678.114200
 30
0.0
 10
-735.678930
 20
-678.114200
 30
0.0
 10
-735.678930
 20
-662.239200
 30
0.0
 10
-735.678930
 20
-662.239200
 30
0.0
  0
SPLINE
  5
329
100
AcDbEntity
  8
Layer_1
 62
1
100
AcDbSpline
 70
8
 71
3
 72
8
 73
4
 74
0
 40
0
 40
0
 40
0
 40
0
 40
1
 40
1
 40
1
 40
1
 10
-735.678930
 20
-662.239200
 30
0.0
 10
-736.761416
 20
-662.239199
 30
0.0
 10
-737.797684
 20
-662.677926
 30
0.0
 10
-738.551095
 20
-663.455195
 30
0.0
  0
SPLINE
  5
32a
100
AcDbEntity
  8
Layer_1
 62
1
100
AcDbSpline
 70
8
 71
3
 72
8
 73
4
 74
0
 40
0
 40
0
 40
0
 40
0
 40
1
 40
1
 40
1
 40
1
 10
-738.551095
 20
-663.455195
 30
0.0
 10
-739.304506
 20
-664.232463
 30
0.0
 10
-739.710726
 20
-665.281900
 30
0.0
 10
-739.676990
 20
-666.363860
 30
0.0
  0
SPLINE
  5
32b
100
AcDbEntity
  8
Layer_1
 62
1
100
AcDbSpline
 70
8
 71
3
 72
8
 73
4
 74
0
 40
0
 40
0
 40
0
 40
0
 40
1
 40
1
 40
1
 40
1
 10
-739.676990
 20
-666.363860
 30
0.0
 10
-739.556030
 20
-670.243089
 30
0.0
 10
-740.566377
 20
-674.073706
 30
0.0
 10
-742.584840
 20
-677.388650
 30
0.0
  0
SPLINE
  5
32c
100
AcDbEntity
  8
Layer_1
 62
1
100
AcDbSpline
 70
8
 71
3
 72
8
 73
4
 74
0
 40
0
 40
0
 40
0
 40
0
 40
1
 40
1
 40
1
 40
1
 10
-742.584840
 20
-677.388650
 30
0.0
 10
-743.300424
 20
-678.563859
 30
0.0
 10
-743.678929
 20
-679.913272
 30
0.0
 10
-743.678930
 20
-681.289200
 30
0.0
  0
SPLINE
  5
32d
100
AcDbEntity
  8
Layer_1
 62
1
100
AcDbSpline
 70
8
 71
3
 72
8
 73
4
 74
0
 40
0
 40
0
 40
0
 40
0
 40
1
 40
1
 40
1
 40
1
 10
-743.678930
 20
-681.289200
 30
0.0
 10
-743.678930
 20
-681.289200
 30
0.0
 10
-743.678930
 20
-693.989200
 30
0.0
 10
-743.678930
 20
-693.989200
 30
0.0
  0
SPLINE
  5
32e
100
AcDbEntity
  8
Layer_1
 62
1
100
AcDbSpline
 70
8
 71
3
 72
8
 73
4
 74
0
 40
0
 40
0
 40
0
 40
0
 40
1
 40
1
 40
1
 40
1
 10
-743.678930
 20
-693.989200
 30
0.0
 10
-743.678928
 20
-695.365124
 30
0.0
 10
-743.300422
 20
-696.714534
 30
0.0
 10
-742.584840
 20
-697.889740
 30
0.0
  0
SPLINE
  5
32f
100
AcDbEntity
  8
Layer_1
 62
1
100
AcDbSpline
 70
8
 71
3
 72
8
 73
4
 74
0
 40
0
 40
0
 40
0
 40
0
 40
1
 40
1
 40
1
 40
1
 10
-742.584840
 20
-697.889740
 30
0.0
 10
-740.566382
 20
-701.204675
 30
0.0
 10
-739.556036
 20
-705.035282
 30
0.0
 10
-739.676990
 20
-708.914500
 30
0.0
  0
SPLINE
  5
330
100
AcDbEntity
  8
Layer_1
 62
1
100
AcDbSpline
 70
8
 71
3
 72
8
 73
4
 74
0
 40
0
 40
0
 40
0
 40
0
 40
1
 40
1
 40
1
 40
1
 10
-739.676990
 20
-708.914500
 30
0.0
 10
-739.710737
 20
-709.996467
 30
0.0
 10
-739.304522
 20
-711.045914
 30
0.0
 10
-738.551110
 20
-711.823192
 30
0.0
  0
SPLINE
  5
331
100
AcDbEntity
  8
Layer_1
 62
1
100
AcDbSpline
 70
8
 71
3
 72
8
 73
4
 74
0
 40
0
 40
0
 40
0
 40
0
 40
1
 40
1
 40
1
 40
1
 10
-738.551110
 20
-711.823192
 30
0.0
 10
-737.797697
 20
-712.600469
 30
0.0
 10
-736.761423
 20
-713.039201
 30
0.0
 10
-735.678930
 20
-713.039200
 30
0.0
  0
LINE
  5
332
100
AcDbEntity
  8
Layer_1
 62
1
100
AcDbLine
 10
-735.678930
 20
-713.039200
 30
0.0
 11
-735.678930
 21
-697.164200
 31
0.0
  0
LINE
  5
333
100
AcDbEntity
  8
Layer_1
 62
1
100
AcDbLine
 10
-735.678930
 20
-697.164200
 30
0.0
 11
-732.508930
 21
-697.164200
 31
0.0
  0
SPLINE
  5
334
100
AcDbEntity
  8
Layer_1
 62
1
100
AcDbSpline
 70
8
 71
3
 72
8
 73
4
 74
0
 40
0
 40
0
 40
0
 40
0
 40
1
 40
1
 40
1
 40
1
 10
-732.508930
 20
-697.164200
 30
0.0
 10
-732.508930
 20
-697.164200
 30
0.0
 10
-732.508930
 20
-713.039200
 30
0.0
 10
-732.508930
 20
-713.039200
 30
0.0
  0
SPLINE
  5
335
100
AcDbEntity
  8
Layer_1
 62
1
100
AcDbSpline
 70
8
 71
3
 72
8
 73
4
 74
0
 40
0
 40
0
 40
0
 40
0
 40
1
 40
1
 40
1
 40
1
 10
-732.508930
 20
-713.039200
 30
0.0
 10
-731.426439
 20
-713.039198
 30
0.0
 10
-730.390167
 20
-712.600465
 30
0.0
 10
-729.636757
 20
-711.823188
 30
0.0
  0
SPLINE
  5
336
100
AcDbEntity
  8
Layer_1
 62
1
100
AcDbSpline
 70
8
 71
3
 72
8
 73
4
 74
0
 40
0
 40
0
 40
0
 40
0
 40
1
 40
1
 40
1
 40
1
 10
-729.636757
 20
-711.823188
 30
0.0
 10
-728.883346
 20
-711.045911
 30
0.0
 10
-728.477133
 20
-709.996465
 30
0.0
 10
-728.510880
 20
-708.914500
 30
0.0
  0
SPLINE
  5
337
100
AcDbEntity
  8
Layer_1
 62
1
100
AcDbSpline
 70
8
 71
3
 72
8
 73
4
 74
0
 40
0
 40
0
 40
0
 40
0
 40
1
 40
1
 40
1
 40
1
 10
-728.510880
 20
-708.914500
 30
0.0
 10
-728.631831
 20
-705.035281
 30
0.0
 10
-727.621481
 20
-701.204674
 30
0.0
 10
-725.603020
 20
-697.889740
 30
0.0
  0
SPLINE
  5
338
100
AcDbEntity
  8
Layer_1
 62
1
100
AcDbSpline
 70
8
 71
3
 72
8
 73
4
 74
0
 40
0
 40
0
 40
0
 40
0
 40
1
 40
1
 40
1
 40
1
 10
-725.603020
 20
-697.889740
 30
0.0
 10
-724.887438
 20
-696.714534
 30
0.0
 10
-724.508932
 20
-695.365124
 30
0.0
 10
-724.508930
 20
-693.989200
 30
0.0
  0
LINE
  5
339
100
AcDbEntity
  8
Layer_1
 62
1
100
AcDbLine
 10
-724.508930
 20
-693.989200
 30
0.0
 11
-724.508930
 21
-693.989200
 31
0.0
  0
LINE
  5
33a
100
AcDbEntity
  8
Layer_1
 62
1
100
AcDbLine
 10
-856.039331
 20
-715.197640
 30
0.0
 11
-852.869332
 21
-715.197640
 31
0.0
  0
LINE
  5
33b
100
AcDbEntity
  8
Layer_1
 62
1
100
AcDbLine
 10
-852.869332
 20
-715.197640
 30
0.0
 11
-852.869332
 21
-705.672640
 31
0.0
  0
LINE
  5
33c
100
AcDbEntity
  8
Layer_1
 62
1
100
AcDbLine
 10
-852.869332
 20
-705.672640
 30
0.0
 11
-849.699333
 21
-705.672640
 31
0.0
  0
LINE
  5
33d
100
AcDbEntity
  8
Layer_1
 62
1
100
AcDbLine
 10
-849.699333
 20
-705.672640
 30
0.0
 11
-849.699333
 21
-715.197640
 31
0.0
  0
LINE
  5
33e
100
AcDbEntity
  8
Layer_1
 62
1
100
AcDbLine
 10
-849.699333
 20
-715.197640
 30
0.0
 11
-846.529333
 21
-715.197640
 31
0.0
  0
LINE
  5
33f
100
AcDbEntity
  8
Layer_1
 62
1
100
AcDbLine
 10
-846.529333
 20
-715.197640
 30
0.0
 11
-846.529333
 21
-721.547640
 31
0.0
  0
LINE
  5
340
100
AcDbEntity
  8
Layer_1
 62
1
100
AcDbLine
 10
-846.529333
 20
-721.547640
 30
0.0
 11
-849.699333
 21
-721.547640
 31
0.0
  0
LINE
  5
341
100
AcDbEntity
  8
Layer_1
 62
1
100
AcDbLine
 10
-849.699333
 20
-721.547640
 30
0.0
 11
-849.699333
 21
-727.897640
 31
0.0
  0
SPLINE
  5
342
100
AcDbEntity
  8
Layer_1
 62
1
100
AcDbSpline
 70
8
 71
3
 72
8
 73
4
 74
0
 40
0
 40
0
 40
0
 40
0
 40
1
 40
1
 40
1
 40
1
 10
-849.699333
 20
-727.897640
 30
0.0
 10
-848.108032
 20
-727.897640
 30
0.0
 10
-846.581907
 20
-727.265498
 30
0.0
 10
-845.456688
 20
-726.140278
 30
0.0
  0
SPLINE
  5
343
100
AcDbEntity
  8
Layer_1
 62
1
100
AcDbSpline
 70
8
 71
3
 72
8
 73
4
 74
0
 40
0
 40
0
 40
0
 40
0
 40
1
 40
1
 40
1
 40
1
 10
-845.456688
 20
-726.140278
 30
0.0
 10
-844.331469
 20
-725.015057
 30
0.0
 10
-843.699329
 20
-723.488931
 30
0.0
 10
-843.699332
 20
-721.897630
 30
0.0
  0
SPLINE
  5
344
100
AcDbEntity
  8
Layer_1
 62
1
100
AcDbSpline
 70
8
 71
3
 72
8
 73
4
 74
0
 40
0
 40
0
 40
0
 40
0
 40
1
 40
1
 40
1
 40
1
 10
-843.699332
 20
-721.897630
 30
0.0
 10
-843.699331
 20
-715.893616
 30
0.0
 10
-843.081999
 20
-709.905513
 30
0.0
 10
-841.857077
 20
-704.027780
 30
0.0
  0
SPLINE
  5
345
100
AcDbEntity
  8
Layer_1
 62
1
100
AcDbSpline
 70
8
 71
3
 72
8
 73
4
 74
0
 40
0
 40
0
 40
0
 40
0
 40
1
 40
1
 40
1
 40
1
 10
-841.857077
 20
-704.027780
 30
0.0
 10
-841.752191
 20
-703.524488
 30
0.0
 10
-841.699332
 20
-703.011745
 30
0.0
 10
-841.699333
 20
-702.497640
 30
0.0
  0
SPLINE
  5
346
100
AcDbEntity
  8
Layer_1
 62
1
100
AcDbSpline
 70
8
 71
3
 72
8
 73
4
 74
0
 40
0
 40
0
 40
0
 40
0
 40
1
 40
1
 40
1
 40
1
 10
-841.699333
 20
-702.497640
 30
0.0
 10
-841.699333
 20
-702.497640
 30
0.0
 10
-841.699333
 20
-689.797640
 30
0.0
 10
-841.699333
 20
-689.797640
 30
0.0
  0
SPLINE
  5
347
100
AcDbEntity
  8
Layer_1
 62
1
100
AcDbSpline
 70
8
 71
3
 72
8
 73
4
 74
0
 40
0
 40
0
 40
0
 40
0
 40
1
 40
1
 40
1
 40
1
 10
-841.699333
 20
-689.797640
 30
0.0
 10
-841.699332
 20
-689.283535
 30
0.0
 10
-841.752191
 20
-688.770792
 30
0.0
 10
-841.857077
 20
-688.267500
 30
0.0
  0
SPLINE
  5
348
100
AcDbEntity
  8
Layer_1
 62
1
100
AcDbSpline
 70
8
 71
3
 72
8
 73
4
 74
0
 40
0
 40
0
 40
0
 40
0
 40
1
 40
1
 40
1
 40
1
 10
-841.857077
 20
-688.267500
 30
0.0
 10
-843.081999
 20
-682.389767
 30
0.0
 10
-843.699331
 20
-676.401664
 30
0.0
 10
-843.699332
 20
-670.397650
 30
0.0
  0
SPLINE
  5
349
100
AcDbEntity
  8
Layer_1
 62
1
100
AcDbSpline
 70
8
 71
3
 72
8
 73
4
 74
0
 40
0
 40
0
 40
0
 40
0
 40
1
 40
1
 40
1
 40
1
 10
-843.699332
 20
-670.397650
 30
0.0
 10
-843.699329
 20
-668.806349
 30
0.0
 10
-844.331469
 20
-667.280223
 30
0.0
 10
-845.456688
 20
-666.155002
 30
0.0
  0
SPLINE
  5
34a
100
AcDbEntity
  8
Layer_1
 62
1
100
AcDbSpline
 70
8
 71
3
 72
8
 73
4
 74
0
 40
0
 40
0
 40
0
 40
0
 40
1
 40
1
 40
1
 40
1
 10
-845.456688
 20
-666.155002
 30
0.0
 10
-846.581907
 20
-665.029782
 30
0.0
 10
-848.108032
 20
-664.397640
 30
0.0
 10
-849.699333
 20
-664.397640
 30
0.0
  0
LINE
  5
34b
100
AcDbEntity
  8
Layer_1
 62
1
100
AcDbLine
 10
-849.699333
 20
-664.397640
 30
0.0
 11
-849.699333
 21
-686.622640
 31
0.0
  0
LINE
  5
34c
100
AcDbEntity
  8
Layer_1
 62
1
100
AcDbLine
 10
-849.699333
 20
-686.622640
 30
0.0
 11
-852.869332
 21
-686.622640
 31
0.0
  0
LINE
  5
34d
100
AcDbEntity
  8
Layer_1
 62
1
100
AcDbLine
 10
-852.869332
 20
-686.622640
 30
0.0
 11
-852.869332
 21
-664.397640
 31
0.0
  0
SPLINE
  5
34e
100
AcDbEntity
  8
Layer_1
 62
1
100
AcDbSpline
 70
8
 71
3
 72
8
 73
4
 74
0
 40
0
 40
0
 40
0
 40
0
 40
1
 40
1
 40
1
 40
1
 10
-852.869332
 20
-664.397640
 30
0.0
 10
-854.460633
 20
-664.397640
 30
0.0
 10
-855.986758
 20
-665.029782
 30
0.0
 10
-857.111977
 20
-666.155002
 30
0.0
  0
SPLINE
  5
34f
100
AcDbEntity
  8
Layer_1
 62
1
100
AcDbSpline
 70
8
 71
3
 72
8
 73
4
 74
0
 40
0
 40
0
 40
0
 40
0
 40
1
 40
1
 40
1
 40
1
 10
-857.111977
 20
-666.155002
 30
0.0
 10
-858.237196
 20
-667.280223
 30
0.0
 10
-858.869336
 20
-668.806349
 30
0.0
 10
-858.869333
 20
-670.397650
 30
0.0
  0
SPLINE
  5
350
100
AcDbEntity
  8
Layer_1
 62
1
100
AcDbSpline
 70
8
 71
3
 72
8
 73
4
 74
0
 40
0
 40
0
 40
0
 40
0
 40
1
 40
1
 40
1
 40
1
 10
-858.869333
 20
-670.397650
 30
0.0
 10
-858.869334
 20
-676.401664
 30
0.0
 10
-859.486665
 20
-682.389767
 30
0.0
 10
-860.711587
 20
-688.267500
 30
0.0
  0
SPLINE
  5
351
100
AcDbEntity
  8
Layer_1
 62
1
100
AcDbSpline
 70
8
 71
3
 72
8
 73
4
 74
0
 40
0
 40
0
 40
0
 40
0
 40
1
 40
1
 40
1
 40
1
 10
-860.711587
 20
-688.267500
 30
0.0
 10
-860.816473
 20
-688.770792
 30
0.0
 10
-860.869333
 20
-689.283535
 30
0.0
 10
-860.869332
 20
-689.797640
 30
0.0
  0
SPLINE
  5
352
100
AcDbEntity
  8
Layer_1
 62
1
100
AcDbSpline
 70
8
 71
3
 72
8
 73
4
 74
0
 40
0
 40
0
 40
0
 40
0
 40
1
 40
1
 40
1
 40
1
 10
-860.869332
 20
-689.797640
 30
0.0
 10
-860.869332
 20
-689.797640
 30
0.0
 10
-860.869332
 20
-702.497640
 30
0.0
 10
-860.869332
 20
-702.497640
 30
0.0
  0
SPLINE
  5
353
100
AcDbEntity
  8
Layer_1
 62
1
100
AcDbSpline
 70
8
 71
3
 72
8
 73
4
 74
0
 40
0
 40
0
 40
0
 40
0
 40
1
 40
1
 40
1
 40
1
 10
-860.869332
 20
-702.497640
 30
0.0
 10
-860.869333
 20
-703.011745
 30
0.0
 10
-860.816473
 20
-703.524488
 30
0.0
 10
-860.711587
 20
-704.027780
 30
0.0
  0
SPLINE
  5
354
100
AcDbEntity
  8
Layer_1
 62
1
100
AcDbSpline
 70
8
 71
3
 72
8
 73
4
 74
0
 40
0
 40
0
 40
0
 40
0
 40
1
 40
1
 40
1
 40
1
 10
-860.711587
 20
-704.027780
 30
0.0
 10
-859.486665
 20
-709.905513
 30
0.0
 10
-858.869334
 20
-715.893616
 30
0.0
 10
-858.869333
 20
-721.897630
 30
0.0
  0
SPLINE
  5
355
100
AcDbEntity
  8
Layer_1
 62
1
100
AcDbSpline
 70
8
 71
3
 72
8
 73
4
 74
0
 40
0
 40
0
 40
0
 40
0
 40
1
 40
1
 40
1
 40
1
 10
-858.869333
 20
-721.897630
 30
0.0
 10
-858.869336
 20
-723.488931
 30
0.0
 10
-858.237196
 20
-725.015057
 30
0.0
 10
-857.111977
 20
-726.140278
 30
0.0
  0
SPLINE
  5
356
100
AcDbEntity
  8
Layer_1
 62
1
100
AcDbSpline
 70
8
 71
3
 72
8
 73
4
 74
0
 40
0
 40
0
 40
0
 40
0
 40
1
 40
1
 40
1
 40
1
 10
-857.111977
 20
-726.140278
 30
0.0
 10
-855.986758
 20
-727.265498
 30
0.0
 10
-854.460633
 20
-727.897640
 30
0.0
 10
-852.869332
 20
-727.897640
 30
0.0
  0
LINE
  5
357
100
AcDbEntity
  8
Layer_1
 62
1
100
AcDbLine
 10
-852.869332
 20
-727.897640
 30
0.0
 11
-852.869332
 21
-721.547640
 31
0.0
  0
LINE
  5
358
100
AcDbEntity
  8
Layer_1
 62
1
100
AcDbLine
 10
-852.869332
 20
-721.547640
 30
0.0
 11
-856.039331
 21
-721.547640
 31
0.0
  0
LINE
  5
359
100
AcDbEntity
  8
Layer_1
 62
1
100
AcDbLine
 10
-856.039331
 20
-721.547640
 30
0.0
 11
-856.039331
 21
-715.197640
 31
0.0
  0
LINE
  5
35a
100
AcDbEntity
  8
Layer_1
 62
1
100
AcDbLine
 10
-852.869332
 20
-702.497640
 30
0.0
 11
-856.039331
 21
-702.497640
 31
0.0
  0
LINE
  5
35b
100
AcDbEntity
  8
Layer_1
 62
1
100
AcDbLine
 10
-856.039331
 20
-702.497640
 30
0.0
 11
-856.039331
 21
-696.147640
 31
0.0
  0
LINE
  5
35c
100
AcDbEntity
  8
Layer_1
 62
1
100
AcDbLine
 10
-856.039331
 20
-696.147640
 30
0.0
 11
-852.869332
 21
-696.147640
 31
0.0
  0
LINE
  5
35d
100
AcDbEntity
  8
Layer_1
 62
1
100
AcDbLine
 10
-852.869332
 20
-696.147640
 30
0.0
 11
-852.869332
 21
-702.497640
 31
0.0
  0
LINE
  5
35e
100
AcDbEntity
  8
Layer_1
 62
1
100
AcDbLine
 10
-849.699333
 20
-702.497640
 30
0.0
 11
-849.699333
 21
-696.147640
 31
0.0
  0
LINE
  5
35f
100
AcDbEntity
  8
Layer_1
 62
1
100
AcDbLine
 10
-849.699333
 20
-696.147640
 30
0.0
 11
-846.529333
 21
-696.147640
 31
0.0
  0
LINE
  5
360
100
AcDbEntity
  8
Layer_1
 62
1
100
AcDbLine
 10
-846.529333
 20
-696.147640
 30
0.0
 11
-846.529333
 21
-702.497640
 31
0.0
  0
LINE
  5
361
100
AcDbEntity
  8
Layer_1
 62
1
100
AcDbLine
 10
-846.529333
 20
-702.497640
 30
0.0
 11
-849.699333
 21
-702.497640
 31
0.0
  0
LINE
  5
362
100
AcDbEntity
  8
Layer_1
 62
1
100
AcDbLine
 10
-826.105141
 20
-715.197640
 30
0.0
 11
-822.935142
 21
-715.197640
 31
0.0
  0
LINE
  5
363
100
AcDbEntity
  8
Layer_1
 62
1
100
AcDbLine
 10
-822.935142
 20
-715.197640
 30
0.0
 11
-822.935142
 21
-705.672640
 31
0.0
  0
LINE
  5
364
100
AcDbEntity
  8
Layer_1
 62
1
100
AcDbLine
 10
-822.935142
 20
-705.672640
 30
0.0
 11
-819.765143
 21
-705.672640
 31
0.0
  0
LINE
  5
365
100
AcDbEntity
  8
Layer_1
 62
1
100
AcDbLine
 10
-819.765143
 20
-705.672640
 30
0.0
 11
-819.765143
 21
-715.197640
 31
0.0
  0
LINE
  5
366
100
AcDbEntity
  8
Layer_1
 62
1
100
AcDbLine
 10
-819.765143
 20
-715.197640
 30
0.0
 11
-816.595143
 21
-715.197640
 31
0.0
  0
LINE
  5
367
100
AcDbEntity
  8
Layer_1
 62
1
100
AcDbLine
 10
-816.595143
 20
-715.197640
 30
0.0
 11
-816.595143
 21
-721.547640
 31
0.0
  0
LINE
  5
368
100
AcDbEntity
  8
Layer_1
 62
1
100
AcDbLine
 10
-816.595143
 20
-721.547640
 30
0.0
 11
-819.765143
 21
-721.547640
 31
0.0
  0
LINE
  5
369
100
AcDbEntity
  8
Layer_1
 62
1
100
AcDbLine
 10
-819.765143
 20
-721.547640
 30
0.0
 11
-819.765143
 21
-727.897640
 31
0.0
  0
SPLINE
  5
36a
100
AcDbEntity
  8
Layer_1
 62
1
100
AcDbSpline
 70
8
 71
3
 72
8
 73
4
 74
0
 40
0
 40
0
 40
0
 40
0
 40
1
 40
1
 40
1
 40
1
 10
-819.765143
 20
-727.897640
 30
0.0
 10
-818.173842
 20
-727.897640
 30
0.0
 10
-816.647717
 20
-727.265498
 30
0.0
 10
-815.522498
 20
-726.140278
 30
0.0
  0
SPLINE
  5
36b
100
AcDbEntity
  8
Layer_1
 62
1
100
AcDbSpline
 70
8
 71
3
 72
8
 73
4
 74
0
 40
0
 40
0
 40
0
 40
0
 40
1
 40
1
 40
1
 40
1
 10
-815.522498
 20
-726.140278
 30
0.0
 10
-814.397279
 20
-725.015057
 30
0.0
 10
-813.765139
 20
-723.488931
 30
0.0
 10
-813.765142
 20
-721.897630
 30
0.0
  0
SPLINE
  5
36c
100
AcDbEntity
  8
Layer_1
 62
1
100
AcDbSpline
 70
8
 71
3
 72
8
 73
4
 74
0
 40
0
 40
0
 40
0
 40
0
 40
1
 40
1
 40
1
 40
1
 10
-813.765142
 20
-721.897630
 30
0.0
 10
-813.765141
 20
-715.893616
 30
0.0
 10
-813.147809
 20
-709.905513
 30
0.0
 10
-811.922887
 20
-704.027780
 30
0.0
  0
SPLINE
  5
36d
100
AcDbEntity
  8
Layer_1
 62
1
100
AcDbSpline
 70
8
 71
3
 72
8
 73
4
 74
0
 40
0
 40
0
 40
0
 40
0
 40
1
 40
1
 40
1
 40
1
 10
-811.922887
 20
-704.027780
 30
0.0
 10
-811.818001
 20
-703.524488
 30
0.0
 10
-811.765142
 20
-703.011745
 30
0.0
 10
-811.765143
 20
-702.497640
 30
0.0
  0
SPLINE
  5
36e
100
AcDbEntity
  8
Layer_1
 62
1
100
AcDbSpline
 70
8
 71
3
 72
8
 73
4
 74
0
 40
0
 40
0
 40
0
 40
0
 40
1
 40
1
 40
1
 40
1
 10
-811.765143
 20
-702.497640
 30
0.0
 10
-811.765143
 20
-702.497640
 30
0.0
 10
-811.765143
 20
-689.797640
 30
0.0
 10
-811.765143
 20
-689.797640
 30
0.0
  0
SPLINE
  5
36f
100
AcDbEntity
  8
Layer_1
 62
1
100
AcDbSpline
 70
8
 71
3
 72
8
 73
4
 74
0
 40
0
 40
0
 40
0
 40
0
 40
1
 40
1
 40
1
 40
1
 10
-811.765143
 20
-689.797640
 30
0.0
 10
-811.765142
 20
-689.283535
 30
0.0
 10
-811.818001
 20
-688.770792
 30
0.0
 10
-811.922887
 20
-688.267500
 30
0.0
  0
SPLINE
  5
370
100
AcDbEntity
  8
Layer_1
 62
1
100
AcDbSpline
 70
8
 71
3
 72
8
 73
4
 74
0
 40
0
 40
0
 40
0
 40
0
 40
1
 40
1
 40
1
 40
1
 10
-811.922887
 20
-688.267500
 30
0.0
 10
-813.147809
 20
-682.389767
 30
0.0
 10
-813.765141
 20
-676.401664
 30
0.0
 10
-813.765142
 20
-670.397650
 30
0.0
  0
SPLINE
  5
371
100
AcDbEntity
  8
Layer_1
 62
1
100
AcDbSpline
 70
8
 71
3
 72
8
 73
4
 74
0
 40
0
 40
0
 40
0
 40
0
 40
1
 40
1
 40
1
 40
1
 10
-813.765142
 20
-670.397650
 30
0.0
 10
-813.765139
 20
-668.806349
 30
0.0
 10
-814.397279
 20
-667.280223
 30
0.0
 10
-815.522498
 20
-666.155002
 30
0.0
  0
SPLINE
  5
372
100
AcDbEntity
  8
Layer_1
 62
1
100
AcDbSpline
 70
8
 71
3
 72
8
 73
4
 74
0
 40
0
 40
0
 40
0
 40
0
 40
1
 40
1
 40
1
 40
1
 10
-815.522498
 20
-666.155002
 30
0.0
 10
-816.647717
 20
-665.029782
 30
0.0
 10
-818.173842
 20
-664.397640
 30
0.0
 10
-819.765143
 20
-664.397640
 30
0.0
  0
LINE
  5
373
100
AcDbEntity
  8
Layer_1
 62
1
100
AcDbLine
 10
-819.765143
 20
-664.397640
 30
0.0
 11
-819.765143
 21
-686.622640
 31
0.0
  0
LINE
  5
374
100
AcDbEntity
  8
Layer_1
 62
1
100
AcDbLine
 10
-819.765143
 20
-686.622640
 30
0.0
 11
-822.935142
 21
-686.622640
 31
0.0
  0
LINE
  5
375
100
AcDbEntity
  8
Layer_1
 62
1
100
AcDbLine
 10
-822.935142
 20
-686.622640
 30
0.0
 11
-822.935142
 21
-664.397640
 31
0.0
  0
SPLINE
  5
376
100
AcDbEntity
  8
Layer_1
 62
1
100
AcDbSpline
 70
8
 71
3
 72
8
 73
4
 74
0
 40
0
 40
0
 40
0
 40
0
 40
1
 40
1
 40
1
 40
1
 10
-822.935142
 20
-664.397640
 30
0.0
 10
-824.526443
 20
-664.397640
 30
0.0
 10
-826.052568
 20
-665.029782
 30
0.0
 10
-827.177787
 20
-666.155002
 30
0.0
  0
SPLINE
  5
377
100
AcDbEntity
  8
Layer_1
 62
1
100
AcDbSpline
 70
8
 71
3
 72
8
 73
4
 74
0
 40
0
 40
0
 40
0
 40
0
 40
1
 40
1
 40
1
 40
1
 10
-827.177787
 20
-666.155002
 30
0.0
 10
-828.303006
 20
-667.280223
 30
0.0
 10
-828.935146
 20
-668.806349
 30
0.0
 10
-828.935143
 20
-670.397650
 30
0.0
  0
SPLINE
  5
378
100
AcDbEntity
  8
Layer_1
 62
1
100
AcDbSpline
 70
8
 71
3
 72
8
 73
4
 74
0
 40
0
 40
0
 40
0
 40
0
 40
1
 40
1
 40
1
 40
1
 10
-828.935143
 20
-670.397650
 30
0.0
 10
-828.935144
 20
-676.401664
 30
0.0
 10
-829.552475
 20
-682.389767
 30
0.0
 10
-830.777397
 20
-688.267500
 30
0.0
  0
SPLINE
  5
379
100
AcDbEntity
  8
Layer_1
 62
1
100
AcDbSpline
 70
8
 71
3
 72
8
 73
4
 74
0
 40
0
 40
0
 40
0
 40
0
 40
1
 40
1
 40
1
 40
1
 10
-830.777397
 20
-688.267500
 30
0.0
 10
-830.882283
 20
-688.770792
 30
0.0
 10
-830.935143
 20
-689.283535
 30
0.0
 10
-830.935142
 20
-689.797640
 30
0.0
  0
SPLINE
  5
37a
100
AcDbEntity
  8
Layer_1
 62
1
100
AcDbSpline
 70
8
 71
3
 72
8
 73
4
 74
0
 40
0
 40
0
 40
0
 40
0
 40
1
 40
1
 40
1
 40
1
 10
-830.935142
 20
-689.797640
 30
0.0
 10
-830.935142
 20
-689.797640
 30
0.0
 10
-830.935142
 20
-702.497640
 30
0.0
 10
-830.935142
 20
-702.497640
 30
0.0
  0
SPLINE
  5
37b
100
AcDbEntity
  8
Layer_1
 62
1
100
AcDbSpline
 70
8
 71
3
 72
8
 73
4
 74
0
 40
0
 40
0
 40
0
 40
0
 40
1
 40
1
 40
1
 40
1
 10
-830.935142
 20
-702.497640
 30
0.0
 10
-830.935143
 20
-703.011745
 30
0.0
 10
-830.882283
 20
-703.524488
 30
0.0
 10
-830.777397
 20
-704.027780
 30
0.0
  0
SPLINE
  5
37c
100
AcDbEntity
  8
Layer_1
 62
1
100
AcDbSpline
 70
8
 71
3
 72
8
 73
4
 74
0
 40
0
 40
0
 40
0
 40
0
 40
1
 40
1
 40
1
 40
1
 10
-830.777397
 20
-704.027780
 30
0.0
 10
-829.552475
 20
-709.905513
 30
0.0
 10
-828.935144
 20
-715.893616
 30
0.0
 10
-828.935143
 20
-721.897630
 30
0.0
  0
SPLINE
  5
37d
100
AcDbEntity
  8
Layer_1
 62
1
100
AcDbSpline
 70
8
 71
3
 72
8
 73
4
 74
0
 40
0
 40
0
 40
0
 40
0
 40
1
 40
1
 40
1
 40
1
 10
-828.935143
 20
-721.897630
 30
0.0
 10
-828.935146
 20
-723.488931
 30
0.0
 10
-828.303006
 20
-725.015057
 30
0.0
 10
-827.177787
 20
-726.140278
 30
0.0
  0
SPLINE
  5
37e
100
AcDbEntity
  8
Layer_1
 62
1
100
AcDbSpline
 70
8
 71
3
 72
8
 73
4
 74
0
 40
0
 40
0
 40
0
 40
0
 40
1
 40
1
 40
1
 40
1
 10
-827.177787
 20
-726.140278
 30
0.0
 10
-826.052568
 20
-727.265498
 30
0.0
 10
-824.526443
 20
-727.897640
 30
0.0
 10
-822.935142
 20
-727.897640
 30
0.0
  0
LINE
  5
37f
100
AcDbEntity
  8
Layer_1
 62
1
100
AcDbLine
 10
-822.935142
 20
-727.897640
 30
0.0
 11
-822.935142
 21
-721.547640
 31
0.0
  0
LINE
  5
380
100
AcDbEntity
  8
Layer_1
 62
1
100
AcDbLine
 10
-822.935142
 20
-721.547640
 30
0.0
 11
-826.105141
 21
-721.547640
 31
0.0
  0
LINE
  5
381
100
AcDbEntity
  8
Layer_1
 62
1
100
AcDbLine
 10
-826.105141
 20
-721.547640
 30
0.0
 11
-826.105141
 21
-715.197640
 31
0.0
  0
LINE
  5
382
100
AcDbEntity
  8
Layer_1
 62
1
100
AcDbLine
 10
-822.935142
 20
-702.497640
 30
0.0
 11
-826.105141
 21
-702.497640
 31
0.0
  0
LINE
  5
383
100
AcDbEntity
  8
Layer_1
 62
1
100
AcDbLine
 10
-826.105141
 20
-702.497640
 30
0.0
 11
-826.105141
 21
-696.147640
 31
0.0
  0
LINE
  5
384
100
AcDbEntity
  8
Layer_1
 62
1
100
AcDbLine
 10
-826.105141
 20
-696.147640
 30
0.0
 11
-822.935142
 21
-696.147640
 31
0.0
  0
LINE
  5
385
100
AcDbEntity
  8
Layer_1
 62
1
100
AcDbLine
 10
-822.935142
 20
-696.147640
 30
0.0
 11
-822.935142
 21
-702.497640
 31
0.0
  0
LINE
  5
386
100
AcDbEntity
  8
Layer_1
 62
1
100
AcDbLine
 10
-819.765143
 20
-702.497640
 30
0.0
 11
-819.765143
 21
-696.147640
 31
0.0
  0
LINE
  5
387
100
AcDbEntity
  8
Layer_1
 62
1
100
AcDbLine
 10
-819.765143
 20
-696.147640
 30
0.0
 11
-816.595143
 21
-696.147640
 31
0.0
  0
LINE
  5
388
100
AcDbEntity
  8
Layer_1
 62
1
100
AcDbLine
 10
-816.595143
 20
-696.147640
 30
0.0
 11
-816.595143
 21
-702.497640
 31
0.0
  0
LINE
  5
389
100
AcDbEntity
  8
Layer_1
 62
1
100
AcDbLine
 10
-816.595143
 20
-702.497640
 30
0.0
 11
-819.765143
 21
-702.497640
 31
0.0
  0
SPLINE
  5
38a
100
AcDbEntity
  8
Layer_1
 62
1
100
AcDbSpline
 70
8
 71
3
 72
8
 73
4
 74
0
 40
0
 40
0
 40
0
 40
0
 40
1
 40
1
 40
1
 40
1
 10
-426.509840
 20
-541.729380
 30
0.0
 10
-424.960840
 20
-535.349080
 30
0.0
 10
-423.293910
 20
-528.998000
 30
0.0
 10
-421.509880
 20
-522.679380
 30
0.0
  0
LINE
  5
38b
100
AcDbEntity
  8
Layer_1
 62
1
100
AcDbLine
 10
-421.509880
 20
-522.679380
 30
0.0
 11
-434.209880
 21
-522.679380
 31
0.0
  0
SPLINE
  5
38c
100
AcDbEntity
  8
Layer_1
 62
1
100
AcDbSpline
 70
8
 71
3
 72
8
 73
4
 74
0
 40
0
 40
0
 40
0
 40
0
 40
1
 40
1
 40
1
 40
1
 10
-434.209880
 20
-522.679380
 30
0.0
 10
-438.261500
 20
-522.679380
 30
0.0
 10
-442.237500
 20
-521.582200
 30
0.0
 10
-445.715740
 20
-519.504380
 30
0.0
  0
SPLINE
  5
38d
100
AcDbEntity
  8
Layer_1
 62
1
100
AcDbSpline
 70
8
 71
3
 72
8
 73
4
 74
0
 40
0
 40
0
 40
0
 40
0
 40
1
 40
1
 40
1
 40
1
 10
-445.715740
 20
-519.504380
 30
0.0
 10
-449.193970
 20
-517.426520
 30
0.0
 10
-453.170000
 20
-516.329380
 30
0.0
 10
-457.221620
 20
-516.329380
 30
0.0
  0
LINE
  5
38e
100
AcDbEntity
  8
Layer_1
 62
1
100
AcDbLine
 10
-457.221620
 20
-516.329380
 30
0.0
 11
-460.391620
 21
-516.329380
 31
0.0
  0
LINE
  5
38f
100
AcDbEntity
  8
Layer_1
 62
1
100
AcDbLine
 10
-460.391620
 20
-516.329380
 30
0.0
 11
-460.391620
 21
-522.679380
 31
0.0
  0
LINE
  5
390
100
AcDbEntity
  8
Layer_1
 62
1
100
AcDbLine
 10
-460.391620
 20
-522.679380
 30
0.0
 11
-457.221620
 21
-522.679380
 31
0.0
  0
LINE
  5
391
100
AcDbEntity
  8
Layer_1
 62
1
100
AcDbLine
 10
-457.221620
 20
-522.679380
 30
0.0
 11
-457.221620
 21
-535.379380
 31
0.0
  0
LINE
  5
392
100
AcDbEntity
  8
Layer_1
 62
1
100
AcDbLine
 10
-457.221620
 20
-535.379380
 30
0.0
 11
-460.391620
 21
-535.379380
 31
0.0
  0
LINE
  5
393
100
AcDbEntity
  8
Layer_1
 62
1
100
AcDbLine
 10
-460.391620
 20
-535.379380
 30
0.0
 11
-460.391620
 21
-541.729380
 31
0.0
  0
LINE
  5
394
100
AcDbEntity
  8
Layer_1
 62
1
100
AcDbLine
 10
-460.391620
 20
-541.729380
 30
0.0
 11
-460.391620
 21
-541.729380
 31
0.0
  0
LINE
  5
395
100
AcDbEntity
  8
Layer_1
 62
1
100
AcDbLine
 10
-460.391620
 20
-541.729380
 30
0.0
 11
-430.452980
 21
-541.729380
 31
0.0
  0
LINE
  5
396
100
AcDbEntity
  8
Layer_1
 62
1
100
AcDbLine
 10
-430.452980
 20
-541.729380
 30
0.0
 11
-427.282980
 21
-541.729380
 31
0.0
  0
LINE
  5
397
100
AcDbEntity
  8
Layer_1
 62
1
100
AcDbLine
 10
-427.282980
 20
-541.729380
 30
0.0
 11
-426.509840
 21
-541.729380
 31
0.0
  0
SPLINE
  5
398
100
AcDbEntity
  8
Layer_1
 62
1
100
AcDbSpline
 70
8
 71
3
 72
8
 73
4
 74
0
 40
0
 40
0
 40
0
 40
0
 40
1
 40
1
 40
1
 40
1
 10
-455.683630
 20
-543.921630
 30
0.0
 10
-457.232640
 20
-550.301930
 30
0.0
 10
-458.899560
 20
-556.653010
 30
0.0
 10
-460.683600
 20
-562.971630
 30
0.0
  0
LINE
  5
399
100
AcDbEntity
  8
Layer_1
 62
1
100
AcDbLine
 10
-460.683600
 20
-562.971630
 30
0.0
 11
-447.983600
 21
-562.971630
 31
0.0
  0
SPLINE
  5
39a
100
AcDbEntity
  8
Layer_1
 62
1
100
AcDbSpline
 70
8
 71
3
 72
8
 73
4
 74
0
 40
0
 40
0
 40
0
 40
0
 40
1
 40
1
 40
1
 40
1
 10
-447.983600
 20
-562.971630
 30
0.0
 10
-443.931980
 20
-562.971630
 30
0.0
 10
-439.955980
 20
-564.068810
 30
0.0
 10
-436.477740
 20
-566.146630
 30
0.0
  0
SPLINE
  5
39b
100
AcDbEntity
  8
Layer_1
 62
1
100
AcDbSpline
 70
8
 71
3
 72
8
 73
4
 74
0
 40
0
 40
0
 40
0
 40
0
 40
1
 40
1
 40
1
 40
1
 10
-436.477740
 20
-566.146630
 30
0.0
 10
-432.999500
 20
-568.224490
 30
0.0
 10
-429.023480
 20
-569.321630
 30
0.0
 10
-424.971860
 20
-569.321630
 30
0.0
  0
LINE
  5
39c
100
AcDbEntity
  8
Layer_1
 62
1
100
AcDbLine
 10
-424.971860
 20
-569.321630
 30
0.0
 11
-421.801860
 21
-569.321630
 31
0.0
  0
LINE
  5
39d
100
AcDbEntity
  8
Layer_1
 62
1
100
AcDbLine
 10
-421.801860
 20
-569.321630
 30
0.0
 11
-421.801860
 21
-562.971630
 31
0.0
  0
LINE
  5
39e
100
AcDbEntity
  8
Layer_1
 62
1
100
AcDbLine
 10
-421.801860
 20
-562.971630
 30
0.0
 11
-424.971860
 21
-562.971630
 31
0.0
  0
LINE
  5
39f
100
AcDbEntity
  8
Layer_1
 62
1
100
AcDbLine
 10
-424.971860
 20
-562.971630
 30
0.0
 11
-424.971860
 21
-550.271630
 31
0.0
  0
LINE
  5
3a0
100
AcDbEntity
  8
Layer_1
 62
1
100
AcDbLine
 10
-424.971860
 20
-550.271630
 30
0.0
 11
-421.801860
 21
-550.271630
 31
0.0
  0
LINE
  5
3a1
100
AcDbEntity
  8
Layer_1
 62
1
100
AcDbLine
 10
-421.801860
 20
-550.271630
 30
0.0
 11
-421.801860
 21
-543.921630
 31
0.0
  0
LINE
  5
3a2
100
AcDbEntity
  8
Layer_1
 62
1
100
AcDbLine
 10
-421.801860
 20
-543.921630
 30
0.0
 11
-421.801860
 21
-543.921630
 31
0.0
  0
LINE
  5
3a3
100
AcDbEntity
  8
Layer_1
 62
1
100
AcDbLine
 10
-421.801860
 20
-543.921630
 30
0.0
 11
-451.740490
 21
-543.921630
 31
0.0
  0
LINE
  5
3a4
100
AcDbEntity
  8
Layer_1
 62
1
100
AcDbLine
 10
-451.740490
 20
-543.921630
 30
0.0
 11
-454.910490
 21
-543.921630
 31
0.0
  0
LINE
  5
3a5
100
AcDbEntity
  8
Layer_1
 62
1
100
AcDbLine
 10
-454.910490
 20
-543.921630
 30
0.0
 11
-455.683630
 21
-543.921630
 31
0.0
  0
SPLINE
  5
3a6
100
AcDbEntity
  8
Layer_1
 62
1
100
AcDbSpline
 70
8
 71
3
 72
8
 73
4
 74
0
 40
0
 40
0
 40
0
 40
0
 40
1
 40
1
 40
1
 40
1
 10
-482.593330
 20
-475.656920
 30
0.0
 10
-488.973630
 20
-474.107910
 30
0.0
 10
-495.324710
 20
-472.440990
 30
0.0
 10
-501.643330
 20
-470.656950
 30
0.0
  0
LINE
  5
3a7
100
AcDbEntity
  8
Layer_1
 62
1
100
AcDbLine
 10
-501.643330
 20
-470.656950
 30
0.0
 11
-501.643330
 21
-483.356950
 31
0.0
  0
SPLINE
  5
3a8
100
AcDbEntity
  8
Layer_1
 62
1
100
AcDbSpline
 70
8
 71
3
 72
8
 73
4
 74
0
 40
0
 40
0
 40
0
 40
0
 40
1
 40
1
 40
1
 40
1
 10
-501.643330
 20
-483.356950
 30
0.0
 10
-501.643330
 20
-487.408570
 30
0.0
 10
-502.740510
 20
-491.384570
 30
0.0
 10
-504.818330
 20
-494.862810
 30
0.0
  0
SPLINE
  5
3a9
100
AcDbEntity
  8
Layer_1
 62
1
100
AcDbSpline
 70
8
 71
3
 72
8
 73
4
 74
0
 40
0
 40
0
 40
0
 40
0
 40
1
 40
1
 40
1
 40
1
 10
-504.818330
 20
-494.862810
 30
0.0
 10
-506.896190
 20
-498.341050
 30
0.0
 10
-507.993330
 20
-502.317070
 30
0.0
 10
-507.993330
 20
-506.368690
 30
0.0
  0
LINE
  5
3aa
100
AcDbEntity
  8
Layer_1
 62
1
100
AcDbLine
 10
-507.993330
 20
-506.368690
 30
0.0
 11
-507.993330
 21
-509.538690
 31
0.0
  0
LINE
  5
3ab
100
AcDbEntity
  8
Layer_1
 62
1
100
AcDbLine
 10
-507.993330
 20
-509.538690
 30
0.0
 11
-501.643330
 21
-509.538690
 31
0.0
  0
LINE
  5
3ac
100
AcDbEntity
  8
Layer_1
 62
1
100
AcDbLine
 10
-501.643330
 20
-509.538690
 30
0.0
 11
-501.643330
 21
-506.368690
 31
0.0
  0
LINE
  5
3ad
100
AcDbEntity
  8
Layer_1
 62
1
100
AcDbLine
 10
-501.643330
 20
-506.368690
 30
0.0
 11
-488.943330
 21
-506.368690
 31
0.0
  0
LINE
  5
3ae
100
AcDbEntity
  8
Layer_1
 62
1
100
AcDbLine
 10
-488.943330
 20
-506.368690
 30
0.0
 11
-488.943330
 21
-509.538690
 31
0.0
  0
LINE
  5
3af
100
AcDbEntity
  8
Layer_1
 62
1
100
AcDbLine
 10
-488.943330
 20
-509.538690
 30
0.0
 11
-482.593330
 21
-509.538690
 31
0.0
  0
LINE
  5
3b0
100
AcDbEntity
  8
Layer_1
 62
1
100
AcDbLine
 10
-482.593330
 20
-509.538690
 30
0.0
 11
-482.593330
 21
-509.538690
 31
0.0
  0
LINE
  5
3b1
100
AcDbEntity
  8
Layer_1
 62
1
100
AcDbLine
 10
-482.593330
 20
-509.538690
 30
0.0
 11
-482.593330
 21
-479.600060
 31
0.0
  0
LINE
  5
3b2
100
AcDbEntity
  8
Layer_1
 62
1
100
AcDbLine
 10
-482.593330
 20
-479.600060
 30
0.0
 11
-482.593330
 21
-476.430060
 31
0.0
  0
LINE
  5
3b3
100
AcDbEntity
  8
Layer_1
 62
1
100
AcDbLine
 10
-482.593330
 20
-476.430060
 30
0.0
 11
-482.593330
 21
-475.656920
 31
0.0
  0
SPLINE
  5
3b4
100
AcDbEntity
  8
Layer_1
 62
1
100
AcDbSpline
 70
8
 71
3
 72
8
 73
4
 74
0
 40
0
 40
0
 40
0
 40
0
 40
1
 40
1
 40
1
 40
1
 10
-426.509840
 20
-591.244260
 30
0.0
 10
-424.960840
 20
-584.863960
 30
0.0
 10
-423.293910
 20
-578.512880
 30
0.0
 10
-421.509880
 20
-572.194260
 30
0.0
  0
LINE
  5
3b5
100
AcDbEntity
  8
Layer_1
 62
1
100
AcDbLine
 10
-421.509880
 20
-572.194260
 30
0.0
 11
-434.209880
 21
-572.194260
 31
0.0
  0
SPLINE
  5
3b6
100
AcDbEntity
  8
Layer_1
 62
1
100
AcDbSpline
 70
8
 71
3
 72
8
 73
4
 74
0
 40
0
 40
0
 40
0
 40
0
 40
1
 40
1
 40
1
 40
1
 10
-434.209880
 20
-572.194260
 30
0.0
 10
-438.261500
 20
-572.194260
 30
0.0
 10
-442.237500
 20
-571.097080
 30
0.0
 10
-445.715740
 20
-569.019260
 30
0.0
  0
SPLINE
  5
3b7
100
AcDbEntity
  8
Layer_1
 62
1
100
AcDbSpline
 70
8
 71
3
 72
8
 73
4
 74
0
 40
0
 40
0
 40
0
 40
0
 40
1
 40
1
 40
1
 40
1
 10
-445.715740
 20
-569.019260
 30
0.0
 10
-449.193970
 20
-566.941400
 30
0.0
 10
-453.170000
 20
-565.844260
 30
0.0
 10
-457.221620
 20
-565.844260
 30
0.0
  0
LINE
  5
3b8
100
AcDbEntity
  8
Layer_1
 62
1
100
AcDbLine
 10
-457.221620
 20
-565.844260
 30
0.0
 11
-460.391620
 21
-565.844260
 31
0.0
  0
LINE
  5
3b9
100
AcDbEntity
  8
Layer_1
 62
1
100
AcDbLine
 10
-460.391620
 20
-565.844260
 30
0.0
 11
-460.391620
 21
-572.194260
 31
0.0
  0
LINE
  5
3ba
100
AcDbEntity
  8
Layer_1
 62
1
100
AcDbLine
 10
-460.391620
 20
-572.194260
 30
0.0
 11
-457.221620
 21
-572.194260
 31
0.0
  0
LINE
  5
3bb
100
AcDbEntity
  8
Layer_1
 62
1
100
AcDbLine
 10
-457.221620
 20
-572.194260
 30
0.0
 11
-457.221620
 21
-584.894260
 31
0.0
  0
LINE
  5
3bc
100
AcDbEntity
  8
Layer_1
 62
1
100
AcDbLine
 10
-457.221620
 20
-584.894260
 30
0.0
 11
-460.391620
 21
-584.894260
 31
0.0
  0
LINE
  5
3bd
100
AcDbEntity
  8
Layer_1
 62
1
100
AcDbLine
 10
-460.391620
 20
-584.894260
 30
0.0
 11
-460.391620
 21
-591.244260
 31
0.0
  0
LINE
  5
3be
100
AcDbEntity
  8
Layer_1
 62
1
100
AcDbLine
 10
-460.391620
 20
-591.244260
 30
0.0
 11
-460.391620
 21
-591.244260
 31
0.0
  0
LINE
  5
3bf
100
AcDbEntity
  8
Layer_1
 62
1
100
AcDbLine
 10
-460.391620
 20
-591.244260
 30
0.0
 11
-430.452980
 21
-591.244260
 31
0.0
  0
LINE
  5
3c0
100
AcDbEntity
  8
Layer_1
 62
1
100
AcDbLine
 10
-430.452980
 20
-591.244260
 30
0.0
 11
-427.282980
 21
-591.244260
 31
0.0
  0
LINE
  5
3c1
100
AcDbEntity
  8
Layer_1
 62
1
100
AcDbLine
 10
-427.282980
 20
-591.244260
 30
0.0
 11
-426.509840
 21
-591.244260
 31
0.0
  0
SPLINE
  5
3c2
100
AcDbEntity
  8
Layer_1
 62
1
100
AcDbSpline
 70
8
 71
3
 72
8
 73
4
 74
0
 40
0
 40
0
 40
0
 40
0
 40
1
 40
1
 40
1
 40
1
 10
-455.683630
 20
-621.784730
 30
0.0
 10
-457.232640
 20
-628.165030
 30
0.0
 10
-458.899560
 20
-634.516110
 30
0.0
 10
-460.683600
 20
-640.834730
 30
0.0
  0
LINE
  5
3c3
100
AcDbEntity
  8
Layer_1
 62
1
100
AcDbLine
 10
-460.683600
 20
-640.834730
 30
0.0
 11
-447.983600
 21
-640.834730
 31
0.0
  0
SPLINE
  5
3c4
100
AcDbEntity
  8
Layer_1
 62
1
100
AcDbSpline
 70
8
 71
3
 72
8
 73
4
 74
0
 40
0
 40
0
 40
0
 40
0
 40
1
 40
1
 40
1
 40
1
 10
-447.983600
 20
-640.834730
 30
0.0
 10
-443.931980
 20
-640.834730
 30
0.0
 10
-439.955980
 20
-641.931910
 30
0.0
 10
-436.477740
 20
-644.009730
 30
0.0
  0
SPLINE
  5
3c5
100
AcDbEntity
  8
Layer_1
 62
1
100
AcDbSpline
 70
8
 71
3
 72
8
 73
4
 74
0
 40
0
 40
0
 40
0
 40
0
 40
1
 40
1
 40
1
 40
1
 10
-436.477740
 20
-644.009730
 30
0.0
 10
-432.999500
 20
-646.087590
 30
0.0
 10
-429.023480
 20
-647.184730
 30
0.0
 10
-424.971860
 20
-647.184730
 30
0.0
  0
LINE
  5
3c6
100
AcDbEntity
  8
Layer_1
 62
1
100
AcDbLine
 10
-424.971860
 20
-647.184730
 30
0.0
 11
-421.801860
 21
-647.184730
 31
0.0
  0
LINE
  5
3c7
100
AcDbEntity
  8
Layer_1
 62
1
100
AcDbLine
 10
-421.801860
 20
-647.184730
 30
0.0
 11
-421.801860
 21
-640.834730
 31
0.0
  0
LINE
  5
3c8
100
AcDbEntity
  8
Layer_1
 62
1
100
AcDbLine
 10
-421.801860
 20
-640.834730
 30
0.0
 11
-424.971860
 21
-640.834730
 31
0.0
  0
LINE
  5
3c9
100
AcDbEntity
  8
Layer_1
 62
1
100
AcDbLine
 10
-424.971860
 20
-640.834730
 30
0.0
 11
-424.971860
 21
-628.134730
 31
0.0
  0
LINE
  5
3ca
100
AcDbEntity
  8
Layer_1
 62
1
100
AcDbLine
 10
-424.971860
 20
-628.134730
 30
0.0
 11
-421.801860
 21
-628.134730
 31
0.0
  0
LINE
  5
3cb
100
AcDbEntity
  8
Layer_1
 62
1
100
AcDbLine
 10
-421.801860
 20
-628.134730
 30
0.0
 11
-421.801860
 21
-621.784730
 31
0.0
  0
LINE
  5
3cc
100
AcDbEntity
  8
Layer_1
 62
1
100
AcDbLine
 10
-421.801860
 20
-621.784730
 30
0.0
 11
-421.801860
 21
-621.784730
 31
0.0
  0
LINE
  5
3cd
100
AcDbEntity
  8
Layer_1
 62
1
100
AcDbLine
 10
-421.801860
 20
-621.784730
 30
0.0
 11
-451.740490
 21
-621.784730
 31
0.0
  0
LINE
  5
3ce
100
AcDbEntity
  8
Layer_1
 62
1
100
AcDbLine
 10
-451.740490
 20
-621.784730
 30
0.0
 11
-454.910490
 21
-621.784730
 31
0.0
  0
LINE
  5
3cf
100
AcDbEntity
  8
Layer_1
 62
1
100
AcDbLine
 10
-454.910490
 20
-621.784730
 30
0.0
 11
-455.683630
 21
-621.784730
 31
0.0
  0
LINE
  5
3d0
100
AcDbEntity
  8
Layer_1
 62
1
100
AcDbLine
 10
-468.892680
 20
-610.243490
 30
0.0
 11
-463.311480
 21
-610.243490
 31
0.0
  0
SPLINE
  5
3d1
100
AcDbEntity
  8
Layer_1
 62
1
100
AcDbSpline
 70
8
 71
3
 72
8
 73
4
 74
0
 40
0
 40
0
 40
0
 40
0
 40
1
 40
1
 40
1
 40
1
 10
-463.311480
 20
-610.243490
 30
0.0
 10
-461.537320
 20
-610.243490
 30
0.0
 10
-459.855150
 20
-611.032850
 30
0.0
 10
-458.721330
 20
-612.397440
 30
0.0
  0
SPLINE
  5
3d2
100
AcDbEntity
  8
Layer_1
 62
1
100
AcDbSpline
 70
8
 71
3
 72
8
 73
4
 74
0
 40
0
 40
0
 40
0
 40
0
 40
1
 40
1
 40
1
 40
1
 10
-458.721330
 20
-612.397440
 30
0.0
 10
-457.587510
 20
-613.762030
 30
0.0
 10
-455.905340
 20
-614.551380
 30
0.0
 10
-454.131180
 20
-614.551380
 30
0.0
  0
LINE
  5
3d3
100
AcDbEntity
  8
Layer_1
 62
1
100
AcDbLine
 10
-454.131180
 20
-614.551380
 30
0.0
 11
-450.961180
 21
-614.551380
 31
0.0
  0
LINE
  5
3d4
100
AcDbEntity
  8
Layer_1
 62
1
100
AcDbLine
 10
-450.961180
 20
-614.551380
 30
0.0
 11
-450.961180
 21
-608.201380
 31
0.0
  0
LINE
  5
3d5
100
AcDbEntity
  8
Layer_1
 62
1
100
AcDbLine
 10
-450.961180
 20
-608.201380
 30
0.0
 11
-454.131180
 21
-608.201380
 31
0.0
  0
LINE
  5
3d6
100
AcDbEntity
  8
Layer_1
 62
1
100
AcDbLine
 10
-454.131180
 20
-608.201380
 30
0.0
 11
-454.131180
 21
-600.581380
 31
0.0
  0
LINE
  5
3d7
100
AcDbEntity
  8
Layer_1
 62
1
100
AcDbLine
 10
-454.131180
 20
-600.581380
 30
0.0
 11
-450.961180
 21
-600.581380
 31
0.0
  0
LINE
  5
3d8
100
AcDbEntity
  8
Layer_1
 62
1
100
AcDbLine
 10
-450.961180
 20
-600.581380
 30
0.0
 11
-450.961180
 21
-594.231280
 31
0.0
  0
LINE
  5
3d9
100
AcDbEntity
  8
Layer_1
 62
1
100
AcDbLine
 10
-450.961180
 20
-594.231280
 30
0.0
 11
-450.961180
 21
-594.231280
 31
0.0
  0
LINE
  5
3da
100
AcDbEntity
  8
Layer_1
 62
1
100
AcDbLine
 10
-450.961180
 20
-594.231280
 30
0.0
 11
-454.131180
 21
-594.231280
 31
0.0
  0
LINE
  5
3db
100
AcDbEntity
  8
Layer_1
 62
1
100
AcDbLine
 10
-454.131180
 20
-594.231280
 30
0.0
 11
-465.809780
 21
-594.243480
 31
0.0
  0
LINE
  5
3dc
100
AcDbEntity
  8
Layer_1
 62
1
100
AcDbLine
 10
-465.809780
 20
-594.243480
 30
0.0
 11
-468.979780
 21
-594.243480
 31
0.0
  0
SPLINE
  5
3dd
100
AcDbEntity
  8
Layer_1
 62
1
100
AcDbSpline
 70
8
 71
3
 72
8
 73
4
 74
0
 40
0
 40
0
 40
0
 40
0
 40
1
 40
1
 40
1
 40
1
 10
-468.979780
 20
-594.243480
 30
0.0
 10
-468.920080
 20
-599.576610
 30
0.0
 10
-468.891080
 20
-604.910020
 30
0.0
 10
-468.892680
 20
-610.243470
 30
0.0
  0
LINE
  5
3de
100
AcDbEntity
  8
Layer_1
 62
1
100
AcDbLine
 10
-468.892680
 20
-610.243470
 30
0.0
 11
-468.892680
 21
-610.243490
 31
0.0
  0
LINE
  5
3df
100
AcDbEntity
  8
Layer_1
 62
1
100
AcDbLine
 10
-446.970060
 20
-610.621470
 30
0.0
 11
-441.388860
 21
-610.621470
 31
0.0
  0
SPLINE
  5
3e0
100
AcDbEntity
  8
Layer_1
 62
1
100
AcDbSpline
 70
8
 71
3
 72
8
 73
4
 74
0
 40
0
 40
0
 40
0
 40
0
 40
1
 40
1
 40
1
 40
1
 10
-441.388860
 20
-610.621470
 30
0.0
 10
-439.614700
 20
-610.621470
 30
0.0
 10
-437.932530
 20
-611.410830
 30
0.0
 10
-436.798710
 20
-612.775410
 30
0.0
  0
SPLINE
  5
3e1
100
AcDbEntity
  8
Layer_1
 62
1
100
AcDbSpline
 70
8
 71
3
 72
8
 73
4
 74
0
 40
0
 40
0
 40
0
 40
0
 40
1
 40
1
 40
1
 40
1
 10
-436.798710
 20
-612.775410
 30
0.0
 10
-435.664890
 20
-614.140000
 30
0.0
 10
-433.982720
 20
-614.929360
 30
0.0
 10
-432.208560
 20
-614.929360
 30
0.0
  0
LINE
  5
3e2
100
AcDbEntity
  8
Layer_1
 62
1
100
AcDbLine
 10
-432.208560
 20
-614.929360
 30
0.0
 11
-429.038560
 21
-614.929360
 31
0.0
  0
LINE
  5
3e3
100
AcDbEntity
  8
Layer_1
 62
1
100
AcDbLine
 10
-429.038560
 20
-614.929360
 30
0.0
 11
-429.038560
 21
-608.579360
 31
0.0
  0
LINE
  5
3e4
100
AcDbEntity
  8
Layer_1
 62
1
100
AcDbLine
 10
-429.038560
 20
-608.579360
 30
0.0
 11
-432.208560
 21
-608.579360
 31
0.0
  0
LINE
  5
3e5
100
AcDbEntity
  8
Layer_1
 62
1
100
AcDbLine
 10
-432.208560
 20
-608.579360
 30
0.0
 11
-432.208560
 21
-600.959360
 31
0.0
  0
LINE
  5
3e6
100
AcDbEntity
  8
Layer_1
 62
1
100
AcDbLine
 10
-432.208560
 20
-600.959360
 30
0.0
 11
-429.038560
 21
-600.959360
 31
0.0
  0
LINE
  5
3e7
100
AcDbEntity
  8
Layer_1
 62
1
100
AcDbLine
 10
-429.038560
 20
-600.959360
 30
0.0
 11
-429.038560
 21
-594.609250
 31
0.0
  0
LINE
  5
3e8
100
AcDbEntity
  8
Layer_1
 62
1
100
AcDbLine
 10
-429.038560
 20
-594.609250
 30
0.0
 11
-429.038560
 21
-594.609250
 31
0.0
  0
LINE
  5
3e9
100
AcDbEntity
  8
Layer_1
 62
1
100
AcDbLine
 10
-429.038560
 20
-594.609250
 30
0.0
 11
-432.208560
 21
-594.609250
 31
0.0
  0
LINE
  5
3ea
100
AcDbEntity
  8
Layer_1
 62
1
100
AcDbLine
 10
-432.208560
 20
-594.609250
 30
0.0
 11
-443.887160
 21
-594.621450
 31
0.0
  0
LINE
  5
3eb
100
AcDbEntity
  8
Layer_1
 62
1
100
AcDbLine
 10
-443.887160
 20
-594.621450
 30
0.0
 11
-447.057160
 21
-594.621450
 31
0.0
  0
SPLINE
  5
3ec
100
AcDbEntity
  8
Layer_1
 62
1
100
AcDbSpline
 70
8
 71
3
 72
8
 73
4
 74
0
 40
0
 40
0
 40
0
 40
0
 40
1
 40
1
 40
1
 40
1
 10
-447.057160
 20
-594.621450
 30
0.0
 10
-446.997460
 20
-599.954570
 30
0.0
 10
-446.968460
 20
-605.287990
 30
0.0
 10
-446.970060
 20
-610.621430
 30
0.0
  0
LINE
  5
3ed
100
AcDbEntity
  8
Layer_1
 62
1
100
AcDbLine
 10
-446.970060
 20
-610.621430
 30
0.0
 11
-446.970060
 21
-610.621470
 31
0.0
  0
LINE
  5
3ee
100
AcDbEntity
  8
Layer_1
 62
1
100
AcDbLine
 10
-459.065300
 20
-661.270270
 30
0.0
 11
-453.484100
 21
-661.270270
 31
0.0
  0
SPLINE
  5
3ef
100
AcDbEntity
  8
Layer_1
 62
1
100
AcDbSpline
 70
8
 71
3
 72
8
 73
4
 74
0
 40
0
 40
0
 40
0
 40
0
 40
1
 40
1
 40
1
 40
1
 10
-453.484100
 20
-661.270270
 30
0.0
 10
-451.709940
 20
-661.270270
 30
0.0
 10
-450.027770
 20
-662.059630
 30
0.0
 10
-448.893950
 20
-663.424220
 30
0.0
  0
SPLINE
  5
3f0
100
AcDbEntity
  8
Layer_1
 62
1
100
AcDbSpline
 70
8
 71
3
 72
8
 73
4
 74
0
 40
0
 40
0
 40
0
 40
0
 40
1
 40
1
 40
1
 40
1
 10
-448.893950
 20
-663.424220
 30
0.0
 10
-447.760130
 20
-664.788810
 30
0.0
 10
-446.077960
 20
-665.578170
 30
0.0
 10
-444.303800
 20
-665.578170
 30
0.0
  0
LINE
  5
3f1
100
AcDbEntity
  8
Layer_1
 62
1
100
AcDbLine
 10
-444.303800
 20
-665.578170
 30
0.0
 11
-441.133800
 21
-665.578170
 31
0.0
  0
LINE
  5
3f2
100
AcDbEntity
  8
Layer_1
 62
1
100
AcDbLine
 10
-441.133800
 20
-665.578170
 30
0.0
 11
-441.133800
 21
-659.228170
 31
0.0
  0
LINE
  5
3f3
100
AcDbEntity
  8
Layer_1
 62
1
100
AcDbLine
 10
-441.133800
 20
-659.228170
 30
0.0
 11
-444.303800
 21
-659.228170
 31
0.0
  0
LINE
  5
3f4
100
AcDbEntity
  8
Layer_1
 62
1
100
AcDbLine
 10
-444.303800
 20
-659.228170
 30
0.0
 11
-444.303800
 21
-651.608170
 31
0.0
  0
LINE
  5
3f5
100
AcDbEntity
  8
Layer_1
 62
1
100
AcDbLine
 10
-444.303800
 20
-651.608170
 30
0.0
 11
-441.133800
 21
-651.608170
 31
0.0
  0
LINE
  5
3f6
100
AcDbEntity
  8
Layer_1
 62
1
100
AcDbLine
 10
-441.133800
 20
-651.608170
 30
0.0
 11
-441.133800
 21
-645.258060
 31
0.0
  0
LINE
  5
3f7
100
AcDbEntity
  8
Layer_1
 62
1
100
AcDbLine
 10
-441.133800
 20
-645.258060
 30
0.0
 11
-441.133800
 21
-645.258060
 31
0.0
  0
LINE
  5
3f8
100
AcDbEntity
  8
Layer_1
 62
1
100
AcDbLine
 10
-441.133800
 20
-645.258060
 30
0.0
 11
-444.303800
 21
-645.258060
 31
0.0
  0
LINE
  5
3f9
100
AcDbEntity
  8
Layer_1
 62
1
100
AcDbLine
 10
-444.303800
 20
-645.258060
 30
0.0
 11
-455.982400
 21
-645.270260
 31
0.0
  0
LINE
  5
3fa
100
AcDbEntity
  8
Layer_1
 62
1
100
AcDbLine
 10
-455.982400
 20
-645.270260
 30
0.0
 11
-459.152400
 21
-645.270260
 31
0.0
  0
SPLINE
  5
3fb
100
AcDbEntity
  8
Layer_1
 62
1
100
AcDbSpline
 70
8
 71
3
 72
8
 73
4
 74
0
 40
0
 40
0
 40
0
 40
0
 40
1
 40
1
 40
1
 40
1
 10
-459.152400
 20
-645.270260
 30
0.0
 10
-459.092700
 20
-650.603390
 30
0.0
 10
-459.063700
 20
-655.936810
 30
0.0
 10
-459.065300
 20
-661.270250
 30
0.0
  0
LINE
  5
3fc
100
AcDbEntity
  8
Layer_1
 62
1
100
AcDbLine
 10
-459.065300
 20
-661.270250
 30
0.0
 11
-459.065300
 21
-661.270270
 31
0.0
  0
LINE
  5
3fd
100
AcDbEntity
  8
Layer_1
 62
1
100
AcDbLine
 10
-439.410530
 20
-668.073840
 30
0.0
 11
-433.829330
 21
-668.073840
 31
0.0
  0
SPLINE
  5
3fe
100
AcDbEntity
  8
Layer_1
 62
1
100
AcDbSpline
 70
8
 71
3
 72
8
 73
4
 74
0
 40
0
 40
0
 40
0
 40
0
 40
1
 40
1
 40
1
 40
1
 10
-433.829330
 20
-668.073840
 30
0.0
 10
-432.055170
 20
-668.073840
 30
0.0
 10
-430.373000
 20
-668.863200
 30
0.0
 10
-429.239180
 20
-670.227790
 30
0.0
  0
SPLINE
  5
3ff
100
AcDbEntity
  8
Layer_1
 62
1
100
AcDbSpline
 70
8
 71
3
 72
8
 73
4
 74
0
 40
0
 40
0
 40
0
 40
0
 40
1
 40
1
 40
1
 40
1
 10
-429.239180
 20
-670.227790
 30
0.0
 10
-428.105360
 20
-671.592380
 30
0.0
 10
-426.423190
 20
-672.381740
 30
0.0
 10
-424.649030
 20
-672.381740
 30
0.0
  0
LINE
  5
400
100
AcDbEntity
  8
Layer_1
 62
1
100
AcDbLine
 10
-424.649030
 20
-672.381740
 30
0.0
 11
-421.479030
 21
-672.381740
 31
0.0
  0
LINE
  5
401
100
AcDbEntity
  8
Layer_1
 62
1
100
AcDbLine
 10
-421.479030
 20
-672.381740
 30
0.0
 11
-421.479030
 21
-666.031740
 31
0.0
  0
LINE
  5
402
100
AcDbEntity
  8
Layer_1
 62
1
100
AcDbLine
 10
-421.479030
 20
-666.031740
 30
0.0
 11
-424.649030
 21
-666.031740
 31
0.0
  0
LINE
  5
403
100
AcDbEntity
  8
Layer_1
 62
1
100
AcDbLine
 10
-424.649030
 20
-666.031740
 30
0.0
 11
-424.649030
 21
-658.411740
 31
0.0
  0
LINE
  5
404
100
AcDbEntity
  8
Layer_1
 62
1
100
AcDbLine
 10
-424.649030
 20
-658.411740
 30
0.0
 11
-421.479030
 21
-658.411740
 31
0.0
  0
LINE
  5
405
100
AcDbEntity
  8
Layer_1
 62
1
100
AcDbLine
 10
-421.479030
 20
-658.411740
 30
0.0
 11
-421.479030
 21
-652.061630
 31
0.0
  0
LINE
  5
406
100
AcDbEntity
  8
Layer_1
 62
1
100
AcDbLine
 10
-421.479030
 20
-652.061630
 30
0.0
 11
-421.479030
 21
-652.061630
 31
0.0
  0
LINE
  5
407
100
AcDbEntity
  8
Layer_1
 62
1
100
AcDbLine
 10
-421.479030
 20
-652.061630
 30
0.0
 11
-424.649030
 21
-652.061630
 31
0.0
  0
LINE
  5
408
100
AcDbEntity
  8
Layer_1
 62
1
100
AcDbLine
 10
-424.649030
 20
-652.061630
 30
0.0
 11
-436.327630
 21
-652.073830
 31
0.0
  0
LINE
  5
409
100
AcDbEntity
  8
Layer_1
 62
1
100
AcDbLine
 10
-436.327630
 20
-652.073830
 30
0.0
 11
-439.497630
 21
-652.073830
 31
0.0
  0
SPLINE
  5
40a
100
AcDbEntity
  8
Layer_1
 62
1
100
AcDbSpline
 70
8
 71
3
 72
8
 73
4
 74
0
 40
0
 40
0
 40
0
 40
0
 40
1
 40
1
 40
1
 40
1
 10
-439.497630
 20
-652.073830
 30
0.0
 10
-439.437930
 20
-657.406960
 30
0.0
 10
-439.408930
 20
-662.740380
 30
0.0
 10
-439.410530
 20
-668.073820
 30
0.0
  0
LINE
  5
40b
100
AcDbEntity
  8
Layer_1
 62
1
100
AcDbLine
 10
-439.410530
 20
-668.073820
 30
0.0
 11
-439.410530
 21
-668.073840
 31
0.0
  0
LINE
  5
40c
100
AcDbEntity
  8
Layer_1
 62
1
100
AcDbLine
 10
-445.458150
 20
-689.996460
 30
0.0
 11
-439.876950
 21
-689.996460
 31
0.0
  0
SPLINE
  5
40d
100
AcDbEntity
  8
Layer_1
 62
1
100
AcDbSpline
 70
8
 71
3
 72
8
 73
4
 74
0
 40
0
 40
0
 40
0
 40
0
 40
1
 40
1
 40
1
 40
1
 10
-439.876950
 20
-689.996460
 30
0.0
 10
-438.102790
 20
-689.996460
 30
0.0
 10
-436.420620
 20
-690.785820
 30
0.0
 10
-435.286800
 20
-692.150410
 30
0.0
  0
SPLINE
  5
40e
100
AcDbEntity
  8
Layer_1
 62
1
100
AcDbSpline
 70
8
 71
3
 72
8
 73
4
 74
0
 40
0
 40
0
 40
0
 40
0
 40
1
 40
1
 40
1
 40
1
 10
-435.286800
 20
-692.150410
 30
0.0
 10
-434.152980
 20
-693.515000
 30
0.0
 10
-432.470810
 20
-694.304360
 30
0.0
 10
-430.696650
 20
-694.304360
 30
0.0
  0
LINE
  5
40f
100
AcDbEntity
  8
Layer_1
 62
1
100
AcDbLine
 10
-430.696650
 20
-694.304360
 30
0.0
 11
-427.526650
 21
-694.304360
 31
0.0
  0
LINE
  5
410
100
AcDbEntity
  8
Layer_1
 62
1
100
AcDbLine
 10
-427.526650
 20
-694.304360
 30
0.0
 11
-427.526650
 21
-687.954360
 31
0.0
  0
LINE
  5
411
100
AcDbEntity
  8
Layer_1
 62
1
100
AcDbLine
 10
-427.526650
 20
-687.954360
 30
0.0
 11
-430.696650
 21
-687.954360
 31
0.0
  0
LINE
  5
412
100
AcDbEntity
  8
Layer_1
 62
1
100
AcDbLine
 10
-430.696650
 20
-687.954360
 30
0.0
 11
-430.696650
 21
-680.334360
 31
0.0
  0
LINE
  5
413
100
AcDbEntity
  8
Layer_1
 62
1
100
AcDbLine
 10
-430.696650
 20
-680.334360
 30
0.0
 11
-427.526650
 21
-680.334360
 31
0.0
  0
LINE
  5
414
100
AcDbEntity
  8
Layer_1
 62
1
100
AcDbLine
 10
-427.526650
 20
-680.334360
 30
0.0
 11
-427.526650
 21
-673.984250
 31
0.0
  0
LINE
  5
415
100
AcDbEntity
  8
Layer_1
 62
1
100
AcDbLine
 10
-427.526650
 20
-673.984250
 30
0.0
 11
-427.526650
 21
-673.984250
 31
0.0
  0
LINE
  5
416
100
AcDbEntity
  8
Layer_1
 62
1
100
AcDbLine
 10
-427.526650
 20
-673.984250
 30
0.0
 11
-430.696650
 21
-673.984250
 31
0.0
  0
LINE
  5
417
100
AcDbEntity
  8
Layer_1
 62
1
100
AcDbLine
 10
-430.696650
 20
-673.984250
 30
0.0
 11
-442.375250
 21
-673.996450
 31
0.0
  0
LINE
  5
418
100
AcDbEntity
  8
Layer_1
 62
1
100
AcDbLine
 10
-442.375250
 20
-673.996450
 30
0.0
 11
-445.545250
 21
-673.996450
 31
0.0
  0
SPLINE
  5
419
100
AcDbEntity
  8
Layer_1
 62
1
100
AcDbSpline
 70
8
 71
3
 72
8
 73
4
 74
0
 40
0
 40
0
 40
0
 40
0
 40
1
 40
1
 40
1
 40
1
 10
-445.545250
 20
-673.996450
 30
0.0
 10
-445.485550
 20
-679.329580
 30
0.0
 10
-445.456550
 20
-684.663000
 30
0.0
 10
-445.458150
 20
-689.996440
 30
0.0
  0
LINE
  5
41a
100
AcDbEntity
  8
Layer_1
 62
1
100
AcDbLine
 10
-445.458150
 20
-689.996440
 30
0.0
 11
-445.458150
 21
-689.996460
 31
0.0
  0
LINE
  5
41b
100
AcDbEntity
  8
Layer_1
 62
1
100
AcDbLine
 10
-409.089960
 20
-446.418410
 30
0.0
 11
-409.012960
 21
-461.785210
 31
0.0
  0
SPLINE
  5
41c
100
AcDbEntity
  8
Layer_1
 62
1
100
AcDbSpline
 70
8
 71
3
 72
8
 73
4
 74
0
 40
0
 40
0
 40
0
 40
0
 40
1
 40
1
 40
1
 40
1
 10
-409.012960
 20
-461.785210
 30
0.0
 10
-389.523860
 20
-465.964810
 30
0.0
 10
-373.121870
 20
-471.320110
 30
0.0
 10
-357.627760
 20
-477.021210
 30
0.0
  0
SPLINE
  5
41d
100
AcDbEntity
  8
Layer_1
 62
1
100
AcDbSpline
 70
8
 71
3
 72
8
 73
4
 74
0
 40
0
 40
0
 40
0
 40
0
 40
1
 40
1
 40
1
 40
1
 10
-357.627760
 20
-477.021210
 30
0.0
 10
-295.420540
 20
-370.209810
 30
0.0
 10
-203.805440
 20
-357.840110
 30
0.0
 10
-108.096120
 20
-358.400710
 30
0.0
  0
SPLINE
  5
41e
100
AcDbEntity
  8
Layer_1
 62
1
100
AcDbSpline
 70
8
 71
3
 72
8
 73
4
 74
0
 40
0
 40
0
 40
0
 40
0
 40
1
 40
1
 40
1
 40
1
 10
-108.096120
 20
-358.400710
 30
0.0
 10
-108.071020
 20
-349.934310
 30
0.0
 10
-108.113320
 20
-341.467710
 30
0.0
 10
-108.156020
 20
-333.001410
 30
0.0
  0
LINE
  5
41f
100
AcDbEntity
  8
Layer_1
 62
1
100
AcDbLine
 10
-108.156020
 20
-333.001410
 30
0.0
 11
-108.156020
 21
-333.001410
 31
0.0
  0
LINE
  5
420
100
AcDbEntity
  8
Layer_1
 62
1
100
AcDbLine
 10
-108.156020
 20
-333.001410
 30
0.0
 11
-223.591590
 21
-309.943310
 31
0.0
  0
LINE
  5
421
100
AcDbEntity
  8
Layer_1
 62
1
100
AcDbLine
 10
-223.591590
 20
-309.943310
 30
0.0
 11
-223.591590
 21
-309.943310
 31
0.0
  0
LINE
  5
422
100
AcDbEntity
  8
Layer_1
 62
1
100
AcDbLine
 10
-223.591590
 20
-309.943310
 30
0.0
 11
-223.591590
 21
-309.943310
 31
0.0
  0
SPLINE
  5
423
100
AcDbEntity
  8
Layer_1
 62
1
100
AcDbSpline
 70
8
 71
3
 72
8
 73
4
 74
0
 40
0
 40
0
 40
0
 40
0
 40
1
 40
1
 40
1
 40
1
 10
-223.591590
 20
-309.943310
 30
0.0
 10
-263.084090
 20
-302.500510
 30
0.0
 10
-297.138300
 20
-294.808610
 30
0.0
 10
-331.586600
 20
-301.247110
 30
0.0
  0
SPLINE
  5
424
100
AcDbEntity
  8
Layer_1
 62
1
100
AcDbSpline
 70
8
 71
3
 72
8
 73
4
 74
0
 40
0
 40
0
 40
0
 40
0
 40
1
 40
1
 40
1
 40
1
 10
-331.586600
 20
-301.247110
 30
0.0
 10
-358.801400
 20
-306.333610
 30
0.0
 10
-385.349290
 20
-323.253710
 30
0.0
 10
-409.676990
 20
-337.075010
 30
0.0
  0
LINE
  5
425
100
AcDbEntity
  8
Layer_1
 62
1
100
AcDbLine
 10
-409.676990
 20
-337.075010
 30
0.0
 11
-409.507500
 21
-363.361510
 31
0.0
  0
LINE
  5
426
100
AcDbEntity
  8
Layer_1
 62
1
100
AcDbLine
 10
-409.507500
 20
-363.361510
 30
0.0
 11
-399.982600
 21
-363.313510
 31
0.0
  0
LINE
  5
427
100
AcDbEntity
  8
Layer_1
 62
1
100
AcDbLine
 10
-399.982600
 20
-363.313510
 30
0.0
 11
-399.966700
 21
-366.488410
 31
0.0
  0
LINE
  5
428
100
AcDbEntity
  8
Layer_1
 62
1
100
AcDbLine
 10
-399.966700
 20
-366.488410
 30
0.0
 11
-409.491600
 21
-366.536410
 31
0.0
  0
LINE
  5
429
100
AcDbEntity
  8
Layer_1
 62
1
100
AcDbLine
 10
-409.491600
 20
-366.536410
 30
0.0
 11
-409.345420
 21
-395.619010
 31
0.0
  0
LINE
  5
42a
100
AcDbEntity
  8
Layer_1
 62
1
100
AcDbLine
 10
-409.345420
 20
-395.619010
 30
0.0
 11
-399.820600
 21
-395.571010
 31
0.0
  0
LINE
  5
42b
100
AcDbEntity
  8
Layer_1
 62
1
100
AcDbLine
 10
-399.820600
 20
-395.571010
 30
0.0
 11
-399.804700
 21
-398.746010
 31
0.0
  0
LINE
  5
42c
100
AcDbEntity
  8
Layer_1
 62
1
100
AcDbLine
 10
-399.804700
 20
-398.746010
 30
0.0
 11
-409.329490
 21
-398.794010
 31
0.0
  0
LINE
  5
42d
100
AcDbEntity
  8
Layer_1
 62
1
100
AcDbLine
 10
-409.329490
 20
-398.794010
 30
0.0
 11
-409.182780
 21
-428.003610
 31
0.0
  0
LINE
  5
42e
100
AcDbEntity
  8
Layer_1
 62
1
100
AcDbLine
 10
-409.182780
 20
-428.003610
 30
0.0
 11
-399.657880
 21
-427.955610
 31
0.0
  0
LINE
  5
42f
100
AcDbEntity
  8
Layer_1
 62
1
100
AcDbLine
 10
-399.657880
 20
-427.955610
 30
0.0
 11
-399.642780
 21
-431.003610
 31
0.0
  0
LINE
  5
430
100
AcDbEntity
  8
Layer_1
 62
1
100
AcDbLine
 10
-399.642780
 20
-431.003610
 30
0.0
 11
-409.167670
 21
-431.051610
 31
0.0
  0
LINE
  5
431
100
AcDbEntity
  8
Layer_1
 62
1
100
AcDbLine
 10
-409.167670
 20
-431.051610
 30
0.0
 11
-409.090670
 21
-446.418410
 31
0.0
  0
LINE
  5
432
100
AcDbEntity
  8
Layer_1
 62
1
100
AcDbLine
 10
-301.730110
 20
-524.662970
 30
0.0
 11
-301.653110
 21
-540.029770
 31
0.0
  0
SPLINE
  5
433
100
AcDbEntity
  8
Layer_1
 62
1
100
AcDbSpline
 70
8
 71
3
 72
8
 73
4
 74
0
 40
0
 40
0
 40
0
 40
0
 40
1
 40
1
 40
1
 40
1
 10
-301.653110
 20
-540.029770
 30
0.0
 10
-282.164010
 20
-544.209370
 30
0.0
 10
-265.762020
 20
-549.564670
 30
0.0
 10
-250.267910
 20
-555.265770
 30
0.0
  0
SPLINE
  5
434
100
AcDbEntity
  8
Layer_1
 62
1
100
AcDbSpline
 70
8
 71
3
 72
8
 73
4
 74
0
 40
0
 40
0
 40
0
 40
0
 40
1
 40
1
 40
1
 40
1
 10
-250.267910
 20
-555.265770
 30
0.0
 10
-188.060690
 20
-448.454370
 30
0.0
 10
-96.445582
 20
-436.084670
 30
0.0
 10
-0.736265
 20
-436.645270
 30
0.0
  0
SPLINE
  5
435
100
AcDbEntity
  8
Layer_1
 62
1
100
AcDbSpline
 70
8
 71
3
 72
8
 73
4
 74
0
 40
0
 40
0
 40
0
 40
0
 40
1
 40
1
 40
1
 40
1
 10
-0.736265
 20
-436.645270
 30
0.0
 10
-0.711165
 20
-428.178870
 30
0.0
 10
-0.753465
 20
-419.712270
 30
0.0
 10
-0.796165
 20
-411.245970
 30
0.0
  0
LINE
  5
436
100
AcDbEntity
  8
Layer_1
 62
1
100
AcDbLine
 10
-0.796165
 20
-411.245970
 30
0.0
 11
-0.796165
 21
-411.245970
 31
0.0
  0
LINE
  5
437
100
AcDbEntity
  8
Layer_1
 62
1
100
AcDbLine
 10
-0.796165
 20
-411.245970
 30
0.0
 11
-116.231740
 21
-388.187870
 31
0.0
  0
LINE
  5
438
100
AcDbEntity
  8
Layer_1
 62
1
100
AcDbLine
 10
-116.231740
 20
-388.187870
 30
0.0
 11
-116.231740
 21
-388.187870
 31
0.0
  0
LINE
  5
439
100
AcDbEntity
  8
Layer_1
 62
1
100
AcDbLine
 10
-116.231740
 20
-388.187870
 30
0.0
 11
-116.231740
 21
-388.187870
 31
0.0
  0
SPLINE
  5
43a
100
AcDbEntity
  8
Layer_1
 62
1
100
AcDbSpline
 70
8
 71
3
 72
8
 73
4
 74
0
 40
0
 40
0
 40
0
 40
0
 40
1
 40
1
 40
1
 40
1
 10
-116.231740
 20
-388.187870
 30
0.0
 10
-155.724240
 20
-380.745070
 30
0.0
 10
-189.778450
 20
-373.053170
 30
0.0
 10
-224.226750
 20
-379.491670
 30
0.0
  0
SPLINE
  5
43b
100
AcDbEntity
  8
Layer_1
 62
1
100
AcDbSpline
 70
8
 71
3
 72
8
 73
4
 74
0
 40
0
 40
0
 40
0
 40
0
 40
1
 40
1
 40
1
 40
1
 10
-224.226750
 20
-379.491670
 30
0.0
 10
-251.441550
 20
-384.578170
 30
0.0
 10
-277.989440
 20
-401.498270
 30
0.0
 10
-302.317140
 20
-415.319570
 30
0.0
  0
LINE
  5
43c
100
AcDbEntity
  8
Layer_1
 62
1
100
AcDbLine
 10
-302.317140
 20
-415.319570
 30
0.0
 11
-302.147650
 21
-441.606070
 31
0.0
  0
LINE
  5
43d
100
AcDbEntity
  8
Layer_1
 62
1
100
AcDbLine
 10
-302.147650
 20
-441.606070
 30
0.0
 11
-292.622750
 21
-441.558070
 31
0.0
  0
LINE
  5
43e
100
AcDbEntity
  8
Layer_1
 62
1
100
AcDbLine
 10
-292.622750
 20
-441.558070
 30
0.0
 11
-292.606850
 21
-444.732970
 31
0.0
  0
LINE
  5
43f
100
AcDbEntity
  8
Layer_1
 62
1
100
AcDbLine
 10
-292.606850
 20
-444.732970
 30
0.0
 11
-302.131750
 21
-444.780970
 31
0.0
  0
LINE
  5
440
100
AcDbEntity
  8
Layer_1
 62
1
100
AcDbLine
 10
-302.131750
 20
-444.780970
 30
0.0
 11
-301.985570
 21
-473.863570
 31
0.0
  0
LINE
  5
441
100
AcDbEntity
  8
Layer_1
 62
1
100
AcDbLine
 10
-301.985570
 20
-473.863570
 30
0.0
 11
-292.460750
 21
-473.815570
 31
0.0
  0
LINE
  5
442
100
AcDbEntity
  8
Layer_1
 62
1
100
AcDbLine
 10
-292.460750
 20
-473.815570
 30
0.0
 11
-292.444850
 21
-476.990570
 31
0.0
  0
LINE
  5
443
100
AcDbEntity
  8
Layer_1
 62
1
100
AcDbLine
 10
-292.444850
 20
-476.990570
 30
0.0
 11
-301.969640
 21
-477.038570
 31
0.0
  0
LINE
  5
444
100
AcDbEntity
  8
Layer_1
 62
1
100
AcDbLine
 10
-301.969640
 20
-477.038570
 30
0.0
 11
-301.822930
 21
-506.248170
 31
0.0
  0
LINE
  5
445
100
AcDbEntity
  8
Layer_1
 62
1
100
AcDbLine
 10
-301.822930
 20
-506.248170
 30
0.0
 11
-292.298030
 21
-506.200170
 31
0.0
  0
LINE
  5
446
100
AcDbEntity
  8
Layer_1
 62
1
100
AcDbLine
 10
-292.298030
 20
-506.200170
 30
0.0
 11
-292.282930
 21
-509.248170
 31
0.0
  0
LINE
  5
447
100
AcDbEntity
  8
Layer_1
 62
1
100
AcDbLine
 10
-292.282930
 20
-509.248170
 30
0.0
 11
-301.807820
 21
-509.296170
 31
0.0
  0
LINE
  5
448
100
AcDbEntity
  8
Layer_1
 62
1
100
AcDbLine
 10
-301.807820
 20
-509.296170
 30
0.0
 11
-301.730820
 21
-524.662970
 31
0.0
  0
LINE
  5
449
100
AcDbEntity
  8
Layer_1
 62
1
100
AcDbLine
 10
-408.423010
 20
-511.411770
 30
0.0
 11
-408.346010
 21
-496.044970
 31
0.0
  0
SPLINE
  5
44a
100
AcDbEntity
  8
Layer_1
 62
1
100
AcDbSpline
 70
8
 71
3
 72
8
 73
4
 74
0
 40
0
 40
0
 40
0
 40
0
 40
1
 40
1
 40
1
 40
1
 10
-408.346010
 20
-496.044970
 30
0.0
 10
-388.856910
 20
-491.865370
 30
0.0
 10
-372.454920
 20
-486.510070
 30
0.0
 10
-356.960810
 20
-480.808970
 30
0.0
  0
SPLINE
  5
44b
100
AcDbEntity
  8
Layer_1
 62
1
100
AcDbSpline
 70
8
 71
3
 72
8
 73
4
 74
0
 40
0
 40
0
 40
0
 40
0
 40
1
 40
1
 40
1
 40
1
 10
-356.960810
 20
-480.808970
 30
0.0
 10
-294.753590
 20
-587.620400
 30
0.0
 10
-203.138490
 20
-599.990100
 30
0.0
 10
-107.429180
 20
-599.429500
 30
0.0
  0
SPLINE
  5
44c
100
AcDbEntity
  8
Layer_1
 62
1
100
AcDbSpline
 70
8
 71
3
 72
8
 73
4
 74
0
 40
0
 40
0
 40
0
 40
0
 40
1
 40
1
 40
1
 40
1
 10
-107.429180
 20
-599.429500
 30
0.0
 10
-107.404080
 20
-607.895900
 30
0.0
 10
-107.446380
 20
-616.362500
 30
0.0
 10
-107.489080
 20
-624.828800
 30
0.0
  0
LINE
  5
44d
100
AcDbEntity
  8
Layer_1
 62
1
100
AcDbLine
 10
-107.489080
 20
-624.828800
 30
0.0
 11
-107.489080
 21
-624.828800
 31
0.0
  0
LINE
  5
44e
100
AcDbEntity
  8
Layer_1
 62
1
100
AcDbLine
 10
-107.489080
 20
-624.828800
 30
0.0
 11
-222.924640
 21
-647.886900
 31
0.0
  0
LINE
  5
44f
100
AcDbEntity
  8
Layer_1
 62
1
100
AcDbLine
 10
-222.924640
 20
-647.886900
 30
0.0
 11
-222.924640
 21
-647.886900
 31
0.0
  0
LINE
  5
450
100
AcDbEntity
  8
Layer_1
 62
1
100
AcDbLine
 10
-222.924640
 20
-647.886900
 30
0.0
 11
-222.924640
 21
-647.886900
 31
0.0
  0
SPLINE
  5
451
100
AcDbEntity
  8
Layer_1
 62
1
100
AcDbSpline
 70
8
 71
3
 72
8
 73
4
 74
0
 40
0
 40
0
 40
0
 40
0
 40
1
 40
1
 40
1
 40
1
 10
-222.924640
 20
-647.886900
 30
0.0
 10
-262.417140
 20
-655.329700
 30
0.0
 10
-296.471350
 20
-663.021600
 30
0.0
 10
-330.919650
 20
-656.583100
 30
0.0
  0
SPLINE
  5
452
100
AcDbEntity
  8
Layer_1
 62
1
100
AcDbSpline
 70
8
 71
3
 72
8
 73
4
 74
0
 40
0
 40
0
 40
0
 40
0
 40
1
 40
1
 40
1
 40
1
 10
-330.919650
 20
-656.583100
 30
0.0
 10
-358.134450
 20
-651.496600
 30
0.0
 10
-384.682340
 20
-634.576500
 30
0.0
 10
-409.010040
 20
-620.755200
 30
0.0
  0
LINE
  5
453
100
AcDbEntity
  8
Layer_1
 62
1
100
AcDbLine
 10
-409.010040
 20
-620.755200
 30
0.0
 11
-408.840550
 21
-594.468700
 31
0.0
  0
LINE
  5
454
100
AcDbEntity
  8
Layer_1
 62
1
100
AcDbLine
 10
-408.840550
 20
-594.468700
 30
0.0
 11
-399.315650
 21
-594.516700
 31
0.0
  0
LINE
  5
455
100
AcDbEntity
  8
Layer_1
 62
1
100
AcDbLine
 10
-399.315650
 20
-594.516700
 30
0.0
 11
-399.299750
 21
-591.341800
 31
0.0
  0
LINE
  5
456
100
AcDbEntity
  8
Layer_1
 62
1
100
AcDbLine
 10
-399.299750
 20
-591.341800
 30
0.0
 11
-408.824650
 21
-591.293800
 31
0.0
  0
LINE
  5
457
100
AcDbEntity
  8
Layer_1
 62
1
100
AcDbLine
 10
-408.824650
 20
-591.293800
 30
0.0
 11
-408.678470
 21
-562.211200
 31
0.0
  0
LINE
  5
458
100
AcDbEntity
  8
Layer_1
 62
1
100
AcDbLine
 10
-408.678470
 20
-562.211200
 30
0.0
 11
-399.153650
 21
-562.259200
 31
0.0
  0
LINE
  5
459
100
AcDbEntity
  8
Layer_1
 62
1
100
AcDbLine
 10
-399.153650
 20
-562.259200
 30
0.0
 11
-399.137750
 21
-559.084200
 31
0.0
  0
LINE
  5
45a
100
AcDbEntity
  8
Layer_1
 62
1
100
AcDbLine
 10
-399.137750
 20
-559.084200
 30
0.0
 11
-408.662540
 21
-559.036200
 31
0.0
  0
LINE
  5
45b
100
AcDbEntity
  8
Layer_1
 62
1
100
AcDbLine
 10
-408.662540
 20
-559.036200
 30
0.0
 11
-408.515830
 21
-529.826600
 31
0.0
  0
LINE
  5
45c
100
AcDbEntity
  8
Layer_1
 62
1
100
AcDbLine
 10
-408.515830
 20
-529.826600
 30
0.0
 11
-398.990930
 21
-529.874600
 31
0.0
  0
LINE
  5
45d
100
AcDbEntity
  8
Layer_1
 62
1
100
AcDbLine
 10
-398.990930
 20
-529.874600
 30
0.0
 11
-398.975830
 21
-526.826570
 31
0.0
  0
LINE
  5
45e
100
AcDbEntity
  8
Layer_1
 62
1
100
AcDbLine
 10
-398.975830
 20
-526.826570
 30
0.0
 11
-408.500720
 21
-526.778570
 31
0.0
  0
LINE
  5
45f
100
AcDbEntity
  8
Layer_1
 62
1
100
AcDbLine
 10
-408.500720
 20
-526.778570
 30
0.0
 11
-408.423720
 21
-511.411770
 31
0.0
  0
LINE
  5
460
100
AcDbEntity
  8
Layer_1
 62
1
100
AcDbLine
 10
-485.722210
 20
-306.687980
 30
0.0
 11
-496.720730
 21
-313.037980
 31
0.0
  0
LINE
  5
461
100
AcDbEntity
  8
Layer_1
 62
1
100
AcDbLine
 10
-496.720730
 20
-313.037980
 30
0.0
 11
-498.305740
 21
-310.292690
 31
0.0
  0
LINE
  5
462
100
AcDbEntity
  8
Layer_1
 62
1
100
AcDbLine
 10
-498.305740
 20
-310.292690
 30
0.0
 11
-487.307200
 21
-303.942690
 31
0.0
  0
LINE
  5
463
100
AcDbEntity
  8
Layer_1
 62
1
100
AcDbLine
 10
-487.307200
 20
-303.942690
 30
0.0
 11
-485.722210
 21
-306.687980
 31
0.0
  0
LINE
  5
464
100
AcDbEntity
  8
Layer_1
 62
1
100
AcDbLine
 10
-583.236670
 20
-303.942690
 30
0.0
 11
-572.238150
 21
-310.292690
 31
0.0
  0
LINE
  5
465
100
AcDbEntity
  8
Layer_1
 62
1
100
AcDbLine
 10
-572.238150
 20
-310.292690
 30
0.0
 11
-573.823140
 21
-313.037980
 31
0.0
  0
LINE
  5
466
100
AcDbEntity
  8
Layer_1
 62
1
100
AcDbLine
 10
-573.823140
 20
-313.037980
 30
0.0
 11
-584.821660
 21
-306.687980
 31
0.0
  0
LINE
  5
467
100
AcDbEntity
  8
Layer_1
 62
1
100
AcDbLine
 10
-584.821660
 20
-306.687980
 30
0.0
 11
-583.236670
 21
-303.942690
 31
0.0
  0
LINE
  5
468
100
AcDbEntity
  8
Layer_1
 62
1
100
AcDbLine
 10
-533.686930
 20
-377.065350
 30
0.0
 11
-533.686930
 21
-389.765350
 31
0.0
  0
LINE
  5
469
100
AcDbEntity
  8
Layer_1
 62
1
100
AcDbLine
 10
-533.686930
 20
-389.765350
 30
0.0
 11
-536.856930
 21
-389.765350
 31
0.0
  0
LINE
  5
46a
100
AcDbEntity
  8
Layer_1
 62
1
100
AcDbLine
 10
-536.856930
 20
-389.765350
 30
0.0
 11
-536.856930
 21
-377.065350
 31
0.0
  0
LINE
  5
46b
100
AcDbEntity
  8
Layer_1
 62
1
100
AcDbLine
 10
-536.856930
 20
-377.065350
 30
0.0
 11
-533.686930
 21
-377.065350
 31
0.0
  0
SPLINE
  5
46c
100
AcDbEntity
  8
Layer_1
 62
1
100
AcDbSpline
 70
8
 71
3
 72
8
 73
4
 74
0
 40
0
 40
0
 40
0
 40
0
 40
1
 40
1
 40
1
 40
1
 10
-472.621950
 20
-333.465350
 30
0.0
 10
-472.621950
 20
-311.082661
 30
0.0
 10
-484.562973
 20
-290.400203
 30
0.0
 10
-503.946950
 20
-279.208858
 30
0.0
  0
SPLINE
  5
46d
100
AcDbEntity
  8
Layer_1
 62
1
100
AcDbSpline
 70
8
 71
3
 72
8
 73
4
 74
0
 40
0
 40
0
 40
0
 40
0
 40
1
 40
1
 40
1
 40
1
 10
-503.946950
 20
-279.208858
 30
0.0
 10
-523.330927
 20
-268.017514
 30
0.0
 10
-547.212973
 20
-268.017514
 30
0.0
 10
-566.596950
 20
-279.208858
 30
0.0
  0
SPLINE
  5
46e
100
AcDbEntity
  8
Layer_1
 62
1
100
AcDbSpline
 70
8
 71
3
 72
8
 73
4
 74
0
 40
0
 40
0
 40
0
 40
0
 40
1
 40
1
 40
1
 40
1
 10
-566.596950
 20
-279.208858
 30
0.0
 10
-585.980927
 20
-290.400203
 30
0.0
 10
-597.921950
 20
-311.082661
 30
0.0
 10
-597.921950
 20
-333.465350
 30
0.0
  0
SPLINE
  5
46f
100
AcDbEntity
  8
Layer_1
 62
1
100
AcDbSpline
 70
8
 71
3
 72
8
 73
4
 74
0
 40
0
 40
0
 40
0
 40
0
 40
1
 40
1
 40
1
 40
1
 10
-597.921950
 20
-333.465350
 30
0.0
 10
-597.921950
 20
-355.848039
 30
0.0
 10
-585.980927
 20
-376.530497
 30
0.0
 10
-566.596950
 20
-387.721842
 30
0.0
  0
SPLINE
  5
470
100
AcDbEntity
  8
Layer_1
 62
1
100
AcDbSpline
 70
8
 71
3
 72
8
 73
4
 74
0
 40
0
 40
0
 40
0
 40
0
 40
1
 40
1
 40
1
 40
1
 10
-566.596950
 20
-387.721842
 30
0.0
 10
-547.212973
 20
-398.913186
 30
0.0
 10
-523.330927
 20
-398.913186
 30
0.0
 10
-503.946950
 20
-387.721842
 30
0.0
  0
SPLINE
  5
471
100
AcDbEntity
  8
Layer_1
 62
1
100
AcDbSpline
 70
8
 71
3
 72
8
 73
4
 74
0
 40
0
 40
0
 40
0
 40
0
 40
1
 40
1
 40
1
 40
1
 10
-503.946950
 20
-387.721842
 30
0.0
 10
-484.562973
 20
-376.530497
 30
0.0
 10
-472.621950
 20
-355.848039
 30
0.0
 10
-472.621950
 20
-333.465350
 30
0.0
  0
LINE
  5
472
100
AcDbEntity
  8
Layer_1
 62
1
100
AcDbLine
 10
-472.621950
 20
-333.465350
 30
0.0
 11
-472.621950
 21
-333.465350
 31
0.0
  0
SPLINE
  5
473
100
AcDbEntity
  8
Layer_1
 62
1
100
AcDbSpline
 70
8
 71
3
 72
8
 73
4
 74
0
 40
0
 40
0
 40
0
 40
0
 40
1
 40
1
 40
1
 40
1
 10
-503.271966
 20
-333.465330
 30
0.0
 10
-503.271966
 20
-344.897830
 30
0.0
 10
-509.371132
 20
-355.461896
 30
0.0
 10
-519.271968
 20
-361.178146
 30
0.0
  0
SPLINE
  5
474
100
AcDbEntity
  8
Layer_1
 62
1
100
AcDbSpline
 70
8
 71
3
 72
8
 73
4
 74
0
 40
0
 40
0
 40
0
 40
0
 40
1
 40
1
 40
1
 40
1
 10
-519.271968
 20
-361.178146
 30
0.0
 10
-529.172804
 20
-366.894397
 30
0.0
 10
-541.371136
 20
-366.894397
 30
0.0
 10
-551.271972
 20
-361.178146
 30
0.0
  0
SPLINE
  5
475
100
AcDbEntity
  8
Layer_1
 62
1
100
AcDbSpline
 70
8
 71
3
 72
8
 73
4
 74
0
 40
0
 40
0
 40
0
 40
0
 40
1
 40
1
 40
1
 40
1
 10
-551.271972
 20
-361.178146
 30
0.0
 10
-561.172808
 20
-355.461896
 30
0.0
 10
-567.271974
 20
-344.897830
 30
0.0
 10
-567.271974
 20
-333.465330
 30
0.0
  0
SPLINE
  5
476
100
AcDbEntity
  8
Layer_1
 62
1
100
AcDbSpline
 70
8
 71
3
 72
8
 73
4
 74
0
 40
0
 40
0
 40
0
 40
0
 40
1
 40
1
 40
1
 40
1
 10
-567.271974
 20
-333.465330
 30
0.0
 10
-567.271974
 20
-322.032830
 30
0.0
 10
-561.172808
 20
-311.468764
 30
0.0
 10
-551.271972
 20
-305.752514
 30
0.0
  0
SPLINE
  5
477
100
AcDbEntity
  8
Layer_1
 62
1
100
AcDbSpline
 70
8
 71
3
 72
8
 73
4
 74
0
 40
0
 40
0
 40
0
 40
0
 40
1
 40
1
 40
1
 40
1
 10
-551.271972
 20
-305.752514
 30
0.0
 10
-541.371136
 20
-300.036263
 30
0.0
 10
-529.172804
 20
-300.036263
 30
0.0
 10
-519.271968
 20
-305.752514
 30
0.0
  0
SPLINE
  5
478
100
AcDbEntity
  8
Layer_1
 62
1
100
AcDbSpline
 70
8
 71
3
 72
8
 73
4
 74
0
 40
0
 40
0
 40
0
 40
0
 40
1
 40
1
 40
1
 40
1
 10
-519.271968
 20
-305.752514
 30
0.0
 10
-509.371132
 20
-311.468764
 30
0.0
 10
-503.271966
 20
-322.032830
 30
0.0
 10
-503.271966
 20
-333.465330
 30
0.0
  0
LINE
  5
479
100
AcDbEntity
  8
Layer_1
 62
1
100
AcDbLine
 10
-503.271966
 20
-333.465330
 30
0.0
 11
-503.271966
 21
-333.465330
 31
0.0
  0
LINE
  5
47a
100
AcDbEntity
  8
Layer_1
 62
1
100
AcDbLine
 10
-85.449476
 20
-508.648760
 30
0.0
 11
-85.449476
 21
-503.648770
 31
0.0
  0
LINE
  5
47b
100
AcDbEntity
  8
Layer_1
 62
1
100
AcDbLine
 10
-85.449476
 20
-488.648780
 30
0.0
 11
-88.649466
 21
-488.648780
 31
0.0
  0
LINE
  5
47c
100
AcDbEntity
  8
Layer_1
 62
1
100
AcDbLine
 10
-88.649466
 20
-488.648780
 30
0.0
 11
-88.649466
 21
-503.648770
 31
0.0
  0
LINE
  5
47d
100
AcDbEntity
  8
Layer_1
 62
1
100
AcDbLine
 10
-88.649466
 20
-503.648770
 30
0.0
 11
-85.449476
 21
-503.648770
 31
0.0
  0
LINE
  5
47e
100
AcDbEntity
  8
Layer_1
 62
1
100
AcDbLine
 10
-85.449486
 20
-483.558780
 30
0.0
 11
-47.349475
 21
-483.558780
 31
0.0
  0
SPLINE
  5
47f
100
AcDbEntity
  8
Layer_1
 62
1
100
AcDbSpline
 70
8
 71
3
 72
8
 73
4
 74
0
 40
0
 40
0
 40
0
 40
0
 40
1
 40
1
 40
1
 40
1
 10
-85.449456
 20
-508.648760
 30
0.0
 10
-81.672556
 20
-503.530580
 30
0.0
 10
-75.650359
 20
-497.345320
 30
0.0
 10
-67.322913
 20
-494.435740
 30
0.0
  0
SPLINE
  5
480
100
AcDbEntity
  8
Layer_1
 62
1
100
AcDbSpline
 70
8
 71
3
 72
8
 73
4
 74
0
 40
0
 40
0
 40
0
 40
0
 40
1
 40
1
 40
1
 40
1
 10
-67.322913
 20
-494.435740
 30
0.0
 10
-54.648993
 20
-490.007520
 30
0.0
 10
-47.102444
 20
-487.521830
 30
0.0
 10
-47.349475
 20
-483.558780
 30
0.0
  0
LINE
  5
481
100
AcDbEntity
  8
Layer_1
 62
1
100
AcDbLine
 10
-65.491234
 20
-554.629330
 30
0.0
 11
-91.491234
 21
-554.629330
 31
0.0
  0
LINE
  5
482
100
AcDbEntity
  8
Layer_1
 62
1
100
AcDbLine
 10
-91.491234
 20
-554.629330
 30
0.0
 11
-91.491234
 21
-551.279330
 31
0.0
  0
LINE
  5
483
100
AcDbEntity
  8
Layer_1
 62
1
100
AcDbLine
 10
-91.491234
 20
-551.279330
 30
0.0
 11
-65.491234
 21
-551.279330
 31
0.0
  0
LINE
  5
484
100
AcDbEntity
  8
Layer_1
 62
1
100
AcDbLine
 10
-65.491234
 20
-551.279330
 30
0.0
 11
-65.491234
 21
-554.629330
 31
0.0
  0
LINE
  5
485
100
AcDbEntity
  8
Layer_1
 62
1
100
AcDbLine
 10
-76.906227
 20
-531.279360
 30
0.0
 11
-76.906227
 21
-546.279360
 31
0.0
  0
LINE
  5
486
100
AcDbEntity
  8
Layer_1
 62
1
100
AcDbLine
 10
-76.906227
 20
-546.279360
 30
0.0
 11
-80.076227
 21
-546.279360
 31
0.0
  0
LINE
  5
487
100
AcDbEntity
  8
Layer_1
 62
1
100
AcDbLine
 10
-80.076227
 20
-546.279360
 30
0.0
 11
-80.076227
 21
-531.279360
 31
0.0
  0
LINE
  5
488
100
AcDbEntity
  8
Layer_1
 62
1
100
AcDbLine
 10
-80.076227
 20
-531.279360
 30
0.0
 11
-76.906227
 21
-531.279360
 31
0.0
  0
LINE
  5
489
100
AcDbEntity
  8
Layer_1
 62
1
100
AcDbLine
 10
-76.906212
 20
-559.629330
 30
0.0
 11
-76.906212
 21
-574.629330
 31
0.0
  0
LINE
  5
48a
100
AcDbEntity
  8
Layer_1
 62
1
100
AcDbLine
 10
-76.906212
 20
-574.629330
 30
0.0
 11
-80.076212
 21
-574.629330
 31
0.0
  0
LINE
  5
48b
100
AcDbEntity
  8
Layer_1
 62
1
100
AcDbLine
 10
-80.076212
 20
-574.629330
 30
0.0
 11
-80.076212
 21
-559.629330
 31
0.0
  0
LINE
  5
48c
100
AcDbEntity
  8
Layer_1
 62
1
100
AcDbLine
 10
-80.076212
 20
-559.629330
 30
0.0
 11
-76.906212
 21
-559.629330
 31
0.0
  0
SPLINE
  5
48d
100
AcDbEntity
  8
Layer_1
 62
1
100
AcDbSpline
 70
8
 71
3
 72
8
 73
4
 74
0
 40
0
 40
0
 40
0
 40
0
 40
1
 40
1
 40
1
 40
1
 10
-97.171909
 20
-594.535640
 30
0.0
 10
-100.043720
 20
-580.861549
 30
0.0
 10
-101.491213
 20
-566.926734
 30
0.0
 10
-101.491210
 20
-552.954330
 30
0.0
  0
SPLINE
  5
48e
100
AcDbEntity
  8
Layer_1
 62
1
100
AcDbSpline
 70
8
 71
3
 72
8
 73
4
 74
0
 40
0
 40
0
 40
0
 40
0
 40
1
 40
1
 40
1
 40
1
 10
-101.491210
 20
-552.954330
 30
0.0
 10
-101.491211
 20
-538.978880
 30
0.0
 10
-100.043084
 20
-525.041043
 30
0.0
 10
-97.170029
 20
-511.364100
 30
0.0
  0
SPLINE
  5
48f
100
AcDbEntity
  8
Layer_1
 62
1
100
AcDbSpline
 70
8
 71
3
 72
8
 73
4
 74
0
 40
0
 40
0
 40
0
 40
0
 40
1
 40
1
 40
1
 40
1
 10
-52.176393
 20
-582.483970
 30
0.0
 10
-54.054603
 20
-572.752957
 30
0.0
 10
-55.000135
 20
-562.864945
 30
0.0
 10
-55.000135
 20
-552.954330
 30
0.0
  0
SPLINE
  5
490
100
AcDbEntity
  8
Layer_1
 62
1
100
AcDbSpline
 70
8
 71
3
 72
8
 73
4
 74
0
 40
0
 40
0
 40
0
 40
0
 40
1
 40
1
 40
1
 40
1
 10
-55.000135
 20
-552.954330
 30
0.0
 10
-55.000135
 20
-543.043715
 30
0.0
 10
-54.054603
 20
-533.155703
 30
0.0
 10
-52.176393
 20
-523.424690
 30
0.0
  0
LINE
  5
491
100
AcDbEntity
  8
Layer_1
 62
1
100
AcDbLine
 10
-52.176393
 20
-582.483970
 30
0.0
 11
-97.171909
 21
-594.535640
 31
0.0
  0
LINE
  5
492
100
AcDbEntity
  8
Layer_1
 62
1
100
AcDbLine
 10
-97.170029
 20
-511.364100
 30
0.0
 11
-52.176393
 21
-523.424690
 31
0.0
  0
SPLINE
  5
493
100
AcDbEntity
  8
Layer_1
 62
1
100
AcDbSpline
 70
8
 71
3
 72
8
 73
4
 74
0
 40
0
 40
0
 40
0
 40
0
 40
1
 40
1
 40
1
 40
1
 10
-85.449486
 20
-483.558780
 30
0.0
 10
-85.449483
 20
-485.255180
 30
0.0
 10
-85.449479
 20
-486.951850
 30
0.0
 10
-85.449476
 20
-488.648780
 30
0.0
  0
LINE
  5
494
100
AcDbEntity
  8
Layer_1
 62
1
100
AcDbLine
 10
-85.449474
 20
-458.468800
 30
0.0
 11
-85.449474
 21
-463.468790
 31
0.0
  0
LINE
  5
495
100
AcDbEntity
  8
Layer_1
 62
1
100
AcDbLine
 10
-85.449474
 20
-478.468780
 30
0.0
 11
-88.649464
 21
-478.468780
 31
0.0
  0
LINE
  5
496
100
AcDbEntity
  8
Layer_1
 62
1
100
AcDbLine
 10
-88.649464
 20
-478.468780
 30
0.0
 11
-88.649464
 21
-463.468790
 31
0.0
  0
LINE
  5
497
100
AcDbEntity
  8
Layer_1
 62
1
100
AcDbLine
 10
-88.649464
 20
-463.468790
 30
0.0
 11
-85.449474
 21
-463.468790
 31
0.0
  0
SPLINE
  5
498
100
AcDbEntity
  8
Layer_1
 62
1
100
AcDbSpline
 70
8
 71
3
 72
8
 73
4
 74
0
 40
0
 40
0
 40
0
 40
0
 40
1
 40
1
 40
1
 40
1
 10
-85.449454
 20
-458.468800
 30
0.0
 10
-81.672554
 20
-463.586980
 30
0.0
 10
-75.650357
 20
-469.772240
 30
0.0
 10
-67.322913
 20
-472.681820
 30
0.0
  0
SPLINE
  5
499
100
AcDbEntity
  8
Layer_1
 62
1
100
AcDbSpline
 70
8
 71
3
 72
8
 73
4
 74
0
 40
0
 40
0
 40
0
 40
0
 40
1
 40
1
 40
1
 40
1
 10
-67.322913
 20
-472.681820
 30
0.0
 10
-54.648993
 20
-477.110040
 30
0.0
 10
-47.102444
 20
-479.595730
 30
0.0
 10
-47.349475
 20
-483.558780
 30
0.0
  0
SPLINE
  5
49a
100
AcDbEntity
  8
Layer_1
 62
1
100
AcDbSpline
 70
8
 71
3
 72
8
 73
4
 74
0
 40
0
 40
0
 40
0
 40
0
 40
1
 40
1
 40
1
 40
1
 10
-85.449484
 20
-483.558780
 30
0.0
 10
-85.449481
 20
-481.862380
 30
0.0
 10
-85.449477
 20
-480.165710
 30
0.0
 10
-85.449474
 20
-478.468780
 30
0.0
  0
LINE
  5
49b
100
AcDbEntity
  8
Layer_1
 62
1
100
AcDbLine
 10
-47.349464
 20
-508.648760
 30
0.0
 11
-47.349464
 21
-503.648770
 31
0.0
  0
LINE
  5
49c
100
AcDbEntity
  8
Layer_1
 62
1
100
AcDbLine
 10
-47.349464
 20
-488.648780
 30
0.0
 11
-50.549454
 21
-488.648780
 31
0.0
  0
LINE
  5
49d
100
AcDbEntity
  8
Layer_1
 62
1
100
AcDbLine
 10
-50.549454
 20
-488.648780
 30
0.0
 11
-50.549454
 21
-503.648770
 31
0.0
  0
LINE
  5
49e
100
AcDbEntity
  8
Layer_1
 62
1
100
AcDbLine
 10
-50.549454
 20
-503.648770
 30
0.0
 11
-47.349464
 21
-503.648770
 31
0.0
  0
LINE
  5
49f
100
AcDbEntity
  8
Layer_1
 62
1
100
AcDbLine
 10
-47.349475
 20
-483.558780
 30
0.0
 11
-9.249464
 21
-483.558780
 31
0.0
  0
SPLINE
  5
4a0
100
AcDbEntity
  8
Layer_1
 62
1
100
AcDbSpline
 70
8
 71
3
 72
8
 73
4
 74
0
 40
0
 40
0
 40
0
 40
0
 40
1
 40
1
 40
1
 40
1
 10
-47.349443
 20
-508.648760
 30
0.0
 10
-43.572542
 20
-503.530580
 30
0.0
 10
-37.550342
 20
-497.345320
 30
0.0
 10
-29.222902
 20
-494.435740
 30
0.0
  0
SPLINE
  5
4a1
100
AcDbEntity
  8
Layer_1
 62
1
100
AcDbSpline
 70
8
 71
3
 72
8
 73
4
 74
0
 40
0
 40
0
 40
0
 40
0
 40
1
 40
1
 40
1
 40
1
 10
-29.222902
 20
-494.435740
 30
0.0
 10
-16.548982
 20
-490.007520
 30
0.0
 10
-9.002433
 20
-487.521830
 30
0.0
 10
-9.249464
 20
-483.558780
 30
0.0
  0
SPLINE
  5
4a2
100
AcDbEntity
  8
Layer_1
 62
1
100
AcDbSpline
 70
8
 71
3
 72
8
 73
4
 74
0
 40
0
 40
0
 40
0
 40
0
 40
1
 40
1
 40
1
 40
1
 10
-47.349475
 20
-483.558780
 30
0.0
 10
-47.349471
 20
-485.255180
 30
0.0
 10
-47.349468
 20
-486.951850
 30
0.0
 10
-47.349464
 20
-488.648780
 30
0.0
  0
LINE
  5
4a3
100
AcDbEntity
  8
Layer_1
 62
1
100
AcDbLine
 10
-47.349464
 20
-458.468800
 30
0.0
 11
-47.349464
 21
-463.468790
 31
0.0
  0
LINE
  5
4a4
100
AcDbEntity
  8
Layer_1
 62
1
100
AcDbLine
 10
-47.349464
 20
-478.468780
 30
0.0
 11
-50.549454
 21
-478.468780
 31
0.0
  0
LINE
  5
4a5
100
AcDbEntity
  8
Layer_1
 62
1
100
AcDbLine
 10
-50.549454
 20
-478.468780
 30
0.0
 11
-50.549454
 21
-463.468790
 31
0.0
  0
LINE
  5
4a6
100
AcDbEntity
  8
Layer_1
 62
1
100
AcDbLine
 10
-50.549454
 20
-463.468790
 30
0.0
 11
-47.349464
 21
-463.468790
 31
0.0
  0
SPLINE
  5
4a7
100
AcDbEntity
  8
Layer_1
 62
1
100
AcDbSpline
 70
8
 71
3
 72
8
 73
4
 74
0
 40
0
 40
0
 40
0
 40
0
 40
1
 40
1
 40
1
 40
1
 10
-47.349443
 20
-458.468800
 30
0.0
 10
-43.572542
 20
-463.586980
 30
0.0
 10
-37.550342
 20
-469.772240
 30
0.0
 10
-29.222902
 20
-472.681820
 30
0.0
  0
SPLINE
  5
4a8
100
AcDbEntity
  8
Layer_1
 62
1
100
AcDbSpline
 70
8
 71
3
 72
8
 73
4
 74
0
 40
0
 40
0
 40
0
 40
0
 40
1
 40
1
 40
1
 40
1
 10
-29.222902
 20
-472.681820
 30
0.0
 10
-16.548982
 20
-477.110040
 30
0.0
 10
-9.002433
 20
-479.595730
 30
0.0
 10
-9.249464
 20
-483.558780
 30
0.0
  0
SPLINE
  5
4a9
100
AcDbEntity
  8
Layer_1
 62
1
100
AcDbSpline
 70
8
 71
3
 72
8
 73
4
 74
0
 40
0
 40
0
 40
0
 40
0
 40
1
 40
1
 40
1
 40
1
 10
-47.349475
 20
-483.558780
 30
0.0
 10
-47.349471
 20
-481.862380
 30
0.0
 10
-47.349468
 20
-480.165710
 30
0.0
 10
-47.349464
 20
-478.468780
 30
0.0
  0
LINE
  5
4aa
100
AcDbEntity
  8
Layer_1
 62
1
100
AcDbLine
 10
-9.249453
 20
-508.648760
 30
0.0
 11
-9.249453
 21
-503.648770
 31
0.0
  0
LINE
  5
4ab
100
AcDbEntity
  8
Layer_1
 62
1
100
AcDbLine
 10
-9.249453
 20
-488.648780
 30
0.0
 11
-12.449443
 21
-488.648780
 31
0.0
  0
LINE
  5
4ac
100
AcDbEntity
  8
Layer_1
 62
1
100
AcDbLine
 10
-12.449443
 20
-488.648780
 30
0.0
 11
-12.449443
 21
-503.648770
 31
0.0
  0
LINE
  5
4ad
100
AcDbEntity
  8
Layer_1
 62
1
100
AcDbLine
 10
-12.449443
 20
-503.648770
 30
0.0
 11
-9.249453
 21
-503.648770
 31
0.0
  0
LINE
  5
4ae
100
AcDbEntity
  8
Layer_1
 62
1
100
AcDbLine
 10
-9.249464
 20
-483.558780
 30
0.0
 11
28.850551
 21
-483.558780
 31
0.0
  0
SPLINE
  5
4af
100
AcDbEntity
  8
Layer_1
 62
1
100
AcDbSpline
 70
8
 71
3
 72
8
 73
4
 74
0
 40
0
 40
0
 40
0
 40
0
 40
1
 40
1
 40
1
 40
1
 10
-9.249432
 20
-508.648760
 30
0.0
 10
-5.472532
 20
-503.530580
 30
0.0
 10
0.549671
 20
-497.345320
 30
0.0
 10
8.877111
 20
-494.435740
 30
0.0
  0
SPLINE
  5
4b0
100
AcDbEntity
  8
Layer_1
 62
1
100
AcDbSpline
 70
8
 71
3
 72
8
 73
4
 74
0
 40
0
 40
0
 40
0
 40
0
 40
1
 40
1
 40
1
 40
1
 10
8.877111
 20
-494.435740
 30
0.0
 10
21.551031
 20
-490.007520
 30
0.0
 10
29.097581
 20
-487.521830
 30
0.0
 10
28.850551
 20
-483.558780
 30
0.0
  0
SPLINE
  5
4b1
100
AcDbEntity
  8
Layer_1
 62
1
100
AcDbSpline
 70
8
 71
3
 72
8
 73
4
 74
0
 40
0
 40
0
 40
0
 40
0
 40
1
 40
1
 40
1
 40
1
 10
-9.249464
 20
-483.558780
 30
0.0
 10
-9.249460
 20
-485.255180
 30
0.0
 10
-9.249457
 20
-486.951850
 30
0.0
 10
-9.249453
 20
-488.648780
 30
0.0
  0
LINE
  5
4b2
100
AcDbEntity
  8
Layer_1
 62
1
100
AcDbLine
 10
-9.249453
 20
-458.468800
 30
0.0
 11
-9.249453
 21
-463.468790
 31
0.0
  0
LINE
  5
4b3
100
AcDbEntity
  8
Layer_1
 62
1
100
AcDbLine
 10
-9.249453
 20
-478.468780
 30
0.0
 11
-12.449443
 21
-478.468780
 31
0.0
  0
LINE
  5
4b4
100
AcDbEntity
  8
Layer_1
 62
1
100
AcDbLine
 10
-12.449443
 20
-478.468780
 30
0.0
 11
-12.449443
 21
-463.468790
 31
0.0
  0
LINE
  5
4b5
100
AcDbEntity
  8
Layer_1
 62
1
100
AcDbLine
 10
-12.449443
 20
-463.468790
 30
0.0
 11
-9.249453
 21
-463.468790
 31
0.0
  0
SPLINE
  5
4b6
100
AcDbEntity
  8
Layer_1
 62
1
100
AcDbSpline
 70
8
 71
3
 72
8
 73
4
 74
0
 40
0
 40
0
 40
0
 40
0
 40
1
 40
1
 40
1
 40
1
 10
-9.249432
 20
-458.468800
 30
0.0
 10
-5.472532
 20
-463.586980
 30
0.0
 10
0.549671
 20
-469.772240
 30
0.0
 10
8.877111
 20
-472.681820
 30
0.0
  0
SPLINE
  5
4b7
100
AcDbEntity
  8
Layer_1
 62
1
100
AcDbSpline
 70
8
 71
3
 72
8
 73
4
 74
0
 40
0
 40
0
 40
0
 40
0
 40
1
 40
1
 40
1
 40
1
 10
8.877111
 20
-472.681820
 30
0.0
 10
21.551031
 20
-477.110040
 30
0.0
 10
29.097581
 20
-479.595730
 30
0.0
 10
28.850551
 20
-483.558780
 30
0.0
  0
SPLINE
  5
4b8
100
AcDbEntity
  8
Layer_1
 62
1
100
AcDbSpline
 70
8
 71
3
 72
8
 73
4
 74
0
 40
0
 40
0
 40
0
 40
0
 40
1
 40
1
 40
1
 40
1
 10
-9.249464
 20
-483.558780
 30
0.0
 10
-9.249460
 20
-481.862380
 30
0.0
 10
-9.249457
 20
-480.165710
 30
0.0
 10
-9.249453
 20
-478.468780
 30
0.0
  0
LINE
  5
4b9
100
AcDbEntity
  8
Layer_1
 62
1
100
AcDbLine
 10
-17.115433
 20
-554.629330
 30
0.0
 11
-43.115433
 21
-554.629330
 31
0.0
  0
LINE
  5
4ba
100
AcDbEntity
  8
Layer_1
 62
1
100
AcDbLine
 10
-43.115433
 20
-554.629330
 30
0.0
 11
-43.115433
 21
-551.279330
 31
0.0
  0
LINE
  5
4bb
100
AcDbEntity
  8
Layer_1
 62
1
100
AcDbLine
 10
-43.115433
 20
-551.279330
 30
0.0
 11
-17.115433
 21
-551.279330
 31
0.0
  0
LINE
  5
4bc
100
AcDbEntity
  8
Layer_1
 62
1
100
AcDbLine
 10
-17.115433
 20
-551.279330
 30
0.0
 11
-17.115433
 21
-554.629330
 31
0.0
  0
LINE
  5
4bd
100
AcDbEntity
  8
Layer_1
 62
1
100
AcDbLine
 10
-28.530441
 20
-531.279360
 30
0.0
 11
-28.530441
 21
-546.279360
 31
0.0
  0
LINE
  5
4be
100
AcDbEntity
  8
Layer_1
 62
1
100
AcDbLine
 10
-28.530441
 20
-546.279360
 30
0.0
 11
-31.700441
 21
-546.279360
 31
0.0
  0
LINE
  5
4bf
100
AcDbEntity
  8
Layer_1
 62
1
100
AcDbLine
 10
-31.700441
 20
-546.279360
 30
0.0
 11
-31.700441
 21
-531.279360
 31
0.0
  0
LINE
  5
4c0
100
AcDbEntity
  8
Layer_1
 62
1
100
AcDbLine
 10
-31.700441
 20
-531.279360
 30
0.0
 11
-28.530441
 21
-531.279360
 31
0.0
  0
LINE
  5
4c1
100
AcDbEntity
  8
Layer_1
 62
1
100
AcDbLine
 10
-28.530426
 20
-559.629330
 30
0.0
 11
-28.530426
 21
-574.629330
 31
0.0
  0
LINE
  5
4c2
100
AcDbEntity
  8
Layer_1
 62
1
100
AcDbLine
 10
-28.530426
 20
-574.629330
 30
0.0
 11
-31.700426
 21
-574.629330
 31
0.0
  0
LINE
  5
4c3
100
AcDbEntity
  8
Layer_1
 62
1
100
AcDbLine
 10
-31.700426
 20
-574.629330
 30
0.0
 11
-31.700426
 21
-559.629330
 31
0.0
  0
LINE
  5
4c4
100
AcDbEntity
  8
Layer_1
 62
1
100
AcDbLine
 10
-31.700426
 20
-559.629330
 30
0.0
 11
-28.530426
 21
-559.629330
 31
0.0
  0
SPLINE
  5
4c5
100
AcDbEntity
  8
Layer_1
 62
1
100
AcDbSpline
 70
8
 71
3
 72
8
 73
4
 74
0
 40
0
 40
0
 40
0
 40
0
 40
1
 40
1
 40
1
 40
1
 10
-48.796124
 20
-594.535640
 30
0.0
 10
-51.667934
 20
-580.861549
 30
0.0
 10
-53.115426
 20
-566.926734
 30
0.0
 10
-53.115423
 20
-552.954330
 30
0.0
  0
SPLINE
  5
4c6
100
AcDbEntity
  8
Layer_1
 62
1
100
AcDbSpline
 70
8
 71
3
 72
8
 73
4
 74
0
 40
0
 40
0
 40
0
 40
0
 40
1
 40
1
 40
1
 40
1
 10
-53.115423
 20
-552.954330
 30
0.0
 10
-53.115424
 20
-538.978879
 30
0.0
 10
-51.667297
 20
-525.041043
 30
0.0
 10
-48.794242
 20
-511.364100
 30
0.0
  0
SPLINE
  5
4c7
100
AcDbEntity
  8
Layer_1
 62
1
100
AcDbSpline
 70
8
 71
3
 72
8
 73
4
 74
0
 40
0
 40
0
 40
0
 40
0
 40
1
 40
1
 40
1
 40
1
 10
-3.800614
 20
-582.483970
 30
0.0
 10
-5.678824
 20
-572.752957
 30
0.0
 10
-6.624354
 20
-562.864945
 30
0.0
 10
-6.624353
 20
-552.954330
 30
0.0
  0
SPLINE
  5
4c8
100
AcDbEntity
  8
Layer_1
 62
1
100
AcDbSpline
 70
8
 71
3
 72
8
 73
4
 74
0
 40
0
 40
0
 40
0
 40
0
 40
1
 40
1
 40
1
 40
1
 10
-6.624353
 20
-552.954330
 30
0.0
 10
-6.624354
 20
-543.043715
 30
0.0
 10
-5.678824
 20
-533.155703
 30
0.0
 10
-3.800614
 20
-523.424690
 30
0.0
  0
LINE
  5
4c9
100
AcDbEntity
  8
Layer_1
 62
1
100
AcDbLine
 10
-3.800614
 20
-582.483970
 30
0.0
 11
-48.796124
 21
-594.535640
 31
0.0
  0
LINE
  5
4ca
100
AcDbEntity
  8
Layer_1
 62
1
100
AcDbLine
 10
-48.794242
 20
-511.364100
 30
0.0
 11
-3.800614
 21
-523.424690
 31
0.0
  0
LINE
  5
4cb
100
AcDbEntity
  8
Layer_1
 62
1
100
AcDbLine
 10
30.725807
 20
-554.629330
 30
0.0
 11
4.725807
 21
-554.629330
 31
0.0
  0
LINE
  5
4cc
100
AcDbEntity
  8
Layer_1
 62
1
100
AcDbLine
 10
4.725807
 20
-554.629330
 30
0.0
 11
4.725807
 21
-551.279330
 31
0.0
  0
LINE
  5
4cd
100
AcDbEntity
  8
Layer_1
 62
1
100
AcDbLine
 10
4.725807
 20
-551.279330
 30
0.0
 11
30.725807
 21
-551.279330
 31
0.0
  0
LINE
  5
4ce
100
AcDbEntity
  8
Layer_1
 62
1
100
AcDbLine
 10
30.725807
 20
-551.279330
 30
0.0
 11
30.725807
 21
-554.629330
 31
0.0
  0
LINE
  5
4cf
100
AcDbEntity
  8
Layer_1
 62
1
100
AcDbLine
 10
19.310799
 20
-531.279360
 30
0.0
 11
19.310799
 21
-546.279360
 31
0.0
  0
LINE
  5
4d0
100
AcDbEntity
  8
Layer_1
 62
1
100
AcDbLine
 10
19.310799
 20
-546.279360
 30
0.0
 11
16.140799
 21
-546.279360
 31
0.0
  0
LINE
  5
4d1
100
AcDbEntity
  8
Layer_1
 62
1
100
AcDbLine
 10
16.140799
 20
-546.279360
 30
0.0
 11
16.140799
 21
-531.279360
 31
0.0
  0
LINE
  5
4d2
100
AcDbEntity
  8
Layer_1
 62
1
100
AcDbLine
 10
16.140799
 20
-531.279360
 30
0.0
 11
19.310799
 21
-531.279360
 31
0.0
  0
LINE
  5
4d3
100
AcDbEntity
  8
Layer_1
 62
1
100
AcDbLine
 10
19.310822
 20
-559.629330
 30
0.0
 11
19.310822
 21
-574.629330
 31
0.0
  0
LINE
  5
4d4
100
AcDbEntity
  8
Layer_1
 62
1
100
AcDbLine
 10
19.310822
 20
-574.629330
 30
0.0
 11
16.140822
 21
-574.629330
 31
0.0
  0
LINE
  5
4d5
100
AcDbEntity
  8
Layer_1
 62
1
100
AcDbLine
 10
16.140822
 20
-574.629330
 30
0.0
 11
16.140822
 21
-559.629330
 31
0.0
  0
LINE
  5
4d6
100
AcDbEntity
  8
Layer_1
 62
1
100
AcDbLine
 10
16.140822
 20
-559.629330
 30
0.0
 11
19.310822
 21
-559.629330
 31
0.0
  0
SPLINE
  5
4d7
100
AcDbEntity
  8
Layer_1
 62
1
100
AcDbSpline
 70
8
 71
3
 72
8
 73
4
 74
0
 40
0
 40
0
 40
0
 40
0
 40
1
 40
1
 40
1
 40
1
 10
-0.954879
 20
-594.535640
 30
0.0
 10
-3.826691
 20
-580.861549
 30
0.0
 10
-5.274186
 20
-566.926734
 30
0.0
 10
-5.274184
 20
-552.954330
 30
0.0
  0
SPLINE
  5
4d8
100
AcDbEntity
  8
Layer_1
 62
1
100
AcDbSpline
 70
8
 71
3
 72
8
 73
4
 74
0
 40
0
 40
0
 40
0
 40
0
 40
1
 40
1
 40
1
 40
1
 10
-5.274184
 20
-552.954330
 30
0.0
 10
-5.274183
 20
-538.978879
 30
0.0
 10
-3.826056
 20
-525.041043
 30
0.0
 10
-0.952999
 20
-511.364100
 30
0.0
  0
SPLINE
  5
4d9
100
AcDbEntity
  8
Layer_1
 62
1
100
AcDbSpline
 70
8
 71
3
 72
8
 73
4
 74
0
 40
0
 40
0
 40
0
 40
0
 40
1
 40
1
 40
1
 40
1
 10
44.040640
 20
-582.483970
 30
0.0
 10
42.162430
 20
-572.752957
 30
0.0
 10
41.216900
 20
-562.864945
 30
0.0
 10
41.216900
 20
-552.954330
 30
0.0
  0
SPLINE
  5
4da
100
AcDbEntity
  8
Layer_1
 62
1
100
AcDbSpline
 70
8
 71
3
 72
8
 73
4
 74
0
 40
0
 40
0
 40
0
 40
0
 40
1
 40
1
 40
1
 40
1
 10
41.216900
 20
-552.954330
 30
0.0
 10
41.216900
 20
-543.043715
 30
0.0
 10
42.162430
 20
-533.155703
 30
0.0
 10
44.040640
 20
-523.424690
 30
0.0
  0
LINE
  5
4db
100
AcDbEntity
  8
Layer_1
 62
1
100
AcDbLine
 10
44.040640
 20
-582.483970
 30
0.0
 11
-0.954879
 21
-594.535640
 31
0.0
  0
LINE
  5
4dc
100
AcDbEntity
  8
Layer_1
 62
1
100
AcDbLine
 10
-0.952999
 20
-511.364100
 30
0.0
 11
44.040640
 21
-523.424690
 31
0.0
  0
SPLINE
  5
4dd
100
AcDbEntity
  8
Layer_1
 62
1
100
AcDbSpline
 70
8
 71
3
 72
8
 73
4
 74
0
 40
0
 40
0
 40
0
 40
0
 40
1
 40
1
 40
1
 40
1
 10
-898.837050
 20
-368.396172
 30
0.0
 10
-905.123811
 20
-357.469507
 30
0.0
 10
-916.767043
 20
-350.731813
 30
0.0
 10
-929.373206
 20
-350.725539
 30
0.0
  0
SPLINE
  5
4de
100
AcDbEntity
  8
Layer_1
 62
1
100
AcDbSpline
 70
8
 71
3
 72
8
 73
4
 74
0
 40
0
 40
0
 40
0
 40
0
 40
1
 40
1
 40
1
 40
1
 10
-929.373206
 20
-350.725539
 30
0.0
 10
-941.979368
 20
-350.719266
 30
0.0
 10
-953.629300
 20
-357.445367
 30
0.0
 10
-959.926934
 20
-368.365769
 30
0.0
  0
SPLINE
  5
4df
100
AcDbEntity
  8
Layer_1
 62
1
100
AcDbSpline
 70
8
 71
3
 72
8
 73
4
 74
0
 40
0
 40
0
 40
0
 40
0
 40
1
 40
1
 40
1
 40
1
 10
-959.926934
 20
-368.365769
 30
0.0
 10
-966.224568
 20
-379.286171
 30
0.0
 10
-966.211153
 20
-392.738353
 30
0.0
 10
-959.891750
 20
-403.646172
 30
0.0
  0
SPLINE
  5
4e0
100
AcDbEntity
  8
Layer_1
 62
1
100
AcDbSpline
 70
8
 71
3
 72
8
 73
4
 74
0
 40
0
 40
0
 40
0
 40
0
 40
1
 40
1
 40
1
 40
1
 10
-959.891750
 20
-403.646172
 30
0.0
 10
-953.604989
 20
-414.572837
 30
0.0
 10
-941.961757
 20
-421.310531
 30
0.0
 10
-929.355594
 20
-421.316805
 30
0.0
  0
SPLINE
  5
4e1
100
AcDbEntity
  8
Layer_1
 62
1
100
AcDbSpline
 70
8
 71
3
 72
8
 73
4
 74
0
 40
0
 40
0
 40
0
 40
0
 40
1
 40
1
 40
1
 40
1
 10
-929.355594
 20
-421.316805
 30
0.0
 10
-916.749432
 20
-421.323078
 30
0.0
 10
-905.099500
 20
-414.596977
 30
0.0
 10
-898.801866
 20
-403.676575
 30
0.0
  0
SPLINE
  5
4e2
100
AcDbEntity
  8
Layer_1
 62
1
100
AcDbSpline
 70
8
 71
3
 72
8
 73
4
 74
0
 40
0
 40
0
 40
0
 40
0
 40
1
 40
1
 40
1
 40
1
 10
-898.801866
 20
-403.676575
 30
0.0
 10
-892.504232
 20
-392.756173
 30
0.0
 10
-892.517647
 20
-379.303991
 30
0.0
 10
-898.837050
 20
-368.396172
 30
0.0
  0
LINE
  5
4e3
100
AcDbEntity
  8
Layer_1
 62
1
100
AcDbLine
 10
-898.837050
 20
-368.396172
 30
0.0
 11
-898.837050
 21
-368.396172
 31
0.0
  0
LINE
  5
4e4
100
AcDbEntity
  8
Layer_1
 62
1
100
AcDbLine
 10
-879.953450
 20
-474.797042
 30
0.0
 11
-886.871450
 21
-478.791142
 31
0.0
  0
LINE
  5
4e5
100
AcDbEntity
  8
Layer_1
 62
1
100
AcDbLine
 10
-877.197950
 20
-473.206142
 30
0.0
 11
-870.269750
 21
-469.206142
 31
0.0
  0
LINE
  5
4e6
100
AcDbEntity
  8
Layer_1
 62
1
100
AcDbLine
 10
-870.269750
 20
-469.206142
 30
0.0
 11
-877.208250
 21
-473.212092
 31
0.0
  0
LINE
  5
4e7
100
AcDbEntity
  8
Layer_1
 62
1
100
AcDbLine
 10
-865.932550
 20
-470.368282
 30
0.0
 11
-867.520050
 21
-467.618642
 31
0.0
  0
LINE
  5
4e8
100
AcDbEntity
  8
Layer_1
 62
1
100
AcDbLine
 10
-869.086850
 20
-472.189372
 30
0.0
 11
-869.173850
 21
-472.239572
 31
0.0
  0
LINE
  5
4e9
100
AcDbEntity
  8
Layer_1
 62
1
100
AcDbLine
 10
-863.551350
 20
-474.492722
 30
0.0
 11
-865.932550
 21
-470.368282
 31
0.0
  0
SPLINE
  5
4ea
100
AcDbEntity
  8
Layer_1
 62
1
100
AcDbSpline
 70
8
 71
3
 72
8
 73
4
 74
0
 40
0
 40
0
 40
0
 40
0
 40
1
 40
1
 40
1
 40
1
 10
-869.173750
 20
-472.239582
 30
0.0
 10
-869.445250
 20
-472.396332
 30
0.0
 10
-869.538350
 20
-472.743532
 30
0.0
 10
-869.381650
 20
-473.015022
 30
0.0
  0
SPLINE
  5
4eb
100
AcDbEntity
  8
Layer_1
 62
1
100
AcDbSpline
 70
8
 71
3
 72
8
 73
4
 74
0
 40
0
 40
0
 40
0
 40
0
 40
1
 40
1
 40
1
 40
1
 10
-869.381650
 20
-473.015022
 30
0.0
 10
-869.260550
 20
-473.224782
 30
0.0
 10
-869.017950
 20
-473.233922
 30
0.0
 10
-868.781950
 20
-473.288222
 30
0.0
  0
LINE
  5
4ec
100
AcDbEntity
  8
Layer_1
 62
1
100
AcDbLine
 10
-868.781950
 20
-473.288222
 30
0.0
 11
-863.551250
 21
-474.492662
 31
0.0
  0
LINE
  5
4ed
100
AcDbEntity
  8
Layer_1
 62
1
100
AcDbLine
 10
-870.269650
 20
-469.206092
 30
0.0
 11
-868.789550
 21
-471.769772
 31
0.0
  0
SPLINE
  5
4ee
100
AcDbEntity
  8
Layer_1
 62
1
100
AcDbSpline
 70
8
 71
3
 72
8
 73
4
 74
0
 40
0
 40
0
 40
0
 40
0
 40
1
 40
1
 40
1
 40
1
 10
-868.789550
 20
-471.769772
 30
0.0
 10
-868.735550
 20
-471.863972
 30
0.0
 10
-868.772550
 20
-472.008122
 30
0.0
 10
-868.886550
 20
-472.073672
 30
0.0
  0
LINE
  5
4ef
100
AcDbEntity
  8
Layer_1
 62
1
100
AcDbLine
 10
-868.886550
 20
-472.073672
 30
0.0
 11
-869.088850
 21
-472.190482
 31
0.0
  0
LINE
  5
4f0
100
AcDbEntity
  8
Layer_1
 62
1
100
AcDbLine
 10
-866.405150
 20
-465.753312
 30
0.0
 11
-866.405250
 21
-465.753342
 31
0.0
  0
LINE
  5
4f1
100
AcDbEntity
  8
Layer_1
 62
1
100
AcDbLine
 10
-888.033550
 20
-483.128282
 30
0.0
 11
-889.621050
 21
-480.378642
 31
0.0
  0
LINE
  5
4f2
100
AcDbEntity
  8
Layer_1
 62
1
100
AcDbLine
 10
-884.879250
 20
-481.307122
 30
0.0
 11
-884.792250
 21
-481.257022
 31
0.0
  0
LINE
  5
4f3
100
AcDbEntity
  8
Layer_1
 62
1
100
AcDbLine
 10
-885.652350
 20
-487.252722
 30
0.0
 11
-888.033550
 21
-483.128282
 31
0.0
  0
SPLINE
  5
4f4
100
AcDbEntity
  8
Layer_1
 62
1
100
AcDbSpline
 70
8
 71
3
 72
8
 73
4
 74
0
 40
0
 40
0
 40
0
 40
0
 40
1
 40
1
 40
1
 40
1
 10
-884.792250
 20
-481.256932
 30
0.0
 10
-884.520750
 20
-481.100182
 30
0.0
 10
-884.173550
 20
-481.193132
 30
0.0
 10
-884.016850
 20
-481.464672
 30
0.0
  0
SPLINE
  5
4f5
100
AcDbEntity
  8
Layer_1
 62
1
100
AcDbSpline
 70
8
 71
3
 72
8
 73
4
 74
0
 40
0
 40
0
 40
0
 40
0
 40
1
 40
1
 40
1
 40
1
 10
-884.016850
 20
-481.464672
 30
0.0
 10
-883.895750
 20
-481.674432
 30
0.0
 10
-884.006850
 20
-481.889072
 30
0.0
 10
-884.079850
 20
-482.120572
 30
0.0
  0
LINE
  5
4f6
100
AcDbEntity
  8
Layer_1
 62
1
100
AcDbLine
 10
-884.079850
 20
-482.120572
 30
0.0
 11
-885.652150
 21
-487.252712
 31
0.0
  0
LINE
  5
4f7
100
AcDbEntity
  8
Layer_1
 62
1
100
AcDbLine
 10
-886.871450
 20
-478.791142
 30
0.0
 11
-885.391250
 21
-481.354822
 31
0.0
  0
SPLINE
  5
4f8
100
AcDbEntity
  8
Layer_1
 62
1
100
AcDbSpline
 70
8
 71
3
 72
8
 73
4
 74
0
 40
0
 40
0
 40
0
 40
0
 40
1
 40
1
 40
1
 40
1
 10
-885.391250
 20
-481.354822
 30
0.0
 10
-885.337250
 20
-481.449022
 30
0.0
 10
-885.193150
 20
-481.488372
 30
0.0
 10
-885.079650
 20
-481.422822
 30
0.0
  0
LINE
  5
4f9
100
AcDbEntity
  8
Layer_1
 62
1
100
AcDbLine
 10
-885.079650
 20
-481.422822
 30
0.0
 11
-884.877350
 21
-481.306032
 31
0.0
  0
LINE
  5
4fa
100
AcDbEntity
  8
Layer_1
 62
1
100
AcDbLine
 10
-891.791150
 20
-480.418282
 30
0.0
 11
-891.791050
 21
-480.418242
 31
0.0
  0
LINE
  5
4fb
100
AcDbEntity
  8
Layer_1
 62
1
100
AcDbLine
 10
-877.197950
 20
-298.836192
 30
0.0
 11
-870.279950
 21
-302.830282
 31
0.0
  0
LINE
  5
4fc
100
AcDbEntity
  8
Layer_1
 62
1
100
AcDbLine
 10
-879.953450
 20
-297.245282
 30
0.0
 11
-886.881650
 21
-293.245282
 31
0.0
  0
LINE
  5
4fd
100
AcDbEntity
  8
Layer_1
 62
1
100
AcDbLine
 10
-886.881650
 20
-293.245282
 30
0.0
 11
-879.943050
 21
-297.251242
 31
0.0
  0
LINE
  5
4fe
100
AcDbEntity
  8
Layer_1
 62
1
100
AcDbLine
 10
-888.043750
 20
-288.908172
 30
0.0
 11
-889.631250
 21
-291.657782
 31
0.0
  0
LINE
  5
4ff
100
AcDbEntity
  8
Layer_1
 62
1
100
AcDbLine
 10
-884.889550
 20
-290.729292
 30
0.0
 11
-884.802550
 21
-290.779492
 31
0.0
  0
LINE
  5
500
100
AcDbEntity
  8
Layer_1
 62
1
100
AcDbLine
 10
-885.662450
 20
-284.783692
 30
0.0
 11
-888.043750
 21
-288.908172
 31
0.0
  0
SPLINE
  5
501
100
AcDbEntity
  8
Layer_1
 62
1
100
AcDbSpline
 70
8
 71
3
 72
8
 73
4
 74
0
 40
0
 40
0
 40
0
 40
0
 40
1
 40
1
 40
1
 40
1
 10
-884.802550
 20
-290.779502
 30
0.0
 10
-884.531050
 20
-290.936222
 30
0.0
 10
-884.183850
 20
-290.843202
 30
0.0
 10
-884.027050
 20
-290.571692
 30
0.0
  0
SPLINE
  5
502
100
AcDbEntity
  8
Layer_1
 62
1
100
AcDbSpline
 70
8
 71
3
 72
8
 73
4
 74
0
 40
0
 40
0
 40
0
 40
0
 40
1
 40
1
 40
1
 40
1
 10
-884.027050
 20
-290.571692
 30
0.0
 10
-883.906050
 20
-290.361962
 30
0.0
 10
-884.017050
 20
-290.147322
 30
0.0
 10
-884.090050
 20
-289.915852
 30
0.0
  0
LINE
  5
503
100
AcDbEntity
  8
Layer_1
 62
1
100
AcDbLine
 10
-884.090050
 20
-289.915852
 30
0.0
 11
-885.662350
 21
-284.783732
 31
0.0
  0
LINE
  5
504
100
AcDbEntity
  8
Layer_1
 62
1
100
AcDbLine
 10
-886.881650
 20
-293.245272
 30
0.0
 11
-885.403250
 21
-290.680642
 31
0.0
  0
SPLINE
  5
505
100
AcDbEntity
  8
Layer_1
 62
1
100
AcDbSpline
 70
8
 71
3
 72
8
 73
4
 74
0
 40
0
 40
0
 40
0
 40
0
 40
1
 40
1
 40
1
 40
1
 10
-885.403250
 20
-290.680642
 30
0.0
 10
-885.351250
 20
-290.585542
 30
0.0
 10
-885.205150
 20
-290.547062
 30
0.0
 10
-885.091650
 20
-290.612642
 30
0.0
  0
LINE
  5
506
100
AcDbEntity
  8
Layer_1
 62
1
100
AcDbLine
 10
-885.091650
 20
-290.612642
 30
0.0
 11
-884.889350
 21
-290.729452
 31
0.0
  0
LINE
  5
507
100
AcDbEntity
  8
Layer_1
 62
1
100
AcDbLine
 10
-865.942850
 20
-301.668162
 30
0.0
 11
-867.530350
 21
-304.417772
 31
0.0
  0
LINE
  5
508
100
AcDbEntity
  8
Layer_1
 62
1
100
AcDbLine
 10
-869.097050
 20
-299.847042
 30
0.0
 11
-869.184050
 21
-299.796742
 31
0.0
  0
LINE
  5
509
100
AcDbEntity
  8
Layer_1
 62
1
100
AcDbLine
 10
-863.561550
 20
-297.543692
 30
0.0
 11
-865.942850
 21
-301.668162
 31
0.0
  0
SPLINE
  5
50a
100
AcDbEntity
  8
Layer_1
 62
1
100
AcDbSpline
 70
8
 71
3
 72
8
 73
4
 74
0
 40
0
 40
0
 40
0
 40
0
 40
1
 40
1
 40
1
 40
1
 10
-869.184050
 20
-299.796822
 30
0.0
 10
-869.455550
 20
-299.640102
 30
0.0
 10
-869.548850
 20
-299.293032
 30
0.0
 10
-869.391750
 20
-299.021382
 30
0.0
  0
SPLINE
  5
50b
100
AcDbEntity
  8
Layer_1
 62
1
100
AcDbSpline
 70
8
 71
3
 72
8
 73
4
 74
0
 40
0
 40
0
 40
0
 40
0
 40
1
 40
1
 40
1
 40
1
 10
-869.391750
 20
-299.021382
 30
0.0
 10
-869.270750
 20
-298.811652
 30
0.0
 10
-869.028350
 20
-298.802302
 30
0.0
 10
-868.792250
 20
-298.748212
 30
0.0
  0
LINE
  5
50c
100
AcDbEntity
  8
Layer_1
 62
1
100
AcDbLine
 10
-868.792250
 20
-298.748212
 30
0.0
 11
-863.561550
 21
-297.543782
 31
0.0
  0
LINE
  5
50d
100
AcDbEntity
  8
Layer_1
 62
1
100
AcDbLine
 10
-870.279950
 20
-302.830282
 30
0.0
 11
-868.798050
 21
-300.267592
 31
0.0
  0
SPLINE
  5
50e
100
AcDbEntity
  8
Layer_1
 62
1
100
AcDbSpline
 70
8
 71
3
 72
8
 73
4
 74
0
 40
0
 40
0
 40
0
 40
0
 40
1
 40
1
 40
1
 40
1
 10
-868.798050
 20
-300.267592
 30
0.0
 10
-868.742050
 20
-300.174492
 30
0.0
 10
-868.781050
 20
-300.029292
 30
0.0
 10
-868.895050
 20
-299.963752
 30
0.0
  0
LINE
  5
50f
100
AcDbEntity
  8
Layer_1
 62
1
100
AcDbLine
 10
-868.895050
 20
-299.963752
 30
0.0
 11
-869.097350
 21
-299.846932
 31
0.0
  0
LINE
  5
510
100
AcDbEntity
  8
Layer_1
 62
1
100
AcDbLine
 10
-1030.952050
 20
-384.436282
 30
0.0
 11
-1030.952050
 21
-376.448092
 31
0.0
  0
LINE
  5
511
100
AcDbEntity
  8
Layer_1
 62
1
100
AcDbLine
 10
-1030.952050
 20
-387.618082
 30
0.0
 11
-1030.951950
 21
-395.618092
 31
0.0
  0
LINE
  5
512
100
AcDbEntity
  8
Layer_1
 62
1
100
AcDbLine
 10
-1030.951950
 20
-395.618092
 30
0.0
 11
-1030.951950
 21
-387.606122
 31
0.0
  0
LINE
  5
513
100
AcDbEntity
  8
Layer_1
 62
1
100
AcDbLine
 10
-1034.126950
 20
-395.150852
 30
0.0
 11
-1034.127050
 21
-395.050682
 31
0.0
  0
LINE
  5
514
100
AcDbEntity
  8
Layer_1
 62
1
100
AcDbLine
 10
-1038.889450
 20
-398.793052
 30
0.0
 11
-1034.126950
 21
-398.793072
 31
0.0
  0
LINE
  5
515
100
AcDbEntity
  8
Layer_1
 62
1
100
AcDbLine
 10
-1034.126950
 20
-398.793072
 30
0.0
 11
-1030.951950
 21
-398.793092
 31
0.0
  0
SPLINE
  5
516
100
AcDbEntity
  8
Layer_1
 62
1
100
AcDbSpline
 70
8
 71
3
 72
8
 73
4
 74
0
 40
0
 40
0
 40
0
 40
0
 40
1
 40
1
 40
1
 40
1
 10
-1034.126950
 20
-395.050442
 30
0.0
 10
-1034.126950
 20
-394.736912
 30
0.0
 10
-1034.380950
 20
-394.482642
 30
0.0
 10
-1034.694550
 20
-394.482742
 30
0.0
  0
SPLINE
  5
517
100
AcDbEntity
  8
Layer_1
 62
1
100
AcDbSpline
 70
8
 71
3
 72
8
 73
4
 74
0
 40
0
 40
0
 40
0
 40
0
 40
1
 40
1
 40
1
 40
1
 10
-1034.694550
 20
-394.482742
 30
0.0
 10
-1034.936850
 20
-394.482772
 30
0.0
 10
-1035.066150
 20
-394.688022
 30
0.0
 10
-1035.231050
 20
-394.865432
 30
0.0
  0
LINE
  5
518
100
AcDbEntity
  8
Layer_1
 62
1
100
AcDbLine
 10
-1035.231050
 20
-394.865432
 30
0.0
 11
-1038.889450
 21
-398.793092
 31
0.0
  0
LINE
  5
519
100
AcDbEntity
  8
Layer_1
 62
1
100
AcDbLine
 10
-1030.951950
 20
-395.618102
 30
0.0
 11
-1033.912250
 21
-395.620102
 31
0.0
  0
SPLINE
  5
51a
100
AcDbEntity
  8
Layer_1
 62
1
100
AcDbSpline
 70
8
 71
3
 72
8
 73
4
 74
0
 40
0
 40
0
 40
0
 40
0
 40
1
 40
1
 40
1
 40
1
 10
-1033.912250
 20
-395.620102
 30
0.0
 10
-1034.020850
 20
-395.622102
 30
0.0
 10
-1034.126950
 20
-395.515302
 30
0.0
 10
-1034.126950
 20
-395.384252
 30
0.0
  0
LINE
  5
51b
100
AcDbEntity
  8
Layer_1
 62
1
100
AcDbLine
 10
-1034.126950
 20
-395.384252
 30
0.0
 11
-1034.126950
 21
-395.150632
 31
0.0
  0
LINE
  5
51c
100
AcDbEntity
  8
Layer_1
 62
1
100
AcDbLine
 10
-1034.126950
 20
-373.273072
 30
0.0
 11
-1030.952050
 21
-373.273092
 31
0.0
  0
LINE
  5
51d
100
AcDbEntity
  8
Layer_1
 62
1
100
AcDbLine
 10
-1034.126950
 20
-376.915312
 30
0.0
 11
-1034.126850
 21
-377.015482
 31
0.0
  0
LINE
  5
51e
100
AcDbEntity
  8
Layer_1
 62
1
100
AcDbLine
 10
-1038.889450
 20
-373.273052
 30
0.0
 11
-1034.126950
 21
-373.273072
 31
0.0
  0
SPLINE
  5
51f
100
AcDbEntity
  8
Layer_1
 62
1
100
AcDbSpline
 70
8
 71
3
 72
8
 73
4
 74
0
 40
0
 40
0
 40
0
 40
0
 40
1
 40
1
 40
1
 40
1
 10
-1034.126950
 20
-377.015722
 30
0.0
 10
-1034.126950
 20
-377.329242
 30
0.0
 10
-1034.381150
 20
-377.583402
 30
0.0
 10
-1034.694650
 20
-377.583402
 30
0.0
  0
SPLINE
  5
520
100
AcDbEntity
  8
Layer_1
 62
1
100
AcDbSpline
 70
8
 71
3
 72
8
 73
4
 74
0
 40
0
 40
0
 40
0
 40
0
 40
1
 40
1
 40
1
 40
1
 10
-1034.694650
 20
-377.583402
 30
0.0
 10
-1034.936850
 20
-377.583382
 30
0.0
 10
-1035.066050
 20
-377.377932
 30
0.0
 10
-1035.231050
 20
-377.200762
 30
0.0
  0
LINE
  5
521
100
AcDbEntity
  8
Layer_1
 62
1
100
AcDbLine
 10
-1035.231050
 20
-377.200762
 30
0.0
 11
-1038.889450
 21
-373.273052
 31
0.0
  0
LINE
  5
522
100
AcDbEntity
  8
Layer_1
 62
1
100
AcDbLine
 10
-1030.952050
 20
-376.448092
 30
0.0
 11
-1033.912250
 21
-376.446092
 31
0.0
  0
SPLINE
  5
523
100
AcDbEntity
  8
Layer_1
 62
1
100
AcDbSpline
 70
8
 71
3
 72
8
 73
4
 74
0
 40
0
 40
0
 40
0
 40
0
 40
1
 40
1
 40
1
 40
1
 10
-1033.912250
 20
-376.446092
 30
0.0
 10
-1034.020850
 20
-376.444092
 30
0.0
 10
-1034.126950
 20
-376.550912
 30
0.0
 10
-1034.126950
 20
-376.681962
 30
0.0
  0
LINE
  5
524
100
AcDbEntity
  8
Layer_1
 62
1
100
AcDbLine
 10
-1034.126950
 20
-376.681962
 30
0.0
 11
-1034.126950
 21
-376.915562
 31
0.0
  0
SPLINE
  5
525
100
AcDbEntity
  8
Layer_1
 62
1
100
AcDbSpline
 70
8
 71
3
 72
8
 73
4
 74
0
 40
0
 40
0
 40
0
 40
0
 40
1
 40
1
 40
1
 40
1
 10
-1029.894150
 20
-371.286692
 30
0.0
 10
-1025.390453
 20
-340.548867
 30
0.0
 10
-1007.071493
 20
-313.560722
 30
0.0
 10
-980.167550
 20
-298.027692
 30
0.0
  0
SPLINE
  5
526
100
AcDbEntity
  8
Layer_1
 62
1
100
AcDbSpline
 70
8
 71
3
 72
8
 73
4
 74
0
 40
0
 40
0
 40
0
 40
0
 40
1
 40
1
 40
1
 40
1
 10
-980.167550
 20
-298.027692
 30
0.0
 10
-953.237058
 20
-282.479357
 30
0.0
 10
-920.669149
 20
-280.120156
 30
0.0
 10
-891.778950
 20
-291.624872
 30
0.0
  0
SPLINE
  5
527
100
AcDbEntity
  8
Layer_1
 62
1
100
AcDbSpline
 70
8
 71
3
 72
8
 73
4
 74
0
 40
0
 40
0
 40
0
 40
0
 40
1
 40
1
 40
1
 40
1
 10
-891.893750
 20
-480.452482
 30
0.0
 10
-938.748732
 20
-499.045164
 30
0.0
 10
-992.151098
 20
-480.471399
 30
0.0
 10
-1017.355650
 20
-436.815842
 30
0.0
  0
SPLINE
  5
528
100
AcDbEntity
  8
Layer_1
 62
1
100
AcDbSpline
 70
8
 71
3
 72
8
 73
4
 74
0
 40
0
 40
0
 40
0
 40
0
 40
1
 40
1
 40
1
 40
1
 10
-1017.355650
 20
-436.815842
 30
0.0
 10
-1023.773226
 20
-425.700288
 30
0.0
 10
-1028.026510
 20
-413.469389
 30
0.0
 10
-1029.890450
 20
-400.770312
 30
0.0
  0
SPLINE
  5
529
100
AcDbEntity
  8
Layer_1
 62
1
100
AcDbSpline
 70
8
 71
3
 72
8
 73
4
 74
0
 40
0
 40
0
 40
0
 40
0
 40
1
 40
1
 40
1
 40
1
 10
-866.367650
 20
-306.306522
 30
0.0
 10
-856.284727
 20
-314.275771
 30
0.0
 10
-847.805352
 20
-324.085688
 30
0.0
 10
-841.379350
 20
-335.215862
 30
0.0
  0
SPLINE
  5
52a
100
AcDbEntity
  8
Layer_1
 62
1
100
AcDbSpline
 70
8
 71
3
 72
8
 73
4
 74
0
 40
0
 40
0
 40
0
 40
0
 40
1
 40
1
 40
1
 40
1
 10
-841.379350
 20
-335.215862
 30
0.0
 10
-841.379350
 20
-335.215862
 30
0.0
 10
-841.379350
 20
-335.215862
 30
0.0
 10
-841.379350
 20
-335.215862
 30
0.0
  0
SPLINE
  5
52b
100
AcDbEntity
  8
Layer_1
 62
1
100
AcDbSpline
 70
8
 71
3
 72
8
 73
4
 74
0
 40
0
 40
0
 40
0
 40
0
 40
1
 40
1
 40
1
 40
1
 10
-841.379350
 20
-335.215862
 30
0.0
 10
-816.167707
 20
-378.883701
 30
0.0
 10
-826.797302
 20
-434.435038
 30
0.0
 10
-866.349150
 20
-465.710562
 30
0.0
  0
LINE
  5
52c
100
AcDbEntity
  8
Layer_1
 62
1
100
AcDbLine
 10
-1030.951950
 20
-387.606142
 30
0.0
 11
-1015.602350
 21
-387.606182
 31
0.0
  0
LINE
  5
52d
100
AcDbEntity
  8
Layer_1
 62
1
100
AcDbLine
 10
-1015.602350
 20
-387.606182
 30
0.0
 11
-1015.602350
 21
-384.436192
 31
0.0
  0
LINE
  5
52e
100
AcDbEntity
  8
Layer_1
 62
1
100
AcDbLine
 10
-1015.602350
 20
-384.436192
 30
0.0
 11
-1030.951950
 21
-384.436152
 31
0.0
  0
LINE
  5
52f
100
AcDbEntity
  8
Layer_1
 62
1
100
AcDbLine
 10
-879.943050
 20
-297.251262
 30
0.0
 11
-887.618050
 21
-310.544392
 31
0.0
  0
LINE
  5
530
100
AcDbEntity
  8
Layer_1
 62
1
100
AcDbLine
 10
-887.618050
 20
-310.544392
 30
0.0
 11
-884.872750
 21
-312.129382
 31
0.0
  0
LINE
  5
531
100
AcDbEntity
  8
Layer_1
 62
1
100
AcDbLine
 10
-884.872750
 20
-312.129382
 30
0.0
 11
-877.197950
 21
-298.836192
 31
0.0
  0
LINE
  5
532
100
AcDbEntity
  8
Layer_1
 62
1
100
AcDbLine
 10
-877.197950
 20
-473.206152
 30
0.0
 11
-884.872750
 21
-459.912982
 31
0.0
  0
LINE
  5
533
100
AcDbEntity
  8
Layer_1
 62
1
100
AcDbLine
 10
-884.872750
 20
-459.912982
 30
0.0
 11
-887.618050
 21
-461.497982
 31
0.0
  0
LINE
  5
534
100
AcDbEntity
  8
Layer_1
 62
1
100
AcDbLine
 10
-887.618050
 20
-461.497982
 30
0.0
 11
-879.943250
 21
-474.791152
 31
0.0
  0
LINE
  5
535
100
AcDbEntity
  8
Layer_1
 62
1
100
AcDbLine
 10
-972.964350
 20
-387.696152
 30
0.0
 11
-985.664350
 21
-387.696172
 31
0.0
  0
LINE
  5
536
100
AcDbEntity
  8
Layer_1
 62
1
100
AcDbLine
 10
-985.664350
 20
-387.696172
 30
0.0
 11
-985.664350
 21
-384.346192
 31
0.0
  0
LINE
  5
537
100
AcDbEntity
  8
Layer_1
 62
1
100
AcDbLine
 10
-985.664350
 20
-384.346192
 30
0.0
 11
-972.964350
 21
-384.346172
 31
0.0
  0
LINE
  5
538
100
AcDbEntity
  8
Layer_1
 62
1
100
AcDbLine
 10
-972.964350
 20
-384.346172
 30
0.0
 11
-972.964350
 21
-387.696152
 31
0.0
  0
LINE
  5
539
100
AcDbEntity
  8
Layer_1
 62
1
100
AcDbLine
 10
-899.763750
 20
-338.101402
 30
0.0
 11
-906.113750
 21
-349.099912
 31
0.0
  0
LINE
  5
53a
100
AcDbEntity
  8
Layer_1
 62
1
100
AcDbLine
 10
-906.113750
 20
-349.099912
 30
0.0
 11
-909.014950
 21
-347.424922
 31
0.0
  0
LINE
  5
53b
100
AcDbEntity
  8
Layer_1
 62
1
100
AcDbLine
 10
-909.014950
 20
-347.424922
 30
0.0
 11
-902.664950
 21
-336.426412
 31
0.0
  0
LINE
  5
53c
100
AcDbEntity
  8
Layer_1
 62
1
100
AcDbLine
 10
-902.664950
 20
-336.426412
 30
0.0
 11
-899.763750
 21
-338.101402
 31
0.0
  0
LINE
  5
53d
100
AcDbEntity
  8
Layer_1
 62
1
100
AcDbLine
 10
-906.113850
 20
-422.942402
 30
0.0
 11
-899.763850
 21
-433.940892
 31
0.0
  0
LINE
  5
53e
100
AcDbEntity
  8
Layer_1
 62
1
100
AcDbLine
 10
-899.763850
 20
-433.940892
 30
0.0
 11
-902.664950
 21
-435.615882
 31
0.0
  0
LINE
  5
53f
100
AcDbEntity
  8
Layer_1
 62
1
100
AcDbLine
 10
-902.664950
 20
-435.615882
 30
0.0
 11
-909.014950
 21
-424.617392
 31
0.0
  0
LINE
  5
540
100
AcDbEntity
  8
Layer_1
 62
1
100
AcDbLine
 10
-909.014950
 20
-424.617392
 30
0.0
 11
-906.113850
 21
-422.942402
 31
0.0
  0
LINE
  5
541
100
AcDbEntity
  8
Layer_1
 62
1
100
AcDbLine
 10
-1030.952050
 20
-398.793092
 30
0.0
 11
-1010.952050
 21
-398.793052
 31
0.0
  0
LINE
  5
542
100
AcDbEntity
  8
Layer_1
 62
1
100
AcDbLine
 10
-1030.951950
 20
-395.618102
 30
0.0
 11
-1010.951950
 21
-395.618062
 31
0.0
  0
SPLINE
  5
543
100
AcDbEntity
  8
Layer_1
 62
1
100
AcDbSpline
 70
8
 71
3
 72
8
 73
4
 74
0
 40
0
 40
0
 40
0
 40
0
 40
1
 40
1
 40
1
 40
1
 10
-1010.952050
 20
-398.793052
 30
0.0
 10
-1017.264550
 20
-399.452102
 30
0.0
 10
-1023.577350
 20
-400.111192
 30
0.0
 10
-1029.890450
 20
-400.770312
 30
0.0
  0
LINE
  5
544
100
AcDbEntity
  8
Layer_1
 62
1
100
AcDbLine
 10
-1030.952150
 20
-373.273102
 30
0.0
 11
-1010.952150
 21
-373.273142
 31
0.0
  0
LINE
  5
545
100
AcDbEntity
  8
Layer_1
 62
1
100
AcDbLine
 10
-1030.952050
 20
-376.448092
 30
0.0
 11
-1010.952050
 21
-376.448132
 31
0.0
  0
SPLINE
  5
546
100
AcDbEntity
  8
Layer_1
 62
1
100
AcDbSpline
 70
8
 71
3
 72
8
 73
4
 74
0
 40
0
 40
0
 40
0
 40
0
 40
1
 40
1
 40
1
 40
1
 10
-1010.952150
 20
-373.273142
 30
0.0
 10
-1017.264650
 20
-372.614092
 30
0.0
 10
-1023.577450
 20
-371.955002
 30
0.0
 10
-1029.890550
 20
-371.295882
 30
0.0
  0
LINE
  5
547
100
AcDbEntity
  8
Layer_1
 62
1
100
AcDbLine
 10
-889.631281
 20
-291.657728
 30
0.0
 11
-899.631247
 21
-308.978256
 31
0.0
  0
LINE
  5
548
100
AcDbEntity
  8
Layer_1
 62
1
100
AcDbLine
 10
-886.881709
 20
-293.245310
 30
0.0
 11
-896.881675
 21
-310.565838
 31
0.0
  0
SPLINE
  5
549
100
AcDbEntity
  8
Layer_1
 62
1
100
AcDbSpline
 70
8
 71
3
 72
8
 73
4
 74
0
 40
0
 40
0
 40
0
 40
0
 40
1
 40
1
 40
1
 40
1
 10
-899.631247
 20
-308.978256
 30
0.0
 10
-897.045751
 20
-303.181946
 30
0.0
 10
-894.460139
 20
-297.385356
 30
0.0
 10
-891.874404
 20
-291.588491
 30
0.0
  0
LINE
  5
54a
100
AcDbEntity
  8
Layer_1
 62
1
100
AcDbLine
 10
-867.530272
 20
-304.417636
 30
0.0
 11
-877.530306
 21
-321.738125
 31
0.0
  0
LINE
  5
54b
100
AcDbEntity
  8
Layer_1
 62
1
100
AcDbLine
 10
-870.279944
 20
-302.830228
 30
0.0
 11
-880.279978
 21
-320.150716
 31
0.0
  0
SPLINE
  5
54c
100
AcDbEntity
  8
Layer_1
 62
1
100
AcDbSpline
 70
8
 71
3
 72
8
 73
4
 74
0
 40
0
 40
0
 40
0
 40
0
 40
1
 40
1
 40
1
 40
1
 10
-877.530306
 20
-321.738125
 30
0.0
 10
-873.803302
 20
-316.600864
 30
0.0
 10
-870.076113
 20
-311.463364
 30
0.0
 10
-866.348749
 20
-306.325619
 30
0.0
  0
LINE
  5
54d
100
AcDbEntity
  8
Layer_1
 62
1
100
AcDbLine
 10
-867.520087
 20
-467.618620
 30
0.0
 11
-877.520122
 21
-450.298132
 31
0.0
  0
LINE
  5
54e
100
AcDbEntity
  8
Layer_1
 62
1
100
AcDbLine
 10
-870.269759
 20
-469.206028
 30
0.0
 11
-880.269794
 21
-451.885540
 31
0.0
  0
SPLINE
  5
54f
100
AcDbEntity
  8
Layer_1
 62
1
100
AcDbSpline
 70
8
 71
3
 72
8
 73
4
 74
0
 40
0
 40
0
 40
0
 40
0
 40
1
 40
1
 40
1
 40
1
 10
-877.520122
 20
-450.298132
 30
0.0
 10
-873.793118
 20
-455.435392
 30
0.0
 10
-870.065929
 20
-460.572892
 30
0.0
 10
-866.338564
 20
-465.710637
 30
0.0
  0
LINE
  5
550
100
AcDbEntity
  8
Layer_1
 62
1
100
AcDbLine
 10
-889.620997
 20
-480.378701
 30
0.0
 11
-899.620962
 21
-463.058173
 31
0.0
  0
LINE
  5
551
100
AcDbEntity
  8
Layer_1
 62
1
100
AcDbLine
 10
-886.871425
 20
-478.791120
 30
0.0
 11
-896.871390
 21
-461.470592
 31
0.0
  0
SPLINE
  5
552
100
AcDbEntity
  8
Layer_1
 62
1
100
AcDbSpline
 70
8
 71
3
 72
8
 73
4
 74
0
 40
0
 40
0
 40
0
 40
0
 40
1
 40
1
 40
1
 40
1
 10
-899.620962
 20
-463.058173
 30
0.0
 10
-897.035466
 20
-468.854484
 30
0.0
 10
-894.449855
 20
-474.651074
 30
0.0
 10
-891.864119
 20
-480.447939
 30
0.0
  0
LINE
  5
553
100
AcDbEntity
  8
Layer_1
 62
1
100
AcDbLine
 10
-609.573000
 20
-364.309220
 30
0.0
 11
-607.505500
 21
-372.025230
 31
0.0
  0
LINE
  5
554
100
AcDbEntity
  8
Layer_1
 62
1
100
AcDbLine
 10
-610.396510
 20
-361.235830
 30
0.0
 11
-612.467060
 21
-353.508430
 31
0.0
  0
LINE
  5
555
100
AcDbEntity
  8
Layer_1
 62
1
100
AcDbLine
 10
-612.467060
 20
-353.508430
 30
0.0
 11
-610.393420
 21
-361.247370
 31
0.0
  0
LINE
  5
556
100
AcDbEntity
  8
Layer_1
 62
1
100
AcDbLine
 10
-610.222000
 20
-349.619860
 30
0.0
 11
-613.288810
 21
-350.441610
 31
0.0
  0
LINE
  5
557
100
AcDbEntity
  8
Layer_1
 62
1
100
AcDbLine
 10
-609.279320
 20
-353.137990
 30
0.0
 11
-609.253420
 21
-353.234790
 31
0.0
  0
LINE
  5
558
100
AcDbEntity
  8
Layer_1
 62
1
100
AcDbLine
 10
-605.621770
 20
-348.387240
 30
0.0
 11
-610.222000
 21
-349.619860
 31
0.0
  0
SPLINE
  5
559
100
AcDbEntity
  8
Layer_1
 62
1
100
AcDbSpline
 70
8
 71
3
 72
8
 73
4
 74
0
 40
0
 40
0
 40
0
 40
0
 40
1
 40
1
 40
1
 40
1
 10
-609.253330
 20
-353.234980
 30
0.0
 10
-609.172230
 20
-353.537800
 30
0.0
 10
-608.860920
 20
-353.717510
 30
0.0
 10
-608.558100
 20
-353.636370
 30
0.0
  0
SPLINE
  5
55a
100
AcDbEntity
  8
Layer_1
 62
1
100
AcDbSpline
 70
8
 71
3
 72
8
 73
4
 74
0
 40
0
 40
0
 40
0
 40
0
 40
1
 40
1
 40
1
 40
1
 10
-608.558100
 20
-353.636370
 30
0.0
 10
-608.324150
 20
-353.573670
 30
0.0
 10
-608.252530
 20
-353.341780
 30
0.0
 10
-608.139000
 20
-353.127950
 30
0.0
  0
LINE
  5
55b
100
AcDbEntity
  8
Layer_1
 62
1
100
AcDbLine
 10
-608.139000
 20
-353.127950
 30
0.0
 11
-605.621790
 21
-348.387220
 31
0.0
  0
LINE
  5
55c
100
AcDbEntity
  8
Layer_1
 62
1
100
AcDbLine
 10
-612.467070
 20
-353.508420
 30
0.0
 11
-609.608170
 21
-352.740310
 31
0.0
  0
SPLINE
  5
55d
100
AcDbEntity
  8
Layer_1
 62
1
100
AcDbSpline
 70
8
 71
3
 72
8
 73
4
 74
0
 40
0
 40
0
 40
0
 40
0
 40
1
 40
1
 40
1
 40
1
 10
-609.608170
 20
-352.740310
 30
0.0
 10
-609.503630
 20
-352.710210
 30
0.0
 10
-609.373660
 20
-352.785910
 30
0.0
 10
-609.339740
 20
-352.912550
 30
0.0
  0
LINE
  5
55e
100
AcDbEntity
  8
Layer_1
 62
1
100
AcDbLine
 10
-609.339740
 20
-352.912550
 30
0.0
 11
-609.279240
 21
-353.138200
 31
0.0
  0
LINE
  5
55f
100
AcDbEntity
  8
Layer_1
 62
1
100
AcDbLine
 10
-614.745160
 20
-348.858240
 30
0.0
 11
-614.745230
 21
-348.858500
 31
0.0
  0
LINE
  5
560
100
AcDbEntity
  8
Layer_1
 62
1
100
AcDbLine
 10
-603.616930
 20
-374.270290
 30
0.0
 11
-606.683750
 21
-375.092040
 31
0.0
  0
LINE
  5
561
100
AcDbEntity
  8
Layer_1
 62
1
100
AcDbLine
 10
-604.559620
 20
-370.752160
 30
0.0
 11
-604.585520
 21
-370.655260
 31
0.0
  0
LINE
  5
562
100
AcDbEntity
  8
Layer_1
 62
1
100
AcDbLine
 10
-599.016710
 20
-373.037670
 30
0.0
 11
-603.616930
 21
-374.270290
 31
0.0
  0
SPLINE
  5
563
100
AcDbEntity
  8
Layer_1
 62
1
100
AcDbSpline
 70
8
 71
3
 72
8
 73
4
 74
0
 40
0
 40
0
 40
0
 40
0
 40
1
 40
1
 40
1
 40
1
 10
-604.585600
 20
-370.655160
 30
0.0
 10
-604.666700
 20
-370.352340
 30
0.0
 10
-604.487000
 20
-370.041070
 30
0.0
 10
-604.184220
 20
-369.959930
 30
0.0
  0
SPLINE
  5
564
100
AcDbEntity
  8
Layer_1
 62
1
100
AcDbSpline
 70
8
 71
3
 72
8
 73
4
 74
0
 40
0
 40
0
 40
0
 40
0
 40
1
 40
1
 40
1
 40
1
 10
-604.184220
 20
-369.959930
 30
0.0
 10
-603.950270
 20
-369.897230
 30
0.0
 10
-603.772230
 20
-370.062040
 30
0.0
 10
-603.567060
 20
-370.190720
 30
0.0
  0
LINE
  5
565
100
AcDbEntity
  8
Layer_1
 62
1
100
AcDbLine
 10
-603.567060
 20
-370.190720
 30
0.0
 11
-599.016730
 21
-373.037690
 31
0.0
  0
LINE
  5
566
100
AcDbEntity
  8
Layer_1
 62
1
100
AcDbLine
 10
-607.505500
 20
-372.025230
 30
0.0
 11
-604.645570
 21
-371.260980
 31
0.0
  0
SPLINE
  5
567
100
AcDbEntity
  8
Layer_1
 62
1
100
AcDbSpline
 70
8
 71
3
 72
8
 73
4
 74
0
 40
0
 40
0
 40
0
 40
0
 40
1
 40
1
 40
1
 40
1
 10
-604.645570
 20
-371.260980
 30
0.0
 10
-604.540000
 20
-371.234780
 30
0.0
 10
-604.465290
 20
-371.104210
 30
0.0
 10
-604.499240
 20
-370.977610
 30
0.0
  0
LINE
  5
568
100
AcDbEntity
  8
Layer_1
 62
1
100
AcDbLine
 10
-604.499240
 20
-370.977610
 30
0.0
 11
-604.559740
 21
-370.751940
 31
0.0
  0
LINE
  5
569
100
AcDbEntity
  8
Layer_1
 62
1
100
AcDbLine
 10
-743.096650
 20
-493.935990
 30
0.0
 11
-750.812650
 21
-491.868490
 31
0.0
  0
LINE
  5
56a
100
AcDbEntity
  8
Layer_1
 62
1
100
AcDbLine
 10
-740.023250
 20
-494.759500
 30
0.0
 11
-732.295850
 21
-496.830050
 31
0.0
  0
LINE
  5
56b
100
AcDbEntity
  8
Layer_1
 62
1
100
AcDbLine
 10
-732.295850
 20
-496.830050
 30
0.0
 11
-740.034850
 21
-494.756410
 31
0.0
  0
LINE
  5
56c
100
AcDbEntity
  8
Layer_1
 62
1
100
AcDbLine
 10
-730.050850
 20
-500.718620
 30
0.0
 11
-729.229050
 21
-497.651800
 31
0.0
  0
LINE
  5
56d
100
AcDbEntity
  8
Layer_1
 62
1
100
AcDbLine
 10
-733.568950
 20
-499.775930
 30
0.0
 11
-733.665950
 21
-499.750030
 31
0.0
  0
LINE
  5
56e
100
AcDbEntity
  8
Layer_1
 62
1
100
AcDbLine
 10
-731.283450
 20
-505.318840
 30
0.0
 11
-730.050850
 21
-500.718620
 31
0.0
  0
SPLINE
  5
56f
100
AcDbEntity
  8
Layer_1
 62
1
100
AcDbSpline
 70
8
 71
3
 72
8
 73
4
 74
0
 40
0
 40
0
 40
0
 40
0
 40
1
 40
1
 40
1
 40
1
 10
-733.665950
 20
-499.749950
 30
0.0
 10
-733.968750
 20
-499.668850
 30
0.0
 10
-734.280050
 20
-499.848550
 30
0.0
 10
-734.361150
 20
-500.151340
 30
0.0
  0
SPLINE
  5
570
100
AcDbEntity
  8
Layer_1
 62
1
100
AcDbSpline
 70
8
 71
3
 72
8
 73
4
 74
0
 40
0
 40
0
 40
0
 40
0
 40
1
 40
1
 40
1
 40
1
 10
-734.361150
 20
-500.151340
 30
0.0
 10
-734.424150
 20
-500.385290
 30
0.0
 10
-734.258850
 20
-500.563260
 30
0.0
 10
-734.130350
 20
-500.768500
 30
0.0
  0
LINE
  5
571
100
AcDbEntity
  8
Layer_1
 62
1
100
AcDbLine
 10
-734.130350
 20
-500.768500
 30
0.0
 11
-731.283450
 21
-505.318830
 31
0.0
  0
LINE
  5
572
100
AcDbEntity
  8
Layer_1
 62
1
100
AcDbLine
 10
-732.295850
 20
-496.830060
 30
0.0
 11
-733.060150
 21
-499.689990
 31
0.0
  0
SPLINE
  5
573
100
AcDbEntity
  8
Layer_1
 62
1
100
AcDbSpline
 70
8
 71
3
 72
8
 73
4
 74
0
 40
0
 40
0
 40
0
 40
0
 40
1
 40
1
 40
1
 40
1
 10
-733.060150
 20
-499.689990
 30
0.0
 10
-733.086150
 20
-499.795560
 30
0.0
 10
-733.216850
 20
-499.870260
 30
0.0
 10
-733.343450
 20
-499.836340
 30
0.0
  0
LINE
  5
574
100
AcDbEntity
  8
Layer_1
 62
1
100
AcDbLine
 10
-733.343450
 20
-499.836340
 30
0.0
 11
-733.569150
 21
-499.775940
 31
0.0
  0
LINE
  5
575
100
AcDbEntity
  8
Layer_1
 62
1
100
AcDbLine
 10
-754.701250
 20
-494.113560
 30
0.0
 11
-753.879450
 21
-491.046740
 31
0.0
  0
LINE
  5
576
100
AcDbEntity
  8
Layer_1
 62
1
100
AcDbLine
 10
-751.183050
 20
-495.056230
 30
0.0
 11
-751.086050
 21
-495.082230
 31
0.0
  0
LINE
  5
577
100
AcDbEntity
  8
Layer_1
 62
1
100
AcDbLine
 10
-755.933850
 20
-498.713780
 30
0.0
 11
-754.701250
 21
-494.113560
 31
0.0
  0
SPLINE
  5
578
100
AcDbEntity
  8
Layer_1
 62
1
100
AcDbSpline
 70
8
 71
3
 72
8
 73
4
 74
0
 40
0
 40
0
 40
0
 40
0
 40
1
 40
1
 40
1
 40
1
 10
-751.086150
 20
-495.082230
 30
0.0
 10
-750.783250
 20
-495.163330
 30
0.0
 10
-750.603550
 20
-495.474640
 30
0.0
 10
-750.684750
 20
-495.777460
 30
0.0
  0
SPLINE
  5
579
100
AcDbEntity
  8
Layer_1
 62
1
100
AcDbSpline
 70
8
 71
3
 72
8
 73
4
 74
0
 40
0
 40
0
 40
0
 40
0
 40
1
 40
1
 40
1
 40
1
 10
-750.684750
 20
-495.777460
 30
0.0
 10
-750.747750
 20
-496.011400
 30
0.0
 10
-750.979350
 20
-496.083020
 30
0.0
 10
-751.193150
 20
-496.196560
 30
0.0
  0
LINE
  5
57a
100
AcDbEntity
  8
Layer_1
 62
1
100
AcDbLine
 10
-751.193150
 20
-496.196560
 30
0.0
 11
-755.933850
 21
-498.713770
 31
0.0
  0
LINE
  5
57b
100
AcDbEntity
  8
Layer_1
 62
1
100
AcDbLine
 10
-750.812650
 20
-491.868490
 30
0.0
 11
-751.580750
 21
-494.727390
 31
0.0
  0
SPLINE
  5
57c
100
AcDbEntity
  8
Layer_1
 62
1
100
AcDbSpline
 70
8
 71
3
 72
8
 73
4
 74
0
 40
0
 40
0
 40
0
 40
0
 40
1
 40
1
 40
1
 40
1
 10
-751.580750
 20
-494.727390
 30
0.0
 10
-751.610750
 20
-494.831920
 30
0.0
 10
-751.534750
 20
-494.961900
 30
0.0
 10
-751.408550
 20
-494.995820
 30
0.0
  0
LINE
  5
57d
100
AcDbEntity
  8
Layer_1
 62
1
100
AcDbLine
 10
-751.408550
 20
-494.995820
 30
0.0
 11
-751.182850
 21
-495.056320
 31
0.0
  0
LINE
  5
57e
100
AcDbEntity
  8
Layer_1
 62
1
100
AcDbLine
 10
-788.591850
 20
-313.499130
 30
0.0
 11
-782.943350
 21
-307.850630
 31
0.0
  0
LINE
  5
57f
100
AcDbEntity
  8
Layer_1
 62
1
100
AcDbLine
 10
-790.841750
 20
-315.749010
 30
0.0
 11
-796.498550
 21
-321.405870
 31
0.0
  0
LINE
  5
580
100
AcDbEntity
  8
Layer_1
 62
1
100
AcDbLine
 10
-796.498550
 20
-321.405870
 30
0.0
 11
-790.833250
 21
-315.740560
 31
0.0
  0
LINE
  5
581
100
AcDbEntity
  8
Layer_1
 62
1
100
AcDbLine
 10
-800.988750
 20
-321.405860
 30
0.0
 11
-798.743650
 21
-323.650930
 31
0.0
  0
LINE
  5
582
100
AcDbEntity
  8
Layer_1
 62
1
100
AcDbLine
 10
-798.413250
 20
-318.830430
 30
0.0
 11
-798.342250
 21
-318.759430
 31
0.0
  0
LINE
  5
583
100
AcDbEntity
  8
Layer_1
 62
1
100
AcDbLine
 10
-804.356350
 20
-318.038270
 30
0.0
 11
-800.988750
 21
-321.405860
 31
0.0
  0
SPLINE
  5
584
100
AcDbEntity
  8
Layer_1
 62
1
100
AcDbSpline
 70
8
 71
3
 72
8
 73
4
 74
0
 40
0
 40
0
 40
0
 40
0
 40
1
 40
1
 40
1
 40
1
 10
-798.342250
 20
-318.759410
 30
0.0
 10
-798.120550
 20
-318.537730
 30
0.0
 10
-798.120550
 20
-318.178300
 30
0.0
 10
-798.342250
 20
-317.956630
 30
0.0
  0
SPLINE
  5
585
100
AcDbEntity
  8
Layer_1
 62
1
100
AcDbSpline
 70
8
 71
3
 72
8
 73
4
 74
0
 40
0
 40
0
 40
0
 40
0
 40
1
 40
1
 40
1
 40
1
 10
-798.342250
 20
-317.956630
 30
0.0
 10
-798.513550
 20
-317.785370
 30
0.0
 10
-798.750050
 20
-317.839070
 30
0.0
 10
-798.992150
 20
-317.847930
 30
0.0
  0
LINE
  5
586
100
AcDbEntity
  8
Layer_1
 62
1
100
AcDbLine
 10
-798.992150
 20
-317.847930
 30
0.0
 11
-804.356350
 21
-318.038310
 31
0.0
  0
LINE
  5
587
100
AcDbEntity
  8
Layer_1
 62
1
100
AcDbLine
 10
-796.498550
 20
-321.405870
 30
0.0
 11
-798.593250
 21
-319.314050
 31
0.0
  0
SPLINE
  5
588
100
AcDbEntity
  8
Layer_1
 62
1
100
AcDbSpline
 70
8
 71
3
 72
8
 73
4
 74
0
 40
0
 40
0
 40
0
 40
0
 40
1
 40
1
 40
1
 40
1
 10
-798.593250
 20
-319.314050
 30
0.0
 10
-798.671250
 20
-319.238650
 30
0.0
 10
-798.671250
 20
-319.088140
 30
0.0
 10
-798.578250
 20
-318.995480
 30
0.0
  0
LINE
  5
589
100
AcDbEntity
  8
Layer_1
 62
1
100
AcDbLine
 10
-798.578250
 20
-318.995480
 30
0.0
 11
-798.413050
 21
-318.830270
 31
0.0
  0
LINE
  5
58a
100
AcDbEntity
  8
Layer_1
 62
1
100
AcDbLine
 10
-782.943350
 20
-303.360500
 30
0.0
 11
-780.698250
 21
-305.605560
 31
0.0
  0
LINE
  5
58b
100
AcDbEntity
  8
Layer_1
 62
1
100
AcDbLine
 10
-785.518750
 20
-305.935960
 30
0.0
 11
-785.589750
 21
-306.006860
 31
0.0
  0
LINE
  5
58c
100
AcDbEntity
  8
Layer_1
 62
1
100
AcDbLine
 10
-786.310950
 20
-299.992900
 30
0.0
 11
-782.943350
 21
-303.360500
 31
0.0
  0
SPLINE
  5
58d
100
AcDbEntity
  8
Layer_1
 62
1
100
AcDbSpline
 70
8
 71
3
 72
8
 73
4
 74
0
 40
0
 40
0
 40
0
 40
0
 40
1
 40
1
 40
1
 40
1
 10
-785.589850
 20
-306.006960
 30
0.0
 10
-785.811450
 20
-306.228640
 30
0.0
 10
-786.170950
 20
-306.228630
 30
0.0
 10
-786.392550
 20
-306.006960
 30
0.0
  0
SPLINE
  5
58e
100
AcDbEntity
  8
Layer_1
 62
1
100
AcDbSpline
 70
8
 71
3
 72
8
 73
4
 74
0
 40
0
 40
0
 40
0
 40
0
 40
1
 40
1
 40
1
 40
1
 10
-786.392550
 20
-306.006960
 30
0.0
 10
-786.563850
 20
-305.835700
 30
0.0
 10
-786.509950
 20
-305.599050
 30
0.0
 10
-786.501350
 20
-305.357100
 30
0.0
  0
LINE
  5
58f
100
AcDbEntity
  8
Layer_1
 62
1
100
AcDbLine
 10
-786.501350
 20
-305.357100
 30
0.0
 11
-786.310950
 21
-299.992920
 31
0.0
  0
LINE
  5
590
100
AcDbEntity
  8
Layer_1
 62
1
100
AcDbLine
 10
-782.943350
 20
-307.850630
 30
0.0
 11
-785.035150
 21
-305.755980
 31
0.0
  0
SPLINE
  5
591
100
AcDbEntity
  8
Layer_1
 62
1
100
AcDbSpline
 70
8
 71
3
 72
8
 73
4
 74
0
 40
0
 40
0
 40
0
 40
0
 40
1
 40
1
 40
1
 40
1
 10
-785.035150
 20
-305.755980
 30
0.0
 10
-785.111150
 20
-305.677680
 30
0.0
 10
-785.261050
 20
-305.678280
 30
0.0
 10
-785.353750
 20
-305.770880
 30
0.0
  0
LINE
  5
592
100
AcDbEntity
  8
Layer_1
 62
1
100
AcDbLine
 10
-785.353750
 20
-305.770880
 30
0.0
 11
-785.518950
 21
-305.936080
 31
0.0
  0
LINE
  5
593
100
AcDbEntity
  8
Layer_1
 62
1
100
AcDbLine
 10
-790.833350
 20
-315.740660
 30
0.0
 11
-785.577950
 21
-320.996090
 31
0.0
  0
LINE
  5
594
100
AcDbEntity
  8
Layer_1
 62
1
100
AcDbLine
 10
-785.577950
 20
-320.996090
 30
0.0
 11
-783.336450
 21
-318.754570
 31
0.0
  0
LINE
  5
595
100
AcDbEntity
  8
Layer_1
 62
1
100
AcDbLine
 10
-783.336450
 20
-318.754570
 30
0.0
 11
-788.591850
 21
-313.499120
 31
0.0
  0
LINE
  5
596
100
AcDbEntity
  8
Layer_1
 62
1
100
AcDbLine
 10
-610.393420
 20
-361.247380
 30
0.0
 11
-617.572530
 21
-363.170870
 31
0.0
  0
LINE
  5
597
100
AcDbEntity
  8
Layer_1
 62
1
100
AcDbLine
 10
-617.572530
 20
-363.170870
 30
0.0
 11
-616.752080
 21
-366.232850
 31
0.0
  0
LINE
  5
598
100
AcDbEntity
  8
Layer_1
 62
1
100
AcDbLine
 10
-616.752080
 20
-366.232850
 30
0.0
 11
-609.573020
 21
-364.309230
 31
0.0
  0
LINE
  5
599
100
AcDbEntity
  8
Layer_1
 62
1
100
AcDbLine
 10
-740.034850
 20
-494.756400
 30
0.0
 11
-738.099750
 21
-487.580430
 31
0.0
  0
LINE
  5
59a
100
AcDbEntity
  8
Layer_1
 62
1
100
AcDbLine
 10
-738.099750
 20
-487.580430
 30
0.0
 11
-741.161750
 21
-486.759980
 31
0.0
  0
LINE
  5
59b
100
AcDbEntity
  8
Layer_1
 62
1
100
AcDbLine
 10
-741.161750
 20
-486.759980
 30
0.0
 11
-743.096850
 21
-493.935950
 31
0.0
  0
SPLINE
  5
59c
100
AcDbEntity
  8
Layer_1
 62
1
100
AcDbSpline
 70
8
 71
3
 72
8
 73
4
 74
0
 40
0
 40
0
 40
0
 40
0
 40
1
 40
1
 40
1
 40
1
 10
-704.090850
 20
-393.170650
 30
0.0
 10
-703.158432
 20
-389.717116
 30
0.0
 10
-704.141766
 20
-386.028555
 30
0.0
 10
-706.669617
 20
-383.497495
 30
0.0
  0
SPLINE
  5
59d
100
AcDbEntity
  8
Layer_1
 62
1
100
AcDbSpline
 70
8
 71
3
 72
8
 73
4
 74
0
 40
0
 40
0
 40
0
 40
0
 40
1
 40
1
 40
1
 40
1
 10
-706.669617
 20
-383.497495
 30
0.0
 10
-709.197468
 20
-380.966435
 30
0.0
 10
-712.884779
 20
-379.978422
 30
0.0
 10
-716.339492
 20
-380.906458
 30
0.0
  0
SPLINE
  5
59e
100
AcDbEntity
  8
Layer_1
 62
1
100
AcDbSpline
 70
8
 71
3
 72
8
 73
4
 74
0
 40
0
 40
0
 40
0
 40
0
 40
1
 40
1
 40
1
 40
1
 10
-716.339492
 20
-380.906458
 30
0.0
 10
-719.794206
 20
-381.834494
 30
0.0
 10
-722.490080
 20
-384.537214
 30
0.0
 10
-723.409350
 20
-387.994270
 30
0.0
  0
SPLINE
  5
59f
100
AcDbEntity
  8
Layer_1
 62
1
100
AcDbSpline
 70
8
 71
3
 72
8
 73
4
 74
0
 40
0
 40
0
 40
0
 40
0
 40
1
 40
1
 40
1
 40
1
 10
-723.409350
 20
-387.994270
 30
0.0
 10
-724.341768
 20
-391.447804
 30
0.0
 10
-723.358434
 20
-395.136365
 30
0.0
 10
-720.830583
 20
-397.667425
 30
0.0
  0
SPLINE
  5
5a0
100
AcDbEntity
  8
Layer_1
 62
1
100
AcDbSpline
 70
8
 71
3
 72
8
 73
4
 74
0
 40
0
 40
0
 40
0
 40
0
 40
1
 40
1
 40
1
 40
1
 10
-720.830583
 20
-397.667425
 30
0.0
 10
-718.302732
 20
-400.198485
 30
0.0
 10
-714.615421
 20
-401.186498
 30
0.0
 10
-711.160708
 20
-400.258462
 30
0.0
  0
SPLINE
  5
5a1
100
AcDbEntity
  8
Layer_1
 62
1
100
AcDbSpline
 70
8
 71
3
 72
8
 73
4
 74
0
 40
0
 40
0
 40
0
 40
0
 40
1
 40
1
 40
1
 40
1
 10
-711.160708
 20
-400.258462
 30
0.0
 10
-707.705994
 20
-399.330426
 30
0.0
 10
-705.010120
 20
-396.627706
 30
0.0
 10
-704.090850
 20
-393.170650
 30
0.0
  0
LINE
  5
5a2
100
AcDbEntity
  8
Layer_1
 62
1
100
AcDbLine
 10
-704.090850
 20
-393.170650
 30
0.0
 11
-704.090850
 21
-393.170650
 31
0.0
  0
SPLINE
  5
5a3
100
AcDbEntity
  8
Layer_1
 62
1
100
AcDbSpline
 70
8
 71
3
 72
8
 73
4
 74
0
 40
0
 40
0
 40
0
 40
0
 40
1
 40
1
 40
1
 40
1
 10
-799.429933
 20
-325.711788
 30
0.0
 10
-807.576930
 20
-336.464296
 30
0.0
 10
-813.821335
 20
-348.940961
 30
0.0
 10
-817.528227
 20
-362.775176
 30
0.0
  0
SPLINE
  5
5a4
100
AcDbEntity
  8
Layer_1
 62
1
100
AcDbSpline
 70
8
 71
3
 72
8
 73
4
 74
0
 40
0
 40
0
 40
0
 40
0
 40
1
 40
1
 40
1
 40
1
 10
-817.528227
 20
-362.775176
 30
0.0
 10
-831.403532
 20
-414.558341
 30
0.0
 10
-804.982241
 20
-468.645629
 30
0.0
 10
-755.535532
 20
-489.560942
 30
0.0
  0
SPLINE
  5
5a5
100
AcDbEntity
  8
Layer_1
 62
1
100
AcDbSpline
 70
8
 71
3
 72
8
 73
4
 74
0
 40
0
 40
0
 40
0
 40
0
 40
1
 40
1
 40
1
 40
1
 10
-614.759610
 20
-348.821090
 30
0.0
 10
-627.647140
 20
-318.272690
 30
0.0
 10
-653.917040
 20
-295.385660
 30
0.0
 10
-685.942890
 20
-286.804360
 30
0.0
  0
SPLINE
  5
5a6
100
AcDbEntity
  8
Layer_1
 62
1
100
AcDbSpline
 70
8
 71
3
 72
8
 73
4
 74
0
 40
0
 40
0
 40
0
 40
0
 40
1
 40
1
 40
1
 40
1
 10
-685.942890
 20
-286.804360
 30
0.0
 10
-719.254250
 20
-277.878610
 30
0.0
 10
-753.105350
 20
-285.629860
 30
0.0
 10
-778.631550
 20
-304.940130
 30
0.0
  0
SPLINE
  5
5a7
100
AcDbEntity
  8
Layer_1
 62
1
100
AcDbSpline
 70
8
 71
3
 72
8
 73
4
 74
0
 40
0
 40
0
 40
0
 40
0
 40
1
 40
1
 40
1
 40
1
 10
-607.141350
 20
-377.251980
 30
0.0
 10
-605.419939
 20
-391.018701
 30
0.0
 10
-606.381200
 20
-404.988523
 30
0.0
 10
-609.972030
 20
-418.389710
 30
0.0
  0
LINE
  5
5a8
100
AcDbEntity
  8
Layer_1
 62
1
100
AcDbLine
 10
-609.972030
 20
-418.389710
 30
0.0
 11
-609.972030
 21
-418.389710
 31
0.0
  0
SPLINE
  5
5a9
100
AcDbEntity
  8
Layer_1
 62
1
100
AcDbSpline
 70
8
 71
3
 72
8
 73
4
 74
0
 40
0
 40
0
 40
0
 40
0
 40
1
 40
1
 40
1
 40
1
 10
-609.972030
 20
-418.389710
 30
0.0
 10
-623.857527
 20
-470.211093
 30
0.0
 10
-673.842897
 20
-503.846807
 30
0.0
 10
-727.077950
 20
-497.191590
 30
0.0
  0
LINE
  5
5aa
100
AcDbEntity
  8
Layer_1
 62
1
100
AcDbLine
 10
-729.262526
 20
-497.705312
 30
0.0
 11
-724.086184
 21
-478.386785
 31
0.0
  0
LINE
  5
5ab
100
AcDbEntity
  8
Layer_1
 62
1
100
AcDbLine
 10
-732.329305
 20
-496.883468
 30
0.0
 11
-727.152963
 21
-477.564941
 31
0.0
  0
SPLINE
  5
5ac
100
AcDbEntity
  8
Layer_1
 62
1
100
AcDbSpline
 70
8
 71
3
 72
8
 73
4
 74
0
 40
0
 40
0
 40
0
 40
0
 40
1
 40
1
 40
1
 40
1
 10
-724.086184
 20
-478.386785
 30
0.0
 10
-725.083386
 20
-484.654767
 30
0.0
 10
-726.080627
 20
-490.923048
 30
0.0
 10
-727.077916
 20
-497.191628
 30
0.0
  0
LINE
  5
5ad
100
AcDbEntity
  8
Layer_1
 62
1
100
AcDbLine
 10
-753.912970
 20
-491.100349
 30
0.0
 11
-748.736550
 21
-471.781843
 31
0.0
  0
LINE
  5
5ae
100
AcDbEntity
  8
Layer_1
 62
1
100
AcDbLine
 10
-750.846139
 20
-491.922001
 30
0.0
 11
-745.669719
 21
-472.603494
 31
0.0
  0
SPLINE
  5
5af
100
AcDbEntity
  8
Layer_1
 62
1
100
AcDbSpline
 70
8
 71
3
 72
8
 73
4
 74
0
 40
0
 40
0
 40
0
 40
0
 40
1
 40
1
 40
1
 40
1
 10
-748.736550
 20
-471.781843
 30
0.0
 10
-751.006939
 20
-477.708675
 30
0.0
 10
-753.277444
 20
-483.635787
 30
0.0
 10
-755.548055
 20
-489.563180
 30
0.0
  0
LINE
  5
5b0
100
AcDbEntity
  8
Layer_1
 62
1
100
AcDbLine
 10
-613.288803
 20
-350.441598
 30
0.0
 11
-632.607309
 21
-355.618018
 31
0.0
  0
LINE
  5
5b1
100
AcDbEntity
  8
Layer_1
 62
1
100
AcDbLine
 10
-612.467152
 20
-353.508429
 30
0.0
 11
-631.785658
 21
-358.684848
 31
0.0
  0
SPLINE
  5
5b2
100
AcDbEntity
  8
Layer_1
 62
1
100
AcDbSpline
 70
8
 71
3
 72
8
 73
4
 74
0
 40
0
 40
0
 40
0
 40
0
 40
1
 40
1
 40
1
 40
1
 10
-632.607309
 20
-355.618018
 30
0.0
 10
-626.680477
 20
-353.347629
 30
0.0
 10
-620.753365
 20
-351.077124
 30
0.0
 10
-614.825972
 20
-348.806513
 30
0.0
  0
LINE
  5
5b3
100
AcDbEntity
  8
Layer_1
 62
1
100
AcDbLine
 10
-606.683647
 20
-375.091990
 30
0.0
 11
-626.002174
 21
-380.268332
 31
0.0
  0
LINE
  5
5b4
100
AcDbEntity
  8
Layer_1
 62
1
100
AcDbLine
 10
-607.505491
 20
-372.025211
 30
0.0
 11
-626.824018
 21
-377.201553
 31
0.0
  0
SPLINE
  5
5b5
100
AcDbEntity
  8
Layer_1
 62
1
100
AcDbSpline
 70
8
 71
3
 72
8
 73
4
 74
0
 40
0
 40
0
 40
0
 40
0
 40
1
 40
1
 40
1
 40
1
 10
-626.002174
 20
-380.268332
 30
0.0
 10
-619.734192
 20
-379.271130
 30
0.0
 10
-613.465911
 20
-378.273889
 30
0.0
 10
-607.197332
 20
-377.276600
 30
0.0
  0
LINE
  5
5b6
100
AcDbEntity
  8
Layer_1
 62
1
100
AcDbLine
 10
-798.743669
 20
-323.650827
 30
0.0
 11
-784.601505
 21
-337.792934
 31
0.0
  0
LINE
  5
5b7
100
AcDbEntity
  8
Layer_1
 62
1
100
AcDbLine
 10
-796.498542
 20
-321.405841
 30
0.0
 11
-782.356378
 21
-335.547948
 31
0.0
  0
SPLINE
  5
5b8
100
AcDbEntity
  8
Layer_1
 62
1
100
AcDbSpline
 70
8
 71
3
 72
8
 73
4
 74
0
 40
0
 40
0
 40
0
 40
0
 40
1
 40
1
 40
1
 40
1
 10
-784.601505
 20
-337.792934
 30
0.0
 10
-789.531136
 20
-333.795341
 30
0.0
 10
-794.461006
 20
-329.797565
 30
0.0
 10
-799.391110
 20
-325.799597
 30
0.0
  0
LINE
  5
5b9
100
AcDbEntity
  8
Layer_1
 62
1
100
AcDbLine
 10
-780.698382
 20
-305.605398
 30
0.0
 11
-766.556275
 21
-319.747562
 31
0.0
  0
LINE
  5
5ba
100
AcDbEntity
  8
Layer_1
 62
1
100
AcDbLine
 10
-782.943368
 20
-307.850526
 30
0.0
 11
-768.801261
 21
-321.992690
 31
0.0
  0
SPLINE
  5
5bb
100
AcDbEntity
  8
Layer_1
 62
1
100
AcDbSpline
 70
8
 71
3
 72
8
 73
4
 74
0
 40
0
 40
0
 40
0
 40
0
 40
1
 40
1
 40
1
 40
1
 10
-766.556275
 20
-319.747562
 30
0.0
 10
-770.553867
 20
-314.817932
 30
0.0
 10
-774.551644
 20
-309.888061
 30
0.0
 10
-778.549612
 20
-304.957957
 30
0.0
  0
ENDSEC
  0
SECTION
  2
OBJECTS
  0
DICTIONARY
  5
C
330
0
100
AcDbDictionary
  3
ACAD_GROUP
350
D
  3
ACAD_MLINESTYLE
350
17
  0
DICTIONARY
  5
D
330
C
100
AcDbDictionary
  0
DICTIONARY
  5
1A
330
C
100
AcDbDictionary
  0
DICTIONARY
  5
17
330
C
100
AcDbDictionary
  3
STANDARD
350
18
  0
DICTIONARY
  5
19
330
C
100
AcDbDictionary
  0
ENDSEC
  0
EOF
