  0
SECTION
  2
HEADER
  9
$ACADVER
  1
AC1014
  9
$HANDSEED
  5
FFFF
  9
$MEASUREMENT
 70
     1
  0
ENDSEC
  0
SECTION
  2
TABLES
  0
TABLE
  2
VPORT
  5
8
330
0
100
AcDbSymbolTable
 70
     4
  0
VPORT
  5
2E
330
8
100
AcDbSymbolTableRecord
100
AcDbViewportTableRecord
  2
*ACTIVE
 70
     0
 10
0.0
 20
0.0
 11
1.0
 21
1.0
 12
210.0
 22
148.5
 13
0.0
 23
0.0
 14
10.0
 24
10.0
 15
10.0
 25
10.0
 16
0.0
 26
0.0
 36
1.0
 17
0.0
 27
0.0
 37
0.0
 40
341.0
 41
1.24
 42
50.0
 43
0.0
 44
0.0
 50
0.0
 51
0.0
 71
     0
 72
   100
 73
     1
 74
     3
 75
     0
 76
     0
 77
     0
 78
     0
  0
ENDTAB
  0
TABLE
  2
LTYPE
  5
5
330
0
100
AcDbSymbolTable
 70
     1
  0
LTYPE
  5
14
330
5
100
AcDbSymbolTableRecord
100
AcDbLinetypeTableRecord
  2
BYBLOCK
 70
     0
  3

 72
    65
 73
     0
 40
0.0
  0
LTYPE
  5
15
330
5
100
AcDbSymbolTableRecord
100
AcDbLinetypeTableRecord
  2
BYLAYER
 70
     0
  3

 72
    65
 73
     0
 40
0.0
  0
LTYPE
  5
16
330
5
100
AcDbSymbolTableRecord
100
AcDbLinetypeTableRecord
  2
CONTINUOUS
 70
     0
  3
Solid line
 72
    65
 73
     0
 40
0.0
  0
ENDTAB
  0
TABLE
  2
LAYER
  5
2
100
AcDbSymbolTable
 70
2
  0
LAYER
  5
50
100
AcDbSymbolTableRecord
100
AcDbLayerTableRecord
  2
0
 70
0
  6
CONTINUOUS
  0
LAYER
  5
51
100
AcDbSymbolTableRecord
100
AcDbLayerTableRecord
  2
Layer_1
 70
0
  6
CONTINUOUS
  0
ENDTAB
  0
TABLE
  2
STYLE
  5
3
330
0
100
AcDbSymbolTable
 70
     1
  0
STYLE
  5
11
330
3
100
AcDbSymbolTableRecord
100
AcDbTextStyleTableRecord
  2
STANDARD
 70
     0
 40
0.0
 41
1.0
 50
0.0
 71
     0
 42
2.5
  3
txt
  4

  0
ENDTAB
  0
TABLE
  2
VIEW
  5
6
330
0
100
AcDbSymbolTable
 70
     0
  0
ENDTAB
  0
TABLE
  2
UCS
  5
7
330
0
100
AcDbSymbolTable
 70
     0
  0
ENDTAB
  0
TABLE
  2
APPID
  5
9
330
0
100
AcDbSymbolTable
 70
     2
  0
APPID
  5
12
330
9
100
AcDbSymbolTableRecord
100
AcDbRegAppTableRecord
  2
ACAD
 70
     0
  0
ENDTAB
  0
TABLE
  2
DIMSTYLE
  5
A
330
0
100
AcDbSymbolTable
 70
     1
  0
DIMSTYLE
105
27
330
A
100
AcDbSymbolTableRecord
100
AcDbDimStyleTableRecord
  2
ISO-25
 70
     0
  3

  4

  5

  6

  7

 40
1.0
 41
2.5
 42
0.625
 43
3.75
 44
1.25
 45
0.0
 46
0.0
 47
0.0
 48
0.0
140
2.5
141
2.5
142
0.0
143
0.03937007874016
144
1.0
145
0.0
146
1.0
147
0.625
 71
     0
 72
     0
 73
     0
 74
     0
 75
     0
 76
     0
 77
     1
 78
     8
170
     0
171
     3
172
     1
173
     0
174
     0
175
     0
176
     0
177
     0
178
     0
270
     2
271
     2
272
     2
273
     2
274
     3
340
11
275
     0
280
     0
281
     0
282
     0
283
     0
284
     8
285
     0
286
     0
287
     3
288
     0
  0
ENDTAB
  0
TABLE
  2
BLOCK_RECORD
  5
1
330
0
100
AcDbSymbolTable
 70
     1
  0
BLOCK_RECORD
  5
1F
330
1
100
AcDbSymbolTableRecord
100
AcDbBlockTableRecord
  2
*MODEL_SPACE
  0
BLOCK_RECORD
  5
1B
330
1
100
AcDbSymbolTableRecord
100
AcDbBlockTableRecord
  2
*PAPER_SPACE
  0
ENDTAB
  0
ENDSEC
  0
SECTION
  2
BLOCKS
  0
BLOCK
  5
20
330
1F
100
AcDbEntity
  8
0
100
AcDbBlockBegin
  2
*MODEL_SPACE
 70
     0
 10
0.0
 20
0.0
 30
0.0
  3
*MODEL_SPACE
  1

  0
ENDBLK
  5
21
330
1F
100
AcDbEntity
  8
0
100
AcDbBlockEnd
  0
BLOCK
  5
1C
330
1B
100
AcDbEntity
 67
     1
  8
0
100
AcDbBlockBegin
  2
*PAPER_SPACE
  1

  0
ENDBLK
  5
1D
330
1B
100
AcDbEntity
 67
     1
  8
0
100
AcDbBlockEnd
  0
ENDSEC
  0
SECTION
  2
ENTITIES
  0
SPLINE
  5
100
100
AcDbEntity
  8
Layer_1
 62
1
100
AcDbSpline
 70
8
 71
3
 72
8
 73
4
 74
0
 40
0
 40
0
 40
0
 40
0
 40
1
 40
1
 40
1
 40
1
 10
205.215560
 20
575.153524
 30
0.0
 10
205.215560
 20
570.843756
 30
0.0
 10
203.495045
 20
566.710505
 30
0.0
 10
200.432508
 20
563.663039
 30
0.0
  0
SPLINE
  5
101
100
AcDbEntity
  8
Layer_1
 62
1
100
AcDbSpline
 70
8
 71
3
 72
8
 73
4
 74
0
 40
0
 40
0
 40
0
 40
0
 40
1
 40
1
 40
1
 40
1
 10
200.432508
 20
563.663039
 30
0.0
 10
197.369972
 20
560.615572
 30
0.0
 10
193.216281
 20
558.903524
 30
0.0
 10
188.885200
 20
558.903524
 30
0.0
  0
SPLINE
  5
102
100
AcDbEntity
  8
Layer_1
 62
1
100
AcDbSpline
 70
8
 71
3
 72
8
 73
4
 74
0
 40
0
 40
0
 40
0
 40
0
 40
1
 40
1
 40
1
 40
1
 10
188.885200
 20
558.903524
 30
0.0
 10
184.554119
 20
558.903524
 30
0.0
 10
180.400428
 20
560.615572
 30
0.0
 10
177.337892
 20
563.663039
 30
0.0
  0
SPLINE
  5
103
100
AcDbEntity
  8
Layer_1
 62
1
100
AcDbSpline
 70
8
 71
3
 72
8
 73
4
 74
0
 40
0
 40
0
 40
0
 40
0
 40
1
 40
1
 40
1
 40
1
 10
177.337892
 20
563.663039
 30
0.0
 10
174.275355
 20
566.710505
 30
0.0
 10
172.554840
 20
570.843756
 30
0.0
 10
172.554840
 20
575.153524
 30
0.0
  0
SPLINE
  5
104
100
AcDbEntity
  8
Layer_1
 62
1
100
AcDbSpline
 70
8
 71
3
 72
8
 73
4
 74
0
 40
0
 40
0
 40
0
 40
0
 40
1
 40
1
 40
1
 40
1
 10
172.554840
 20
575.153524
 30
0.0
 10
172.554840
 20
579.463292
 30
0.0
 10
174.275355
 20
583.596543
 30
0.0
 10
177.337892
 20
586.644009
 30
0.0
  0
SPLINE
  5
105
100
AcDbEntity
  8
Layer_1
 62
1
100
AcDbSpline
 70
8
 71
3
 72
8
 73
4
 74
0
 40
0
 40
0
 40
0
 40
0
 40
1
 40
1
 40
1
 40
1
 10
177.337892
 20
586.644009
 30
0.0
 10
180.400428
 20
589.691476
 30
0.0
 10
184.554119
 20
591.403524
 30
0.0
 10
188.885200
 20
591.403524
 30
0.0
  0
SPLINE
  5
106
100
AcDbEntity
  8
Layer_1
 62
1
100
AcDbSpline
 70
8
 71
3
 72
8
 73
4
 74
0
 40
0
 40
0
 40
0
 40
0
 40
1
 40
1
 40
1
 40
1
 10
188.885200
 20
591.403524
 30
0.0
 10
193.216281
 20
591.403524
 30
0.0
 10
197.369972
 20
589.691476
 30
0.0
 10
200.432508
 20
586.644009
 30
0.0
  0
SPLINE
  5
107
100
AcDbEntity
  8
Layer_1
 62
1
100
AcDbSpline
 70
8
 71
3
 72
8
 73
4
 74
0
 40
0
 40
0
 40
0
 40
0
 40
1
 40
1
 40
1
 40
1
 10
200.432508
 20
586.644009
 30
0.0
 10
203.495045
 20
583.596543
 30
0.0
 10
205.215560
 20
579.463292
 30
0.0
 10
205.215560
 20
575.153524
 30
0.0
  0
SPLINE
  5
108
100
AcDbEntity
  8
Layer_1
 62
1
100
AcDbSpline
 70
8
 71
3
 72
8
 73
4
 74
0
 40
0
 40
0
 40
0
 40
0
 40
1
 40
1
 40
1
 40
1
 10
205.271448
 20
499.965532
 30
0.0
 10
205.271448
 20
495.655764
 30
0.0
 10
203.550933
 20
491.522513
 30
0.0
 10
200.488396
 20
488.475047
 30
0.0
  0
SPLINE
  5
109
100
AcDbEntity
  8
Layer_1
 62
1
100
AcDbSpline
 70
8
 71
3
 72
8
 73
4
 74
0
 40
0
 40
0
 40
0
 40
0
 40
1
 40
1
 40
1
 40
1
 10
200.488396
 20
488.475047
 30
0.0
 10
197.425860
 20
485.427580
 30
0.0
 10
193.272169
 20
483.715532
 30
0.0
 10
188.941088
 20
483.715532
 30
0.0
  0
SPLINE
  5
10a
100
AcDbEntity
  8
Layer_1
 62
1
100
AcDbSpline
 70
8
 71
3
 72
8
 73
4
 74
0
 40
0
 40
0
 40
0
 40
0
 40
1
 40
1
 40
1
 40
1
 10
188.941088
 20
483.715532
 30
0.0
 10
184.610007
 20
483.715532
 30
0.0
 10
180.456316
 20
485.427580
 30
0.0
 10
177.393780
 20
488.475047
 30
0.0
  0
SPLINE
  5
10b
100
AcDbEntity
  8
Layer_1
 62
1
100
AcDbSpline
 70
8
 71
3
 72
8
 73
4
 74
0
 40
0
 40
0
 40
0
 40
0
 40
1
 40
1
 40
1
 40
1
 10
177.393780
 20
488.475047
 30
0.0
 10
174.331243
 20
491.522513
 30
0.0
 10
172.610728
 20
495.655764
 30
0.0
 10
172.610728
 20
499.965532
 30
0.0
  0
SPLINE
  5
10c
100
AcDbEntity
  8
Layer_1
 62
1
100
AcDbSpline
 70
8
 71
3
 72
8
 73
4
 74
0
 40
0
 40
0
 40
0
 40
0
 40
1
 40
1
 40
1
 40
1
 10
172.610728
 20
499.965532
 30
0.0
 10
172.610728
 20
504.275300
 30
0.0
 10
174.331243
 20
508.408551
 30
0.0
 10
177.393780
 20
511.456017
 30
0.0
  0
SPLINE
  5
10d
100
AcDbEntity
  8
Layer_1
 62
1
100
AcDbSpline
 70
8
 71
3
 72
8
 73
4
 74
0
 40
0
 40
0
 40
0
 40
0
 40
1
 40
1
 40
1
 40
1
 10
177.393780
 20
511.456017
 30
0.0
 10
180.456316
 20
514.503484
 30
0.0
 10
184.610007
 20
516.215532
 30
0.0
 10
188.941088
 20
516.215532
 30
0.0
  0
SPLINE
  5
10e
100
AcDbEntity
  8
Layer_1
 62
1
100
AcDbSpline
 70
8
 71
3
 72
8
 73
4
 74
0
 40
0
 40
0
 40
0
 40
0
 40
1
 40
1
 40
1
 40
1
 10
188.941088
 20
516.215532
 30
0.0
 10
193.272169
 20
516.215532
 30
0.0
 10
197.425860
 20
514.503484
 30
0.0
 10
200.488396
 20
511.456017
 30
0.0
  0
SPLINE
  5
10f
100
AcDbEntity
  8
Layer_1
 62
1
100
AcDbSpline
 70
8
 71
3
 72
8
 73
4
 74
0
 40
0
 40
0
 40
0
 40
0
 40
1
 40
1
 40
1
 40
1
 10
200.488396
 20
511.456017
 30
0.0
 10
203.550933
 20
508.408551
 30
0.0
 10
205.271448
 20
504.275300
 30
0.0
 10
205.271448
 20
499.965532
 30
0.0
  0
LWPOLYLINE
  5
110
100
AcDbEntity
  8
Layer_1
 62
1
100
AcDbPolyline
 90
2
 70
1
 10
205.215560
 20
575.153524
 30
0.0
 10
205.215560
 20
575.153524
 30
0.0
  0
SPLINE
  5
111
100
AcDbEntity
  8
Layer_1
 62
1
100
AcDbSpline
 70
8
 71
3
 72
8
 73
4
 74
0
 40
0
 40
0
 40
0
 40
0
 40
1
 40
1
 40
1
 40
1
 10
205.271448
 20
439.213676
 30
0.0
 10
205.271448
 20
434.903908
 30
0.0
 10
203.550933
 20
430.770657
 30
0.0
 10
200.488396
 20
427.723191
 30
0.0
  0
SPLINE
  5
112
100
AcDbEntity
  8
Layer_1
 62
1
100
AcDbSpline
 70
8
 71
3
 72
8
 73
4
 74
0
 40
0
 40
0
 40
0
 40
0
 40
1
 40
1
 40
1
 40
1
 10
200.488396
 20
427.723191
 30
0.0
 10
197.425860
 20
424.675724
 30
0.0
 10
193.272169
 20
422.963676
 30
0.0
 10
188.941088
 20
422.963676
 30
0.0
  0
SPLINE
  5
113
100
AcDbEntity
  8
Layer_1
 62
1
100
AcDbSpline
 70
8
 71
3
 72
8
 73
4
 74
0
 40
0
 40
0
 40
0
 40
0
 40
1
 40
1
 40
1
 40
1
 10
188.941088
 20
422.963676
 30
0.0
 10
184.610007
 20
422.963676
 30
0.0
 10
180.456316
 20
424.675724
 30
0.0
 10
177.393780
 20
427.723191
 30
0.0
  0
SPLINE
  5
114
100
AcDbEntity
  8
Layer_1
 62
1
100
AcDbSpline
 70
8
 71
3
 72
8
 73
4
 74
0
 40
0
 40
0
 40
0
 40
0
 40
1
 40
1
 40
1
 40
1
 10
177.393780
 20
427.723191
 30
0.0
 10
174.331243
 20
430.770657
 30
0.0
 10
172.610728
 20
434.903908
 30
0.0
 10
172.610728
 20
439.213676
 30
0.0
  0
SPLINE
  5
115
100
AcDbEntity
  8
Layer_1
 62
1
100
AcDbSpline
 70
8
 71
3
 72
8
 73
4
 74
0
 40
0
 40
0
 40
0
 40
0
 40
1
 40
1
 40
1
 40
1
 10
172.610728
 20
439.213676
 30
0.0
 10
172.610728
 20
443.523444
 30
0.0
 10
174.331243
 20
447.656695
 30
0.0
 10
177.393780
 20
450.704161
 30
0.0
  0
SPLINE
  5
116
100
AcDbEntity
  8
Layer_1
 62
1
100
AcDbSpline
 70
8
 71
3
 72
8
 73
4
 74
0
 40
0
 40
0
 40
0
 40
0
 40
1
 40
1
 40
1
 40
1
 10
177.393780
 20
450.704161
 30
0.0
 10
180.456316
 20
453.751628
 30
0.0
 10
184.610007
 20
455.463676
 30
0.0
 10
188.941088
 20
455.463676
 30
0.0
  0
SPLINE
  5
117
100
AcDbEntity
  8
Layer_1
 62
1
100
AcDbSpline
 70
8
 71
3
 72
8
 73
4
 74
0
 40
0
 40
0
 40
0
 40
0
 40
1
 40
1
 40
1
 40
1
 10
188.941088
 20
455.463676
 30
0.0
 10
193.272169
 20
455.463676
 30
0.0
 10
197.425860
 20
453.751628
 30
0.0
 10
200.488396
 20
450.704161
 30
0.0
  0
SPLINE
  5
118
100
AcDbEntity
  8
Layer_1
 62
1
100
AcDbSpline
 70
8
 71
3
 72
8
 73
4
 74
0
 40
0
 40
0
 40
0
 40
0
 40
1
 40
1
 40
1
 40
1
 10
200.488396
 20
450.704161
 30
0.0
 10
203.550933
 20
447.656695
 30
0.0
 10
205.271448
 20
443.523444
 30
0.0
 10
205.271448
 20
439.213676
 30
0.0
  0
LWPOLYLINE
  5
119
100
AcDbEntity
  8
Layer_1
 62
1
100
AcDbPolyline
 90
2
 70
1
 10
205.271448
 20
499.965532
 30
0.0
 10
205.271448
 20
499.965532
 30
0.0
  0
SPLINE
  5
11a
100
AcDbEntity
  8
Layer_1
 62
1
100
AcDbSpline
 70
8
 71
3
 72
8
 73
4
 74
0
 40
0
 40
0
 40
0
 40
0
 40
1
 40
1
 40
1
 40
1
 10
205.271448
 20
364.025692
 30
0.0
 10
205.271448
 20
359.715924
 30
0.0
 10
203.550933
 20
355.582673
 30
0.0
 10
200.488396
 20
352.535207
 30
0.0
  0
SPLINE
  5
11b
100
AcDbEntity
  8
Layer_1
 62
1
100
AcDbSpline
 70
8
 71
3
 72
8
 73
4
 74
0
 40
0
 40
0
 40
0
 40
0
 40
1
 40
1
 40
1
 40
1
 10
200.488396
 20
352.535207
 30
0.0
 10
197.425860
 20
349.487740
 30
0.0
 10
193.272169
 20
347.775692
 30
0.0
 10
188.941088
 20
347.775692
 30
0.0
  0
SPLINE
  5
11c
100
AcDbEntity
  8
Layer_1
 62
1
100
AcDbSpline
 70
8
 71
3
 72
8
 73
4
 74
0
 40
0
 40
0
 40
0
 40
0
 40
1
 40
1
 40
1
 40
1
 10
188.941088
 20
347.775692
 30
0.0
 10
184.610007
 20
347.775692
 30
0.0
 10
180.456316
 20
349.487740
 30
0.0
 10
177.393780
 20
352.535207
 30
0.0
  0
SPLINE
  5
11d
100
AcDbEntity
  8
Layer_1
 62
1
100
AcDbSpline
 70
8
 71
3
 72
8
 73
4
 74
0
 40
0
 40
0
 40
0
 40
0
 40
1
 40
1
 40
1
 40
1
 10
177.393780
 20
352.535207
 30
0.0
 10
174.331243
 20
355.582673
 30
0.0
 10
172.610728
 20
359.715924
 30
0.0
 10
172.610728
 20
364.025692
 30
0.0
  0
SPLINE
  5
11e
100
AcDbEntity
  8
Layer_1
 62
1
100
AcDbSpline
 70
8
 71
3
 72
8
 73
4
 74
0
 40
0
 40
0
 40
0
 40
0
 40
1
 40
1
 40
1
 40
1
 10
172.610728
 20
364.025692
 30
0.0
 10
172.610728
 20
368.335460
 30
0.0
 10
174.331243
 20
372.468711
 30
0.0
 10
177.393780
 20
375.516177
 30
0.0
  0
SPLINE
  5
11f
100
AcDbEntity
  8
Layer_1
 62
1
100
AcDbSpline
 70
8
 71
3
 72
8
 73
4
 74
0
 40
0
 40
0
 40
0
 40
0
 40
1
 40
1
 40
1
 40
1
 10
177.393780
 20
375.516177
 30
0.0
 10
180.456316
 20
378.563644
 30
0.0
 10
184.610007
 20
380.275692
 30
0.0
 10
188.941088
 20
380.275692
 30
0.0
  0
SPLINE
  5
120
100
AcDbEntity
  8
Layer_1
 62
1
100
AcDbSpline
 70
8
 71
3
 72
8
 73
4
 74
0
 40
0
 40
0
 40
0
 40
0
 40
1
 40
1
 40
1
 40
1
 10
188.941088
 20
380.275692
 30
0.0
 10
193.272169
 20
380.275692
 30
0.0
 10
197.425860
 20
378.563644
 30
0.0
 10
200.488396
 20
375.516177
 30
0.0
  0
SPLINE
  5
121
100
AcDbEntity
  8
Layer_1
 62
1
100
AcDbSpline
 70
8
 71
3
 72
8
 73
4
 74
0
 40
0
 40
0
 40
0
 40
0
 40
1
 40
1
 40
1
 40
1
 10
200.488396
 20
375.516177
 30
0.0
 10
203.550933
 20
372.468711
 30
0.0
 10
205.271448
 20
368.335460
 30
0.0
 10
205.271448
 20
364.025692
 30
0.0
  0
LWPOLYLINE
  5
122
100
AcDbEntity
  8
Layer_1
 62
1
100
AcDbPolyline
 90
2
 70
1
 10
205.271448
 20
439.213676
 30
0.0
 10
205.271448
 20
439.213676
 30
0.0
  0
SPLINE
  5
123
100
AcDbEntity
  8
Layer_1
 62
1
100
AcDbSpline
 70
8
 71
3
 72
8
 73
4
 74
0
 40
0
 40
0
 40
0
 40
0
 40
1
 40
1
 40
1
 40
1
 10
205.271448
 20
305.078324
 30
0.0
 10
205.271448
 20
300.768556
 30
0.0
 10
203.550933
 20
296.635305
 30
0.0
 10
200.488396
 20
293.587839
 30
0.0
  0
SPLINE
  5
124
100
AcDbEntity
  8
Layer_1
 62
1
100
AcDbSpline
 70
8
 71
3
 72
8
 73
4
 74
0
 40
0
 40
0
 40
0
 40
0
 40
1
 40
1
 40
1
 40
1
 10
200.488396
 20
293.587839
 30
0.0
 10
197.425860
 20
290.540372
 30
0.0
 10
193.272169
 20
288.828324
 30
0.0
 10
188.941088
 20
288.828324
 30
0.0
  0
SPLINE
  5
125
100
AcDbEntity
  8
Layer_1
 62
1
100
AcDbSpline
 70
8
 71
3
 72
8
 73
4
 74
0
 40
0
 40
0
 40
0
 40
0
 40
1
 40
1
 40
1
 40
1
 10
188.941088
 20
288.828324
 30
0.0
 10
184.610007
 20
288.828324
 30
0.0
 10
180.456316
 20
290.540372
 30
0.0
 10
177.393780
 20
293.587839
 30
0.0
  0
SPLINE
  5
126
100
AcDbEntity
  8
Layer_1
 62
1
100
AcDbSpline
 70
8
 71
3
 72
8
 73
4
 74
0
 40
0
 40
0
 40
0
 40
0
 40
1
 40
1
 40
1
 40
1
 10
177.393780
 20
293.587839
 30
0.0
 10
174.331243
 20
296.635305
 30
0.0
 10
172.610728
 20
300.768556
 30
0.0
 10
172.610728
 20
305.078324
 30
0.0
  0
SPLINE
  5
127
100
AcDbEntity
  8
Layer_1
 62
1
100
AcDbSpline
 70
8
 71
3
 72
8
 73
4
 74
0
 40
0
 40
0
 40
0
 40
0
 40
1
 40
1
 40
1
 40
1
 10
172.610728
 20
305.078324
 30
0.0
 10
172.610728
 20
309.388092
 30
0.0
 10
174.331243
 20
313.521343
 30
0.0
 10
177.393780
 20
316.568809
 30
0.0
  0
SPLINE
  5
128
100
AcDbEntity
  8
Layer_1
 62
1
100
AcDbSpline
 70
8
 71
3
 72
8
 73
4
 74
0
 40
0
 40
0
 40
0
 40
0
 40
1
 40
1
 40
1
 40
1
 10
177.393780
 20
316.568809
 30
0.0
 10
180.456316
 20
319.616276
 30
0.0
 10
184.610007
 20
321.328324
 30
0.0
 10
188.941088
 20
321.328324
 30
0.0
  0
SPLINE
  5
129
100
AcDbEntity
  8
Layer_1
 62
1
100
AcDbSpline
 70
8
 71
3
 72
8
 73
4
 74
0
 40
0
 40
0
 40
0
 40
0
 40
1
 40
1
 40
1
 40
1
 10
188.941088
 20
321.328324
 30
0.0
 10
193.272169
 20
321.328324
 30
0.0
 10
197.425860
 20
319.616276
 30
0.0
 10
200.488396
 20
316.568809
 30
0.0
  0
SPLINE
  5
12a
100
AcDbEntity
  8
Layer_1
 62
1
100
AcDbSpline
 70
8
 71
3
 72
8
 73
4
 74
0
 40
0
 40
0
 40
0
 40
0
 40
1
 40
1
 40
1
 40
1
 10
200.488396
 20
316.568809
 30
0.0
 10
203.550933
 20
313.521343
 30
0.0
 10
205.271448
 20
309.388092
 30
0.0
 10
205.271448
 20
305.078324
 30
0.0
  0
LWPOLYLINE
  5
12b
100
AcDbEntity
  8
Layer_1
 62
1
100
AcDbPolyline
 90
2
 70
1
 10
205.271448
 20
364.025692
 30
0.0
 10
205.271448
 20
364.025692
 30
0.0
  0
SPLINE
  5
12c
100
AcDbEntity
  8
Layer_1
 62
1
100
AcDbSpline
 70
8
 71
3
 72
8
 73
4
 74
0
 40
0
 40
0
 40
0
 40
0
 40
1
 40
1
 40
1
 40
1
 10
205.215560
 20
231.437020
 30
0.0
 10
205.215560
 20
227.127252
 30
0.0
 10
203.495045
 20
222.994001
 30
0.0
 10
200.432508
 20
219.946535
 30
0.0
  0
SPLINE
  5
12d
100
AcDbEntity
  8
Layer_1
 62
1
100
AcDbSpline
 70
8
 71
3
 72
8
 73
4
 74
0
 40
0
 40
0
 40
0
 40
0
 40
1
 40
1
 40
1
 40
1
 10
200.432508
 20
219.946535
 30
0.0
 10
197.369972
 20
216.899068
 30
0.0
 10
193.216281
 20
215.187020
 30
0.0
 10
188.885200
 20
215.187020
 30
0.0
  0
SPLINE
  5
12e
100
AcDbEntity
  8
Layer_1
 62
1
100
AcDbSpline
 70
8
 71
3
 72
8
 73
4
 74
0
 40
0
 40
0
 40
0
 40
0
 40
1
 40
1
 40
1
 40
1
 10
188.885200
 20
215.187020
 30
0.0
 10
184.554119
 20
215.187020
 30
0.0
 10
180.400428
 20
216.899068
 30
0.0
 10
177.337892
 20
219.946535
 30
0.0
  0
SPLINE
  5
12f
100
AcDbEntity
  8
Layer_1
 62
1
100
AcDbSpline
 70
8
 71
3
 72
8
 73
4
 74
0
 40
0
 40
0
 40
0
 40
0
 40
1
 40
1
 40
1
 40
1
 10
177.337892
 20
219.946535
 30
0.0
 10
174.275355
 20
222.994001
 30
0.0
 10
172.554840
 20
227.127252
 30
0.0
 10
172.554840
 20
231.437020
 30
0.0
  0
SPLINE
  5
130
100
AcDbEntity
  8
Layer_1
 62
1
100
AcDbSpline
 70
8
 71
3
 72
8
 73
4
 74
0
 40
0
 40
0
 40
0
 40
0
 40
1
 40
1
 40
1
 40
1
 10
172.554840
 20
231.437020
 30
0.0
 10
172.554840
 20
235.746788
 30
0.0
 10
174.275355
 20
239.880039
 30
0.0
 10
177.337892
 20
242.927505
 30
0.0
  0
SPLINE
  5
131
100
AcDbEntity
  8
Layer_1
 62
1
100
AcDbSpline
 70
8
 71
3
 72
8
 73
4
 74
0
 40
0
 40
0
 40
0
 40
0
 40
1
 40
1
 40
1
 40
1
 10
177.337892
 20
242.927505
 30
0.0
 10
180.400428
 20
245.974972
 30
0.0
 10
184.554119
 20
247.687020
 30
0.0
 10
188.885200
 20
247.687020
 30
0.0
  0
SPLINE
  5
132
100
AcDbEntity
  8
Layer_1
 62
1
100
AcDbSpline
 70
8
 71
3
 72
8
 73
4
 74
0
 40
0
 40
0
 40
0
 40
0
 40
1
 40
1
 40
1
 40
1
 10
188.885200
 20
247.687020
 30
0.0
 10
193.216281
 20
247.687020
 30
0.0
 10
197.369972
 20
245.974972
 30
0.0
 10
200.432508
 20
242.927505
 30
0.0
  0
SPLINE
  5
133
100
AcDbEntity
  8
Layer_1
 62
1
100
AcDbSpline
 70
8
 71
3
 72
8
 73
4
 74
0
 40
0
 40
0
 40
0
 40
0
 40
1
 40
1
 40
1
 40
1
 10
200.432508
 20
242.927505
 30
0.0
 10
203.495045
 20
239.880039
 30
0.0
 10
205.215560
 20
235.746788
 30
0.0
 10
205.215560
 20
231.437020
 30
0.0
  0
LWPOLYLINE
  5
134
100
AcDbEntity
  8
Layer_1
 62
1
100
AcDbPolyline
 90
2
 70
1
 10
205.271448
 20
305.078324
 30
0.0
 10
205.271448
 20
305.078324
 30
0.0
  0
SPLINE
  5
135
100
AcDbEntity
  8
Layer_1
 62
1
100
AcDbSpline
 70
8
 71
3
 72
8
 73
4
 74
0
 40
0
 40
0
 40
0
 40
0
 40
1
 40
1
 40
1
 40
1
 10
205.271448
 20
172.489652
 30
0.0
 10
205.271448
 20
168.179884
 30
0.0
 10
203.550933
 20
164.046633
 30
0.0
 10
200.488396
 20
160.999167
 30
0.0
  0
SPLINE
  5
136
100
AcDbEntity
  8
Layer_1
 62
1
100
AcDbSpline
 70
8
 71
3
 72
8
 73
4
 74
0
 40
0
 40
0
 40
0
 40
0
 40
1
 40
1
 40
1
 40
1
 10
200.488396
 20
160.999167
 30
0.0
 10
197.425860
 20
157.951700
 30
0.0
 10
193.272169
 20
156.239652
 30
0.0
 10
188.941088
 20
156.239652
 30
0.0
  0
SPLINE
  5
137
100
AcDbEntity
  8
Layer_1
 62
1
100
AcDbSpline
 70
8
 71
3
 72
8
 73
4
 74
0
 40
0
 40
0
 40
0
 40
0
 40
1
 40
1
 40
1
 40
1
 10
188.941088
 20
156.239652
 30
0.0
 10
184.610007
 20
156.239652
 30
0.0
 10
180.456316
 20
157.951700
 30
0.0
 10
177.393780
 20
160.999167
 30
0.0
  0
SPLINE
  5
138
100
AcDbEntity
  8
Layer_1
 62
1
100
AcDbSpline
 70
8
 71
3
 72
8
 73
4
 74
0
 40
0
 40
0
 40
0
 40
0
 40
1
 40
1
 40
1
 40
1
 10
177.393780
 20
160.999167
 30
0.0
 10
174.331243
 20
164.046633
 30
0.0
 10
172.610728
 20
168.179884
 30
0.0
 10
172.610728
 20
172.489652
 30
0.0
  0
SPLINE
  5
139
100
AcDbEntity
  8
Layer_1
 62
1
100
AcDbSpline
 70
8
 71
3
 72
8
 73
4
 74
0
 40
0
 40
0
 40
0
 40
0
 40
1
 40
1
 40
1
 40
1
 10
172.610728
 20
172.489652
 30
0.0
 10
172.610728
 20
176.799420
 30
0.0
 10
174.331243
 20
180.932671
 30
0.0
 10
177.393780
 20
183.980137
 30
0.0
  0
SPLINE
  5
13a
100
AcDbEntity
  8
Layer_1
 62
1
100
AcDbSpline
 70
8
 71
3
 72
8
 73
4
 74
0
 40
0
 40
0
 40
0
 40
0
 40
1
 40
1
 40
1
 40
1
 10
177.393780
 20
183.980137
 30
0.0
 10
180.456316
 20
187.027604
 30
0.0
 10
184.610007
 20
188.739652
 30
0.0
 10
188.941088
 20
188.739652
 30
0.0
  0
SPLINE
  5
13b
100
AcDbEntity
  8
Layer_1
 62
1
100
AcDbSpline
 70
8
 71
3
 72
8
 73
4
 74
0
 40
0
 40
0
 40
0
 40
0
 40
1
 40
1
 40
1
 40
1
 10
188.941088
 20
188.739652
 30
0.0
 10
193.272169
 20
188.739652
 30
0.0
 10
197.425860
 20
187.027604
 30
0.0
 10
200.488396
 20
183.980137
 30
0.0
  0
SPLINE
  5
13c
100
AcDbEntity
  8
Layer_1
 62
1
100
AcDbSpline
 70
8
 71
3
 72
8
 73
4
 74
0
 40
0
 40
0
 40
0
 40
0
 40
1
 40
1
 40
1
 40
1
 10
200.488396
 20
183.980137
 30
0.0
 10
203.550933
 20
180.932671
 30
0.0
 10
205.271448
 20
176.799420
 30
0.0
 10
205.271448
 20
172.489652
 30
0.0
  0
LWPOLYLINE
  5
13d
100
AcDbEntity
  8
Layer_1
 62
1
100
AcDbPolyline
 90
2
 70
1
 10
205.215560
 20
231.437020
 30
0.0
 10
205.215560
 20
231.437020
 30
0.0
  0
SPLINE
  5
13e
100
AcDbEntity
  8
Layer_1
 62
1
100
AcDbSpline
 70
8
 71
3
 72
8
 73
4
 74
0
 40
0
 40
0
 40
0
 40
0
 40
1
 40
1
 40
1
 40
1
 10
205.271448
 20
99.106156
 30
0.0
 10
205.271448
 20
94.796388
 30
0.0
 10
203.550933
 20
90.663137
 30
0.0
 10
200.488396
 20
87.615671
 30
0.0
  0
SPLINE
  5
13f
100
AcDbEntity
  8
Layer_1
 62
1
100
AcDbSpline
 70
8
 71
3
 72
8
 73
4
 74
0
 40
0
 40
0
 40
0
 40
0
 40
1
 40
1
 40
1
 40
1
 10
200.488396
 20
87.615671
 30
0.0
 10
197.425860
 20
84.568204
 30
0.0
 10
193.272169
 20
82.856156
 30
0.0
 10
188.941088
 20
82.856156
 30
0.0
  0
SPLINE
  5
140
100
AcDbEntity
  8
Layer_1
 62
1
100
AcDbSpline
 70
8
 71
3
 72
8
 73
4
 74
0
 40
0
 40
0
 40
0
 40
0
 40
1
 40
1
 40
1
 40
1
 10
188.941088
 20
82.856156
 30
0.0
 10
184.610007
 20
82.856156
 30
0.0
 10
180.456316
 20
84.568204
 30
0.0
 10
177.393780
 20
87.615671
 30
0.0
  0
SPLINE
  5
141
100
AcDbEntity
  8
Layer_1
 62
1
100
AcDbSpline
 70
8
 71
3
 72
8
 73
4
 74
0
 40
0
 40
0
 40
0
 40
0
 40
1
 40
1
 40
1
 40
1
 10
177.393780
 20
87.615671
 30
0.0
 10
174.331243
 20
90.663137
 30
0.0
 10
172.610728
 20
94.796388
 30
0.0
 10
172.610728
 20
99.106156
 30
0.0
  0
SPLINE
  5
142
100
AcDbEntity
  8
Layer_1
 62
1
100
AcDbSpline
 70
8
 71
3
 72
8
 73
4
 74
0
 40
0
 40
0
 40
0
 40
0
 40
1
 40
1
 40
1
 40
1
 10
172.610728
 20
99.106156
 30
0.0
 10
172.610728
 20
103.415924
 30
0.0
 10
174.331243
 20
107.549175
 30
0.0
 10
177.393780
 20
110.596641
 30
0.0
  0
SPLINE
  5
143
100
AcDbEntity
  8
Layer_1
 62
1
100
AcDbSpline
 70
8
 71
3
 72
8
 73
4
 74
0
 40
0
 40
0
 40
0
 40
0
 40
1
 40
1
 40
1
 40
1
 10
177.393780
 20
110.596641
 30
0.0
 10
180.456316
 20
113.644108
 30
0.0
 10
184.610007
 20
115.356156
 30
0.0
 10
188.941088
 20
115.356156
 30
0.0
  0
SPLINE
  5
144
100
AcDbEntity
  8
Layer_1
 62
1
100
AcDbSpline
 70
8
 71
3
 72
8
 73
4
 74
0
 40
0
 40
0
 40
0
 40
0
 40
1
 40
1
 40
1
 40
1
 10
188.941088
 20
115.356156
 30
0.0
 10
193.272169
 20
115.356156
 30
0.0
 10
197.425860
 20
113.644108
 30
0.0
 10
200.488396
 20
110.596641
 30
0.0
  0
SPLINE
  5
145
100
AcDbEntity
  8
Layer_1
 62
1
100
AcDbSpline
 70
8
 71
3
 72
8
 73
4
 74
0
 40
0
 40
0
 40
0
 40
0
 40
1
 40
1
 40
1
 40
1
 10
200.488396
 20
110.596641
 30
0.0
 10
203.550933
 20
107.549175
 30
0.0
 10
205.271448
 20
103.415924
 30
0.0
 10
205.271448
 20
99.106156
 30
0.0
  0
LWPOLYLINE
  5
146
100
AcDbEntity
  8
Layer_1
 62
1
100
AcDbPolyline
 90
2
 70
1
 10
205.271448
 20
172.489652
 30
0.0
 10
205.271448
 20
172.489652
 30
0.0
  0
SPLINE
  5
147
100
AcDbEntity
  8
Layer_1
 62
1
100
AcDbSpline
 70
8
 71
3
 72
8
 73
4
 74
0
 40
0
 40
0
 40
0
 40
0
 40
1
 40
1
 40
1
 40
1
 10
205.271448
 20
41.758804
 30
0.0
 10
205.271448
 20
37.449036
 30
0.0
 10
203.550933
 20
33.315785
 30
0.0
 10
200.488396
 20
30.268319
 30
0.0
  0
SPLINE
  5
148
100
AcDbEntity
  8
Layer_1
 62
1
100
AcDbSpline
 70
8
 71
3
 72
8
 73
4
 74
0
 40
0
 40
0
 40
0
 40
0
 40
1
 40
1
 40
1
 40
1
 10
200.488396
 20
30.268319
 30
0.0
 10
197.425860
 20
27.220852
 30
0.0
 10
193.272169
 20
25.508804
 30
0.0
 10
188.941088
 20
25.508804
 30
0.0
  0
SPLINE
  5
149
100
AcDbEntity
  8
Layer_1
 62
1
100
AcDbSpline
 70
8
 71
3
 72
8
 73
4
 74
0
 40
0
 40
0
 40
0
 40
0
 40
1
 40
1
 40
1
 40
1
 10
188.941088
 20
25.508804
 30
0.0
 10
184.610007
 20
25.508804
 30
0.0
 10
180.456316
 20
27.220852
 30
0.0
 10
177.393780
 20
30.268319
 30
0.0
  0
SPLINE
  5
14a
100
AcDbEntity
  8
Layer_1
 62
1
100
AcDbSpline
 70
8
 71
3
 72
8
 73
4
 74
0
 40
0
 40
0
 40
0
 40
0
 40
1
 40
1
 40
1
 40
1
 10
177.393780
 20
30.268319
 30
0.0
 10
174.331243
 20
33.315785
 30
0.0
 10
172.610728
 20
37.449036
 30
0.0
 10
172.610728
 20
41.758804
 30
0.0
  0
SPLINE
  5
14b
100
AcDbEntity
  8
Layer_1
 62
1
100
AcDbSpline
 70
8
 71
3
 72
8
 73
4
 74
0
 40
0
 40
0
 40
0
 40
0
 40
1
 40
1
 40
1
 40
1
 10
172.610728
 20
41.758804
 30
0.0
 10
172.610732
 20
50.733428
 30
0.0
 10
179.922082
 20
58.008796
 30
0.0
 10
188.941088
 20
58.008796
 30
0.0
  0
SPLINE
  5
14c
100
AcDbEntity
  8
Layer_1
 62
1
100
AcDbSpline
 70
8
 71
3
 72
8
 73
4
 74
0
 40
0
 40
0
 40
0
 40
0
 40
1
 40
1
 40
1
 40
1
 10
188.941088
 20
58.008796
 30
0.0
 10
197.960094
 20
58.008796
 30
0.0
 10
205.271444
 20
50.733428
 30
0.0
 10
205.271448
 20
41.758804
 30
0.0
  0
LWPOLYLINE
  5
14d
100
AcDbEntity
  8
Layer_1
 62
1
100
AcDbPolyline
 90
2
 70
1
 10
205.271448
 20
99.106156
 30
0.0
 10
205.271448
 20
99.106156
 30
0.0
  0
SPLINE
  5
14e
100
AcDbEntity
  8
Layer_1
 62
1
100
AcDbSpline
 70
8
 71
3
 72
8
 73
4
 74
0
 40
0
 40
0
 40
0
 40
0
 40
1
 40
1
 40
1
 40
1
 10
260.937608
 20
609.165532
 30
0.0
 10
260.937608
 20
604.855764
 30
0.0
 10
259.217093
 20
600.722513
 30
0.0
 10
256.154556
 20
597.675047
 30
0.0
  0
SPLINE
  5
14f
100
AcDbEntity
  8
Layer_1
 62
1
100
AcDbSpline
 70
8
 71
3
 72
8
 73
4
 74
0
 40
0
 40
0
 40
0
 40
0
 40
1
 40
1
 40
1
 40
1
 10
256.154556
 20
597.675047
 30
0.0
 10
253.092020
 20
594.627580
 30
0.0
 10
248.938329
 20
592.915532
 30
0.0
 10
244.607248
 20
592.915532
 30
0.0
  0
SPLINE
  5
150
100
AcDbEntity
  8
Layer_1
 62
1
100
AcDbSpline
 70
8
 71
3
 72
8
 73
4
 74
0
 40
0
 40
0
 40
0
 40
0
 40
1
 40
1
 40
1
 40
1
 10
244.607248
 20
592.915532
 30
0.0
 10
240.276167
 20
592.915532
 30
0.0
 10
236.122476
 20
594.627580
 30
0.0
 10
233.059940
 20
597.675047
 30
0.0
  0
SPLINE
  5
151
100
AcDbEntity
  8
Layer_1
 62
1
100
AcDbSpline
 70
8
 71
3
 72
8
 73
4
 74
0
 40
0
 40
0
 40
0
 40
0
 40
1
 40
1
 40
1
 40
1
 10
233.059940
 20
597.675047
 30
0.0
 10
229.997403
 20
600.722513
 30
0.0
 10
228.276888
 20
604.855764
 30
0.0
 10
228.276888
 20
609.165532
 30
0.0
  0
SPLINE
  5
152
100
AcDbEntity
  8
Layer_1
 62
1
100
AcDbSpline
 70
8
 71
3
 72
8
 73
4
 74
0
 40
0
 40
0
 40
0
 40
0
 40
1
 40
1
 40
1
 40
1
 10
228.276888
 20
609.165532
 30
0.0
 10
228.276888
 20
613.475300
 30
0.0
 10
229.997403
 20
617.608551
 30
0.0
 10
233.059940
 20
620.656017
 30
0.0
  0
SPLINE
  5
153
100
AcDbEntity
  8
Layer_1
 62
1
100
AcDbSpline
 70
8
 71
3
 72
8
 73
4
 74
0
 40
0
 40
0
 40
0
 40
0
 40
1
 40
1
 40
1
 40
1
 10
233.059940
 20
620.656017
 30
0.0
 10
236.122476
 20
623.703484
 30
0.0
 10
240.276167
 20
625.415532
 30
0.0
 10
244.607248
 20
625.415532
 30
0.0
  0
SPLINE
  5
154
100
AcDbEntity
  8
Layer_1
 62
1
100
AcDbSpline
 70
8
 71
3
 72
8
 73
4
 74
0
 40
0
 40
0
 40
0
 40
0
 40
1
 40
1
 40
1
 40
1
 10
244.607248
 20
625.415532
 30
0.0
 10
248.938329
 20
625.415532
 30
0.0
 10
253.092020
 20
623.703484
 30
0.0
 10
256.154556
 20
620.656017
 30
0.0
  0
SPLINE
  5
155
100
AcDbEntity
  8
Layer_1
 62
1
100
AcDbSpline
 70
8
 71
3
 72
8
 73
4
 74
0
 40
0
 40
0
 40
0
 40
0
 40
1
 40
1
 40
1
 40
1
 10
256.154556
 20
620.656017
 30
0.0
 10
259.217093
 20
617.608551
 30
0.0
 10
260.937608
 20
613.475300
 30
0.0
 10
260.937608
 20
609.165532
 30
0.0
  0
LWPOLYLINE
  5
156
100
AcDbEntity
  8
Layer_1
 62
1
100
AcDbPolyline
 90
2
 70
1
 10
205.271448
 20
41.758804
 30
0.0
 10
205.271448
 20
41.758804
 30
0.0
  0
SPLINE
  5
157
100
AcDbEntity
  8
Layer_1
 62
1
100
AcDbSpline
 70
8
 71
3
 72
8
 73
4
 74
0
 40
0
 40
0
 40
0
 40
0
 40
1
 40
1
 40
1
 40
1
 10
260.937608
 20
543.613676
 30
0.0
 10
260.937608
 20
539.303908
 30
0.0
 10
259.217093
 20
535.170657
 30
0.0
 10
256.154556
 20
532.123191
 30
0.0
  0
SPLINE
  5
158
100
AcDbEntity
  8
Layer_1
 62
1
100
AcDbSpline
 70
8
 71
3
 72
8
 73
4
 74
0
 40
0
 40
0
 40
0
 40
0
 40
1
 40
1
 40
1
 40
1
 10
256.154556
 20
532.123191
 30
0.0
 10
253.092020
 20
529.075724
 30
0.0
 10
248.938329
 20
527.363676
 30
0.0
 10
244.607248
 20
527.363676
 30
0.0
  0
SPLINE
  5
159
100
AcDbEntity
  8
Layer_1
 62
1
100
AcDbSpline
 70
8
 71
3
 72
8
 73
4
 74
0
 40
0
 40
0
 40
0
 40
0
 40
1
 40
1
 40
1
 40
1
 10
244.607248
 20
527.363676
 30
0.0
 10
240.276167
 20
527.363676
 30
0.0
 10
236.122476
 20
529.075724
 30
0.0
 10
233.059940
 20
532.123191
 30
0.0
  0
SPLINE
  5
15a
100
AcDbEntity
  8
Layer_1
 62
1
100
AcDbSpline
 70
8
 71
3
 72
8
 73
4
 74
0
 40
0
 40
0
 40
0
 40
0
 40
1
 40
1
 40
1
 40
1
 10
233.059940
 20
532.123191
 30
0.0
 10
229.997403
 20
535.170657
 30
0.0
 10
228.276888
 20
539.303908
 30
0.0
 10
228.276888
 20
543.613676
 30
0.0
  0
SPLINE
  5
15b
100
AcDbEntity
  8
Layer_1
 62
1
100
AcDbSpline
 70
8
 71
3
 72
8
 73
4
 74
0
 40
0
 40
0
 40
0
 40
0
 40
1
 40
1
 40
1
 40
1
 10
228.276888
 20
543.613676
 30
0.0
 10
228.276888
 20
547.923444
 30
0.0
 10
229.997403
 20
552.056695
 30
0.0
 10
233.059940
 20
555.104161
 30
0.0
  0
SPLINE
  5
15c
100
AcDbEntity
  8
Layer_1
 62
1
100
AcDbSpline
 70
8
 71
3
 72
8
 73
4
 74
0
 40
0
 40
0
 40
0
 40
0
 40
1
 40
1
 40
1
 40
1
 10
233.059940
 20
555.104161
 30
0.0
 10
236.122476
 20
558.151628
 30
0.0
 10
240.276167
 20
559.863676
 30
0.0
 10
244.607248
 20
559.863676
 30
0.0
  0
SPLINE
  5
15d
100
AcDbEntity
  8
Layer_1
 62
1
100
AcDbSpline
 70
8
 71
3
 72
8
 73
4
 74
0
 40
0
 40
0
 40
0
 40
0
 40
1
 40
1
 40
1
 40
1
 10
244.607248
 20
559.863676
 30
0.0
 10
248.938329
 20
559.863676
 30
0.0
 10
253.092020
 20
558.151628
 30
0.0
 10
256.154556
 20
555.104161
 30
0.0
  0
SPLINE
  5
15e
100
AcDbEntity
  8
Layer_1
 62
1
100
AcDbSpline
 70
8
 71
3
 72
8
 73
4
 74
0
 40
0
 40
0
 40
0
 40
0
 40
1
 40
1
 40
1
 40
1
 10
256.154556
 20
555.104161
 30
0.0
 10
259.217093
 20
552.056695
 30
0.0
 10
260.937608
 20
547.923444
 30
0.0
 10
260.937608
 20
543.613676
 30
0.0
  0
LWPOLYLINE
  5
15f
100
AcDbEntity
  8
Layer_1
 62
1
100
AcDbPolyline
 90
2
 70
1
 10
260.937608
 20
609.165532
 30
0.0
 10
260.937608
 20
609.165532
 30
0.0
  0
SPLINE
  5
160
100
AcDbEntity
  8
Layer_1
 62
1
100
AcDbSpline
 70
8
 71
3
 72
8
 73
4
 74
0
 40
0
 40
0
 40
0
 40
0
 40
1
 40
1
 40
1
 40
1
 10
260.937608
 20
463.625692
 30
0.0
 10
260.937608
 20
459.315924
 30
0.0
 10
259.217093
 20
455.182673
 30
0.0
 10
256.154556
 20
452.135207
 30
0.0
  0
SPLINE
  5
161
100
AcDbEntity
  8
Layer_1
 62
1
100
AcDbSpline
 70
8
 71
3
 72
8
 73
4
 74
0
 40
0
 40
0
 40
0
 40
0
 40
1
 40
1
 40
1
 40
1
 10
256.154556
 20
452.135207
 30
0.0
 10
253.092020
 20
449.087740
 30
0.0
 10
248.938329
 20
447.375692
 30
0.0
 10
244.607248
 20
447.375692
 30
0.0
  0
SPLINE
  5
162
100
AcDbEntity
  8
Layer_1
 62
1
100
AcDbSpline
 70
8
 71
3
 72
8
 73
4
 74
0
 40
0
 40
0
 40
0
 40
0
 40
1
 40
1
 40
1
 40
1
 10
244.607248
 20
447.375692
 30
0.0
 10
240.276167
 20
447.375692
 30
0.0
 10
236.122476
 20
449.087740
 30
0.0
 10
233.059940
 20
452.135207
 30
0.0
  0
SPLINE
  5
163
100
AcDbEntity
  8
Layer_1
 62
1
100
AcDbSpline
 70
8
 71
3
 72
8
 73
4
 74
0
 40
0
 40
0
 40
0
 40
0
 40
1
 40
1
 40
1
 40
1
 10
233.059940
 20
452.135207
 30
0.0
 10
229.997403
 20
455.182673
 30
0.0
 10
228.276888
 20
459.315924
 30
0.0
 10
228.276888
 20
463.625692
 30
0.0
  0
SPLINE
  5
164
100
AcDbEntity
  8
Layer_1
 62
1
100
AcDbSpline
 70
8
 71
3
 72
8
 73
4
 74
0
 40
0
 40
0
 40
0
 40
0
 40
1
 40
1
 40
1
 40
1
 10
228.276888
 20
463.625692
 30
0.0
 10
228.276888
 20
467.935460
 30
0.0
 10
229.997403
 20
472.068711
 30
0.0
 10
233.059940
 20
475.116177
 30
0.0
  0
SPLINE
  5
165
100
AcDbEntity
  8
Layer_1
 62
1
100
AcDbSpline
 70
8
 71
3
 72
8
 73
4
 74
0
 40
0
 40
0
 40
0
 40
0
 40
1
 40
1
 40
1
 40
1
 10
233.059940
 20
475.116177
 30
0.0
 10
236.122476
 20
478.163644
 30
0.0
 10
240.276167
 20
479.875692
 30
0.0
 10
244.607248
 20
479.875692
 30
0.0
  0
SPLINE
  5
166
100
AcDbEntity
  8
Layer_1
 62
1
100
AcDbSpline
 70
8
 71
3
 72
8
 73
4
 74
0
 40
0
 40
0
 40
0
 40
0
 40
1
 40
1
 40
1
 40
1
 10
244.607248
 20
479.875692
 30
0.0
 10
248.938329
 20
479.875692
 30
0.0
 10
253.092020
 20
478.163644
 30
0.0
 10
256.154556
 20
475.116177
 30
0.0
  0
SPLINE
  5
167
100
AcDbEntity
  8
Layer_1
 62
1
100
AcDbSpline
 70
8
 71
3
 72
8
 73
4
 74
0
 40
0
 40
0
 40
0
 40
0
 40
1
 40
1
 40
1
 40
1
 10
256.154556
 20
475.116177
 30
0.0
 10
259.217093
 20
472.068711
 30
0.0
 10
260.937608
 20
467.935460
 30
0.0
 10
260.937608
 20
463.625692
 30
0.0
  0
LWPOLYLINE
  5
168
100
AcDbEntity
  8
Layer_1
 62
1
100
AcDbPolyline
 90
2
 70
1
 10
260.937608
 20
543.613676
 30
0.0
 10
260.937608
 20
543.613676
 30
0.0
  0
SPLINE
  5
169
100
AcDbEntity
  8
Layer_1
 62
1
100
AcDbSpline
 70
8
 71
3
 72
8
 73
4
 74
0
 40
0
 40
0
 40
0
 40
0
 40
1
 40
1
 40
1
 40
1
 10
260.937608
 20
399.878324
 30
0.0
 10
260.937608
 20
395.568556
 30
0.0
 10
259.217093
 20
391.435305
 30
0.0
 10
256.154556
 20
388.387839
 30
0.0
  0
SPLINE
  5
16a
100
AcDbEntity
  8
Layer_1
 62
1
100
AcDbSpline
 70
8
 71
3
 72
8
 73
4
 74
0
 40
0
 40
0
 40
0
 40
0
 40
1
 40
1
 40
1
 40
1
 10
256.154556
 20
388.387839
 30
0.0
 10
253.092020
 20
385.340372
 30
0.0
 10
248.938329
 20
383.628324
 30
0.0
 10
244.607248
 20
383.628324
 30
0.0
  0
SPLINE
  5
16b
100
AcDbEntity
  8
Layer_1
 62
1
100
AcDbSpline
 70
8
 71
3
 72
8
 73
4
 74
0
 40
0
 40
0
 40
0
 40
0
 40
1
 40
1
 40
1
 40
1
 10
244.607248
 20
383.628324
 30
0.0
 10
240.276167
 20
383.628324
 30
0.0
 10
236.122476
 20
385.340372
 30
0.0
 10
233.059940
 20
388.387839
 30
0.0
  0
SPLINE
  5
16c
100
AcDbEntity
  8
Layer_1
 62
1
100
AcDbSpline
 70
8
 71
3
 72
8
 73
4
 74
0
 40
0
 40
0
 40
0
 40
0
 40
1
 40
1
 40
1
 40
1
 10
233.059940
 20
388.387839
 30
0.0
 10
229.997403
 20
391.435305
 30
0.0
 10
228.276888
 20
395.568556
 30
0.0
 10
228.276888
 20
399.878324
 30
0.0
  0
SPLINE
  5
16d
100
AcDbEntity
  8
Layer_1
 62
1
100
AcDbSpline
 70
8
 71
3
 72
8
 73
4
 74
0
 40
0
 40
0
 40
0
 40
0
 40
1
 40
1
 40
1
 40
1
 10
228.276888
 20
399.878324
 30
0.0
 10
228.276888
 20
404.188092
 30
0.0
 10
229.997403
 20
408.321343
 30
0.0
 10
233.059940
 20
411.368809
 30
0.0
  0
SPLINE
  5
16e
100
AcDbEntity
  8
Layer_1
 62
1
100
AcDbSpline
 70
8
 71
3
 72
8
 73
4
 74
0
 40
0
 40
0
 40
0
 40
0
 40
1
 40
1
 40
1
 40
1
 10
233.059940
 20
411.368809
 30
0.0
 10
236.122476
 20
414.416276
 30
0.0
 10
240.276167
 20
416.128324
 30
0.0
 10
244.607248
 20
416.128324
 30
0.0
  0
SPLINE
  5
16f
100
AcDbEntity
  8
Layer_1
 62
1
100
AcDbSpline
 70
8
 71
3
 72
8
 73
4
 74
0
 40
0
 40
0
 40
0
 40
0
 40
1
 40
1
 40
1
 40
1
 10
244.607248
 20
416.128324
 30
0.0
 10
248.938329
 20
416.128324
 30
0.0
 10
253.092020
 20
414.416276
 30
0.0
 10
256.154556
 20
411.368809
 30
0.0
  0
SPLINE
  5
170
100
AcDbEntity
  8
Layer_1
 62
1
100
AcDbSpline
 70
8
 71
3
 72
8
 73
4
 74
0
 40
0
 40
0
 40
0
 40
0
 40
1
 40
1
 40
1
 40
1
 10
256.154556
 20
411.368809
 30
0.0
 10
259.217093
 20
408.321343
 30
0.0
 10
260.937608
 20
404.188092
 30
0.0
 10
260.937608
 20
399.878324
 30
0.0
  0
LWPOLYLINE
  5
171
100
AcDbEntity
  8
Layer_1
 62
1
100
AcDbPolyline
 90
2
 70
1
 10
260.937608
 20
463.625692
 30
0.0
 10
260.937608
 20
463.625692
 30
0.0
  0
SPLINE
  5
172
100
AcDbEntity
  8
Layer_1
 62
1
100
AcDbSpline
 70
8
 71
3
 72
8
 73
4
 74
0
 40
0
 40
0
 40
0
 40
0
 40
1
 40
1
 40
1
 40
1
 10
260.937608
 20
320.237020
 30
0.0
 10
260.937608
 20
315.927252
 30
0.0
 10
259.217093
 20
311.794001
 30
0.0
 10
256.154556
 20
308.746535
 30
0.0
  0
SPLINE
  5
173
100
AcDbEntity
  8
Layer_1
 62
1
100
AcDbSpline
 70
8
 71
3
 72
8
 73
4
 74
0
 40
0
 40
0
 40
0
 40
0
 40
1
 40
1
 40
1
 40
1
 10
256.154556
 20
308.746535
 30
0.0
 10
253.092020
 20
305.699068
 30
0.0
 10
248.938329
 20
303.987020
 30
0.0
 10
244.607248
 20
303.987020
 30
0.0
  0
SPLINE
  5
174
100
AcDbEntity
  8
Layer_1
 62
1
100
AcDbSpline
 70
8
 71
3
 72
8
 73
4
 74
0
 40
0
 40
0
 40
0
 40
0
 40
1
 40
1
 40
1
 40
1
 10
244.607248
 20
303.987020
 30
0.0
 10
240.276167
 20
303.987020
 30
0.0
 10
236.122476
 20
305.699068
 30
0.0
 10
233.059940
 20
308.746535
 30
0.0
  0
SPLINE
  5
175
100
AcDbEntity
  8
Layer_1
 62
1
100
AcDbSpline
 70
8
 71
3
 72
8
 73
4
 74
0
 40
0
 40
0
 40
0
 40
0
 40
1
 40
1
 40
1
 40
1
 10
233.059940
 20
308.746535
 30
0.0
 10
229.997403
 20
311.794001
 30
0.0
 10
228.276888
 20
315.927252
 30
0.0
 10
228.276888
 20
320.237020
 30
0.0
  0
SPLINE
  5
176
100
AcDbEntity
  8
Layer_1
 62
1
100
AcDbSpline
 70
8
 71
3
 72
8
 73
4
 74
0
 40
0
 40
0
 40
0
 40
0
 40
1
 40
1
 40
1
 40
1
 10
228.276888
 20
320.237020
 30
0.0
 10
228.276888
 20
324.546788
 30
0.0
 10
229.997403
 20
328.680039
 30
0.0
 10
233.059940
 20
331.727505
 30
0.0
  0
SPLINE
  5
177
100
AcDbEntity
  8
Layer_1
 62
1
100
AcDbSpline
 70
8
 71
3
 72
8
 73
4
 74
0
 40
0
 40
0
 40
0
 40
0
 40
1
 40
1
 40
1
 40
1
 10
233.059940
 20
331.727505
 30
0.0
 10
236.122476
 20
334.774972
 30
0.0
 10
240.276167
 20
336.487020
 30
0.0
 10
244.607248
 20
336.487020
 30
0.0
  0
SPLINE
  5
178
100
AcDbEntity
  8
Layer_1
 62
1
100
AcDbSpline
 70
8
 71
3
 72
8
 73
4
 74
0
 40
0
 40
0
 40
0
 40
0
 40
1
 40
1
 40
1
 40
1
 10
244.607248
 20
336.487020
 30
0.0
 10
248.938329
 20
336.487020
 30
0.0
 10
253.092020
 20
334.774972
 30
0.0
 10
256.154556
 20
331.727505
 30
0.0
  0
SPLINE
  5
179
100
AcDbEntity
  8
Layer_1
 62
1
100
AcDbSpline
 70
8
 71
3
 72
8
 73
4
 74
0
 40
0
 40
0
 40
0
 40
0
 40
1
 40
1
 40
1
 40
1
 10
256.154556
 20
331.727505
 30
0.0
 10
259.217093
 20
328.680039
 30
0.0
 10
260.937608
 20
324.546788
 30
0.0
 10
260.937608
 20
320.237020
 30
0.0
  0
LWPOLYLINE
  5
17a
100
AcDbEntity
  8
Layer_1
 62
1
100
AcDbPolyline
 90
2
 70
1
 10
260.937608
 20
399.878324
 30
0.0
 10
260.937608
 20
399.878324
 30
0.0
  0
SPLINE
  5
17b
100
AcDbEntity
  8
Layer_1
 62
1
100
AcDbSpline
 70
8
 71
3
 72
8
 73
4
 74
0
 40
0
 40
0
 40
0
 40
0
 40
1
 40
1
 40
1
 40
1
 10
260.937608
 20
255.689652
 30
0.0
 10
260.937608
 20
251.379884
 30
0.0
 10
259.217093
 20
247.246633
 30
0.0
 10
256.154556
 20
244.199167
 30
0.0
  0
SPLINE
  5
17c
100
AcDbEntity
  8
Layer_1
 62
1
100
AcDbSpline
 70
8
 71
3
 72
8
 73
4
 74
0
 40
0
 40
0
 40
0
 40
0
 40
1
 40
1
 40
1
 40
1
 10
256.154556
 20
244.199167
 30
0.0
 10
253.092020
 20
241.151700
 30
0.0
 10
248.938329
 20
239.439652
 30
0.0
 10
244.607248
 20
239.439652
 30
0.0
  0
SPLINE
  5
17d
100
AcDbEntity
  8
Layer_1
 62
1
100
AcDbSpline
 70
8
 71
3
 72
8
 73
4
 74
0
 40
0
 40
0
 40
0
 40
0
 40
1
 40
1
 40
1
 40
1
 10
244.607248
 20
239.439652
 30
0.0
 10
240.276167
 20
239.439652
 30
0.0
 10
236.122476
 20
241.151700
 30
0.0
 10
233.059940
 20
244.199167
 30
0.0
  0
SPLINE
  5
17e
100
AcDbEntity
  8
Layer_1
 62
1
100
AcDbSpline
 70
8
 71
3
 72
8
 73
4
 74
0
 40
0
 40
0
 40
0
 40
0
 40
1
 40
1
 40
1
 40
1
 10
233.059940
 20
244.199167
 30
0.0
 10
229.997403
 20
247.246633
 30
0.0
 10
228.276888
 20
251.379884
 30
0.0
 10
228.276888
 20
255.689652
 30
0.0
  0
SPLINE
  5
17f
100
AcDbEntity
  8
Layer_1
 62
1
100
AcDbSpline
 70
8
 71
3
 72
8
 73
4
 74
0
 40
0
 40
0
 40
0
 40
0
 40
1
 40
1
 40
1
 40
1
 10
228.276888
 20
255.689652
 30
0.0
 10
228.276888
 20
259.999420
 30
0.0
 10
229.997403
 20
264.132671
 30
0.0
 10
233.059940
 20
267.180137
 30
0.0
  0
SPLINE
  5
180
100
AcDbEntity
  8
Layer_1
 62
1
100
AcDbSpline
 70
8
 71
3
 72
8
 73
4
 74
0
 40
0
 40
0
 40
0
 40
0
 40
1
 40
1
 40
1
 40
1
 10
233.059940
 20
267.180137
 30
0.0
 10
236.122476
 20
270.227604
 30
0.0
 10
240.276167
 20
271.939652
 30
0.0
 10
244.607248
 20
271.939652
 30
0.0
  0
SPLINE
  5
181
100
AcDbEntity
  8
Layer_1
 62
1
100
AcDbSpline
 70
8
 71
3
 72
8
 73
4
 74
0
 40
0
 40
0
 40
0
 40
0
 40
1
 40
1
 40
1
 40
1
 10
244.607248
 20
271.939652
 30
0.0
 10
248.938329
 20
271.939652
 30
0.0
 10
253.092020
 20
270.227604
 30
0.0
 10
256.154556
 20
267.180137
 30
0.0
  0
SPLINE
  5
182
100
AcDbEntity
  8
Layer_1
 62
1
100
AcDbSpline
 70
8
 71
3
 72
8
 73
4
 74
0
 40
0
 40
0
 40
0
 40
0
 40
1
 40
1
 40
1
 40
1
 10
256.154556
 20
267.180137
 30
0.0
 10
259.217093
 20
264.132671
 30
0.0
 10
260.937608
 20
259.999420
 30
0.0
 10
260.937608
 20
255.689652
 30
0.0
  0
LWPOLYLINE
  5
183
100
AcDbEntity
  8
Layer_1
 62
1
100
AcDbPolyline
 90
2
 70
1
 10
260.937608
 20
320.237020
 30
0.0
 10
260.937608
 20
320.237020
 30
0.0
  0
SPLINE
  5
184
100
AcDbEntity
  8
Layer_1
 62
1
100
AcDbSpline
 70
8
 71
3
 72
8
 73
4
 74
0
 40
0
 40
0
 40
0
 40
0
 40
1
 40
1
 40
1
 40
1
 10
260.937608
 20
178.306156
 30
0.0
 10
260.937608
 20
173.996388
 30
0.0
 10
259.217093
 20
169.863137
 30
0.0
 10
256.154556
 20
166.815671
 30
0.0
  0
SPLINE
  5
185
100
AcDbEntity
  8
Layer_1
 62
1
100
AcDbSpline
 70
8
 71
3
 72
8
 73
4
 74
0
 40
0
 40
0
 40
0
 40
0
 40
1
 40
1
 40
1
 40
1
 10
256.154556
 20
166.815671
 30
0.0
 10
253.092020
 20
163.768204
 30
0.0
 10
248.938329
 20
162.056156
 30
0.0
 10
244.607248
 20
162.056156
 30
0.0
  0
SPLINE
  5
186
100
AcDbEntity
  8
Layer_1
 62
1
100
AcDbSpline
 70
8
 71
3
 72
8
 73
4
 74
0
 40
0
 40
0
 40
0
 40
0
 40
1
 40
1
 40
1
 40
1
 10
244.607248
 20
162.056156
 30
0.0
 10
240.276167
 20
162.056156
 30
0.0
 10
236.122476
 20
163.768204
 30
0.0
 10
233.059940
 20
166.815671
 30
0.0
  0
SPLINE
  5
187
100
AcDbEntity
  8
Layer_1
 62
1
100
AcDbSpline
 70
8
 71
3
 72
8
 73
4
 74
0
 40
0
 40
0
 40
0
 40
0
 40
1
 40
1
 40
1
 40
1
 10
233.059940
 20
166.815671
 30
0.0
 10
229.997403
 20
169.863137
 30
0.0
 10
228.276888
 20
173.996388
 30
0.0
 10
228.276888
 20
178.306156
 30
0.0
  0
SPLINE
  5
188
100
AcDbEntity
  8
Layer_1
 62
1
100
AcDbSpline
 70
8
 71
3
 72
8
 73
4
 74
0
 40
0
 40
0
 40
0
 40
0
 40
1
 40
1
 40
1
 40
1
 10
228.276888
 20
178.306156
 30
0.0
 10
228.276888
 20
182.615924
 30
0.0
 10
229.997403
 20
186.749175
 30
0.0
 10
233.059940
 20
189.796641
 30
0.0
  0
SPLINE
  5
189
100
AcDbEntity
  8
Layer_1
 62
1
100
AcDbSpline
 70
8
 71
3
 72
8
 73
4
 74
0
 40
0
 40
0
 40
0
 40
0
 40
1
 40
1
 40
1
 40
1
 10
233.059940
 20
189.796641
 30
0.0
 10
236.122476
 20
192.844108
 30
0.0
 10
240.276167
 20
194.556156
 30
0.0
 10
244.607248
 20
194.556156
 30
0.0
  0
SPLINE
  5
18a
100
AcDbEntity
  8
Layer_1
 62
1
100
AcDbSpline
 70
8
 71
3
 72
8
 73
4
 74
0
 40
0
 40
0
 40
0
 40
0
 40
1
 40
1
 40
1
 40
1
 10
244.607248
 20
194.556156
 30
0.0
 10
248.938329
 20
194.556156
 30
0.0
 10
253.092020
 20
192.844108
 30
0.0
 10
256.154556
 20
189.796641
 30
0.0
  0
SPLINE
  5
18b
100
AcDbEntity
  8
Layer_1
 62
1
100
AcDbSpline
 70
8
 71
3
 72
8
 73
4
 74
0
 40
0
 40
0
 40
0
 40
0
 40
1
 40
1
 40
1
 40
1
 10
256.154556
 20
189.796641
 30
0.0
 10
259.217093
 20
186.749175
 30
0.0
 10
260.937608
 20
182.615924
 30
0.0
 10
260.937608
 20
178.306156
 30
0.0
  0
LWPOLYLINE
  5
18c
100
AcDbEntity
  8
Layer_1
 62
1
100
AcDbPolyline
 90
2
 70
1
 10
260.937608
 20
255.689652
 30
0.0
 10
260.937608
 20
255.689652
 30
0.0
  0
SPLINE
  5
18d
100
AcDbEntity
  8
Layer_1
 62
1
100
AcDbSpline
 70
8
 71
3
 72
8
 73
4
 74
0
 40
0
 40
0
 40
0
 40
0
 40
1
 40
1
 40
1
 40
1
 10
260.937608
 20
115.758796
 30
0.0
 10
260.937608
 20
111.449028
 30
0.0
 10
259.217093
 20
107.315777
 30
0.0
 10
256.154556
 20
104.268311
 30
0.0
  0
SPLINE
  5
18e
100
AcDbEntity
  8
Layer_1
 62
1
100
AcDbSpline
 70
8
 71
3
 72
8
 73
4
 74
0
 40
0
 40
0
 40
0
 40
0
 40
1
 40
1
 40
1
 40
1
 10
256.154556
 20
104.268311
 30
0.0
 10
253.092020
 20
101.220844
 30
0.0
 10
248.938329
 20
99.508796
 30
0.0
 10
244.607248
 20
99.508796
 30
0.0
  0
SPLINE
  5
18f
100
AcDbEntity
  8
Layer_1
 62
1
100
AcDbSpline
 70
8
 71
3
 72
8
 73
4
 74
0
 40
0
 40
0
 40
0
 40
0
 40
1
 40
1
 40
1
 40
1
 10
244.607248
 20
99.508796
 30
0.0
 10
240.276167
 20
99.508796
 30
0.0
 10
236.122476
 20
101.220844
 30
0.0
 10
233.059940
 20
104.268311
 30
0.0
  0
SPLINE
  5
190
100
AcDbEntity
  8
Layer_1
 62
1
100
AcDbSpline
 70
8
 71
3
 72
8
 73
4
 74
0
 40
0
 40
0
 40
0
 40
0
 40
1
 40
1
 40
1
 40
1
 10
233.059940
 20
104.268311
 30
0.0
 10
229.997403
 20
107.315777
 30
0.0
 10
228.276888
 20
111.449028
 30
0.0
 10
228.276888
 20
115.758796
 30
0.0
  0
SPLINE
  5
191
100
AcDbEntity
  8
Layer_1
 62
1
100
AcDbSpline
 70
8
 71
3
 72
8
 73
4
 74
0
 40
0
 40
0
 40
0
 40
0
 40
1
 40
1
 40
1
 40
1
 10
228.276888
 20
115.758796
 30
0.0
 10
228.276888
 20
120.068564
 30
0.0
 10
229.997403
 20
124.201815
 30
0.0
 10
233.059940
 20
127.249281
 30
0.0
  0
SPLINE
  5
192
100
AcDbEntity
  8
Layer_1
 62
1
100
AcDbSpline
 70
8
 71
3
 72
8
 73
4
 74
0
 40
0
 40
0
 40
0
 40
0
 40
1
 40
1
 40
1
 40
1
 10
233.059940
 20
127.249281
 30
0.0
 10
236.122476
 20
130.296748
 30
0.0
 10
240.276167
 20
132.008796
 30
0.0
 10
244.607248
 20
132.008796
 30
0.0
  0
SPLINE
  5
193
100
AcDbEntity
  8
Layer_1
 62
1
100
AcDbSpline
 70
8
 71
3
 72
8
 73
4
 74
0
 40
0
 40
0
 40
0
 40
0
 40
1
 40
1
 40
1
 40
1
 10
244.607248
 20
132.008796
 30
0.0
 10
248.938329
 20
132.008796
 30
0.0
 10
253.092020
 20
130.296748
 30
0.0
 10
256.154556
 20
127.249281
 30
0.0
  0
SPLINE
  5
194
100
AcDbEntity
  8
Layer_1
 62
1
100
AcDbSpline
 70
8
 71
3
 72
8
 73
4
 74
0
 40
0
 40
0
 40
0
 40
0
 40
1
 40
1
 40
1
 40
1
 10
256.154556
 20
127.249281
 30
0.0
 10
259.217093
 20
124.201815
 30
0.0
 10
260.937608
 20
120.068564
 30
0.0
 10
260.937608
 20
115.758796
 30
0.0
  0
LWPOLYLINE
  5
195
100
AcDbEntity
  8
Layer_1
 62
1
100
AcDbPolyline
 90
2
 70
1
 10
260.937608
 20
178.306156
 30
0.0
 10
260.937608
 20
178.306156
 30
0.0
  0
SPLINE
  5
196
100
AcDbEntity
  8
Layer_1
 62
1
100
AcDbSpline
 70
8
 71
3
 72
8
 73
4
 74
0
 40
0
 40
0
 40
0
 40
0
 40
1
 40
1
 40
1
 40
1
 10
260.937608
 20
37.978324
 30
0.0
 10
260.937608
 20
33.668556
 30
0.0
 10
259.217093
 20
29.535305
 30
0.0
 10
256.154556
 20
26.487839
 30
0.0
  0
SPLINE
  5
197
100
AcDbEntity
  8
Layer_1
 62
1
100
AcDbSpline
 70
8
 71
3
 72
8
 73
4
 74
0
 40
0
 40
0
 40
0
 40
0
 40
1
 40
1
 40
1
 40
1
 10
256.154556
 20
26.487839
 30
0.0
 10
253.092020
 20
23.440372
 30
0.0
 10
248.938329
 20
21.728324
 30
0.0
 10
244.607248
 20
21.728324
 30
0.0
  0
SPLINE
  5
198
100
AcDbEntity
  8
Layer_1
 62
1
100
AcDbSpline
 70
8
 71
3
 72
8
 73
4
 74
0
 40
0
 40
0
 40
0
 40
0
 40
1
 40
1
 40
1
 40
1
 10
244.607248
 20
21.728324
 30
0.0
 10
240.276167
 20
21.728324
 30
0.0
 10
236.122476
 20
23.440372
 30
0.0
 10
233.059940
 20
26.487839
 30
0.0
  0
SPLINE
  5
199
100
AcDbEntity
  8
Layer_1
 62
1
100
AcDbSpline
 70
8
 71
3
 72
8
 73
4
 74
0
 40
0
 40
0
 40
0
 40
0
 40
1
 40
1
 40
1
 40
1
 10
233.059940
 20
26.487839
 30
0.0
 10
229.997403
 20
29.535305
 30
0.0
 10
228.276888
 20
33.668556
 30
0.0
 10
228.276888
 20
37.978324
 30
0.0
  0
SPLINE
  5
19a
100
AcDbEntity
  8
Layer_1
 62
1
100
AcDbSpline
 70
8
 71
3
 72
8
 73
4
 74
0
 40
0
 40
0
 40
0
 40
0
 40
1
 40
1
 40
1
 40
1
 10
228.276888
 20
37.978324
 30
0.0
 10
228.276888
 20
42.288092
 30
0.0
 10
229.997403
 20
46.421343
 30
0.0
 10
233.059940
 20
49.468809
 30
0.0
  0
SPLINE
  5
19b
100
AcDbEntity
  8
Layer_1
 62
1
100
AcDbSpline
 70
8
 71
3
 72
8
 73
4
 74
0
 40
0
 40
0
 40
0
 40
0
 40
1
 40
1
 40
1
 40
1
 10
233.059940
 20
49.468809
 30
0.0
 10
236.122476
 20
52.516276
 30
0.0
 10
240.276167
 20
54.228324
 30
0.0
 10
244.607248
 20
54.228324
 30
0.0
  0
SPLINE
  5
19c
100
AcDbEntity
  8
Layer_1
 62
1
100
AcDbSpline
 70
8
 71
3
 72
8
 73
4
 74
0
 40
0
 40
0
 40
0
 40
0
 40
1
 40
1
 40
1
 40
1
 10
244.607248
 20
54.228324
 30
0.0
 10
248.938329
 20
54.228324
 30
0.0
 10
253.092020
 20
52.516276
 30
0.0
 10
256.154556
 20
49.468809
 30
0.0
  0
SPLINE
  5
19d
100
AcDbEntity
  8
Layer_1
 62
1
100
AcDbSpline
 70
8
 71
3
 72
8
 73
4
 74
0
 40
0
 40
0
 40
0
 40
0
 40
1
 40
1
 40
1
 40
1
 10
256.154556
 20
49.468809
 30
0.0
 10
259.217093
 20
46.421343
 30
0.0
 10
260.937608
 20
42.288092
 30
0.0
 10
260.937608
 20
37.978324
 30
0.0
  0
LWPOLYLINE
  5
19e
100
AcDbEntity
  8
Layer_1
 62
1
100
AcDbPolyline
 90
2
 70
1
 10
260.937608
 20
115.758796
 30
0.0
 10
260.937608
 20
115.758796
 30
0.0
  0
SPLINE
  5
19f
100
AcDbEntity
  8
Layer_1
 62
1
100
AcDbSpline
 70
8
 71
3
 72
8
 73
4
 74
0
 40
0
 40
0
 40
0
 40
0
 40
1
 40
1
 40
1
 40
1
 10
316.509776
 20
574.347076
 30
0.0
 10
316.509776
 20
570.037308
 30
0.0
 10
314.789261
 20
565.904057
 30
0.0
 10
311.726724
 20
562.856591
 30
0.0
  0
SPLINE
  5
1a0
100
AcDbEntity
  8
Layer_1
 62
1
100
AcDbSpline
 70
8
 71
3
 72
8
 73
4
 74
0
 40
0
 40
0
 40
0
 40
0
 40
1
 40
1
 40
1
 40
1
 10
311.726724
 20
562.856591
 30
0.0
 10
308.664188
 20
559.809124
 30
0.0
 10
304.510497
 20
558.097076
 30
0.0
 10
300.179416
 20
558.097076
 30
0.0
  0
SPLINE
  5
1a1
100
AcDbEntity
  8
Layer_1
 62
1
100
AcDbSpline
 70
8
 71
3
 72
8
 73
4
 74
0
 40
0
 40
0
 40
0
 40
0
 40
1
 40
1
 40
1
 40
1
 10
300.179416
 20
558.097076
 30
0.0
 10
295.848335
 20
558.097076
 30
0.0
 10
291.694644
 20
559.809124
 30
0.0
 10
288.632108
 20
562.856591
 30
0.0
  0
SPLINE
  5
1a2
100
AcDbEntity
  8
Layer_1
 62
1
100
AcDbSpline
 70
8
 71
3
 72
8
 73
4
 74
0
 40
0
 40
0
 40
0
 40
0
 40
1
 40
1
 40
1
 40
1
 10
288.632108
 20
562.856591
 30
0.0
 10
285.569571
 20
565.904057
 30
0.0
 10
283.849056
 20
570.037308
 30
0.0
 10
283.849056
 20
574.347076
 30
0.0
  0
SPLINE
  5
1a3
100
AcDbEntity
  8
Layer_1
 62
1
100
AcDbSpline
 70
8
 71
3
 72
8
 73
4
 74
0
 40
0
 40
0
 40
0
 40
0
 40
1
 40
1
 40
1
 40
1
 10
283.849056
 20
574.347076
 30
0.0
 10
283.849056
 20
578.656844
 30
0.0
 10
285.569571
 20
582.790095
 30
0.0
 10
288.632108
 20
585.837561
 30
0.0
  0
SPLINE
  5
1a4
100
AcDbEntity
  8
Layer_1
 62
1
100
AcDbSpline
 70
8
 71
3
 72
8
 73
4
 74
0
 40
0
 40
0
 40
0
 40
0
 40
1
 40
1
 40
1
 40
1
 10
288.632108
 20
585.837561
 30
0.0
 10
291.694644
 20
588.885028
 30
0.0
 10
295.848335
 20
590.597076
 30
0.0
 10
300.179416
 20
590.597076
 30
0.0
  0
SPLINE
  5
1a5
100
AcDbEntity
  8
Layer_1
 62
1
100
AcDbSpline
 70
8
 71
3
 72
8
 73
4
 74
0
 40
0
 40
0
 40
0
 40
0
 40
1
 40
1
 40
1
 40
1
 10
300.179416
 20
590.597076
 30
0.0
 10
304.510497
 20
590.597076
 30
0.0
 10
308.664188
 20
588.885028
 30
0.0
 10
311.726724
 20
585.837561
 30
0.0
  0
SPLINE
  5
1a6
100
AcDbEntity
  8
Layer_1
 62
1
100
AcDbSpline
 70
8
 71
3
 72
8
 73
4
 74
0
 40
0
 40
0
 40
0
 40
0
 40
1
 40
1
 40
1
 40
1
 10
311.726724
 20
585.837561
 30
0.0
 10
314.789261
 20
582.790095
 30
0.0
 10
316.509776
 20
578.656844
 30
0.0
 10
316.509776
 20
574.347076
 30
0.0
  0
LWPOLYLINE
  5
1a7
100
AcDbEntity
  8
Layer_1
 62
1
100
AcDbPolyline
 90
2
 70
1
 10
260.937608
 20
37.978324
 30
0.0
 10
260.937608
 20
37.978324
 30
0.0
  0
SPLINE
  5
1a8
100
AcDbEntity
  8
Layer_1
 62
1
100
AcDbSpline
 70
8
 71
3
 72
8
 73
4
 74
0
 40
0
 40
0
 40
0
 40
0
 40
1
 40
1
 40
1
 40
1
 10
316.457600
 20
504.395220
 30
0.0
 10
316.457600
 20
500.085452
 30
0.0
 10
314.737085
 20
495.952201
 30
0.0
 10
311.674548
 20
492.904735
 30
0.0
  0
SPLINE
  5
1a9
100
AcDbEntity
  8
Layer_1
 62
1
100
AcDbSpline
 70
8
 71
3
 72
8
 73
4
 74
0
 40
0
 40
0
 40
0
 40
0
 40
1
 40
1
 40
1
 40
1
 10
311.674548
 20
492.904735
 30
0.0
 10
308.612012
 20
489.857268
 30
0.0
 10
304.458321
 20
488.145220
 30
0.0
 10
300.127240
 20
488.145220
 30
0.0
  0
SPLINE
  5
1aa
100
AcDbEntity
  8
Layer_1
 62
1
100
AcDbSpline
 70
8
 71
3
 72
8
 73
4
 74
0
 40
0
 40
0
 40
0
 40
0
 40
1
 40
1
 40
1
 40
1
 10
300.127240
 20
488.145220
 30
0.0
 10
291.108234
 20
488.145224
 30
0.0
 10
283.796888
 20
495.420596
 30
0.0
 10
283.796888
 20
504.395220
 30
0.0
  0
SPLINE
  5
1ab
100
AcDbEntity
  8
Layer_1
 62
1
100
AcDbSpline
 70
8
 71
3
 72
8
 73
4
 74
0
 40
0
 40
0
 40
0
 40
0
 40
1
 40
1
 40
1
 40
1
 10
283.796888
 20
504.395220
 30
0.0
 10
283.796888
 20
513.369844
 30
0.0
 10
291.108234
 20
520.645216
 30
0.0
 10
300.127240
 20
520.645220
 30
0.0
  0
SPLINE
  5
1ac
100
AcDbEntity
  8
Layer_1
 62
1
100
AcDbSpline
 70
8
 71
3
 72
8
 73
4
 74
0
 40
0
 40
0
 40
0
 40
0
 40
1
 40
1
 40
1
 40
1
 10
300.127240
 20
520.645220
 30
0.0
 10
304.458321
 20
520.645220
 30
0.0
 10
308.612012
 20
518.933172
 30
0.0
 10
311.674548
 20
515.885705
 30
0.0
  0
SPLINE
  5
1ad
100
AcDbEntity
  8
Layer_1
 62
1
100
AcDbSpline
 70
8
 71
3
 72
8
 73
4
 74
0
 40
0
 40
0
 40
0
 40
0
 40
1
 40
1
 40
1
 40
1
 10
311.674548
 20
515.885705
 30
0.0
 10
314.737085
 20
512.838239
 30
0.0
 10
316.457600
 20
508.704988
 30
0.0
 10
316.457600
 20
504.395220
 30
0.0
  0
LWPOLYLINE
  5
1ae
100
AcDbEntity
  8
Layer_1
 62
1
100
AcDbPolyline
 90
2
 70
1
 10
316.509776
 20
574.347076
 30
0.0
 10
316.509776
 20
574.347076
 30
0.0
  0
SPLINE
  5
1af
100
AcDbEntity
  8
Layer_1
 62
1
100
AcDbSpline
 70
8
 71
3
 72
8
 73
4
 74
0
 40
0
 40
0
 40
0
 40
0
 40
1
 40
1
 40
1
 40
1
 10
316.457600
 20
417.607236
 30
0.0
 10
316.457600
 20
413.297468
 30
0.0
 10
314.737085
 20
409.164217
 30
0.0
 10
311.674548
 20
406.116751
 30
0.0
  0
SPLINE
  5
1b0
100
AcDbEntity
  8
Layer_1
 62
1
100
AcDbSpline
 70
8
 71
3
 72
8
 73
4
 74
0
 40
0
 40
0
 40
0
 40
0
 40
1
 40
1
 40
1
 40
1
 10
311.674548
 20
406.116751
 30
0.0
 10
308.612012
 20
403.069284
 30
0.0
 10
304.458321
 20
401.357236
 30
0.0
 10
300.127240
 20
401.357236
 30
0.0
  0
SPLINE
  5
1b1
100
AcDbEntity
  8
Layer_1
 62
1
100
AcDbSpline
 70
8
 71
3
 72
8
 73
4
 74
0
 40
0
 40
0
 40
0
 40
0
 40
1
 40
1
 40
1
 40
1
 10
300.127240
 20
401.357236
 30
0.0
 10
291.108234
 20
401.357240
 30
0.0
 10
283.796888
 20
408.632612
 30
0.0
 10
283.796888
 20
417.607236
 30
0.0
  0
SPLINE
  5
1b2
100
AcDbEntity
  8
Layer_1
 62
1
100
AcDbSpline
 70
8
 71
3
 72
8
 73
4
 74
0
 40
0
 40
0
 40
0
 40
0
 40
1
 40
1
 40
1
 40
1
 10
283.796888
 20
417.607236
 30
0.0
 10
283.796888
 20
426.581860
 30
0.0
 10
291.108234
 20
433.857232
 30
0.0
 10
300.127240
 20
433.857236
 30
0.0
  0
SPLINE
  5
1b3
100
AcDbEntity
  8
Layer_1
 62
1
100
AcDbSpline
 70
8
 71
3
 72
8
 73
4
 74
0
 40
0
 40
0
 40
0
 40
0
 40
1
 40
1
 40
1
 40
1
 10
300.127240
 20
433.857236
 30
0.0
 10
304.458321
 20
433.857236
 30
0.0
 10
308.612012
 20
432.145188
 30
0.0
 10
311.674548
 20
429.097721
 30
0.0
  0
SPLINE
  5
1b4
100
AcDbEntity
  8
Layer_1
 62
1
100
AcDbSpline
 70
8
 71
3
 72
8
 73
4
 74
0
 40
0
 40
0
 40
0
 40
0
 40
1
 40
1
 40
1
 40
1
 10
311.674548
 20
429.097721
 30
0.0
 10
314.737085
 20
426.050255
 30
0.0
 10
316.457600
 20
421.917004
 30
0.0
 10
316.457600
 20
417.607236
 30
0.0
  0
LWPOLYLINE
  5
1b5
100
AcDbEntity
  8
Layer_1
 62
1
100
AcDbPolyline
 90
2
 70
1
 10
316.457600
 20
504.395220
 30
0.0
 10
316.457600
 20
504.395220
 30
0.0
  0
SPLINE
  5
1b6
100
AcDbEntity
  8
Layer_1
 62
1
100
AcDbSpline
 70
8
 71
3
 72
8
 73
4
 74
0
 40
0
 40
0
 40
0
 40
0
 40
1
 40
1
 40
1
 40
1
 10
316.457600
 20
349.059868
 30
0.0
 10
316.457600
 20
344.750100
 30
0.0
 10
314.737085
 20
340.616849
 30
0.0
 10
311.674548
 20
337.569383
 30
0.0
  0
SPLINE
  5
1b7
100
AcDbEntity
  8
Layer_1
 62
1
100
AcDbSpline
 70
8
 71
3
 72
8
 73
4
 74
0
 40
0
 40
0
 40
0
 40
0
 40
1
 40
1
 40
1
 40
1
 10
311.674548
 20
337.569383
 30
0.0
 10
308.612012
 20
334.521916
 30
0.0
 10
304.458321
 20
332.809868
 30
0.0
 10
300.127240
 20
332.809868
 30
0.0
  0
SPLINE
  5
1b8
100
AcDbEntity
  8
Layer_1
 62
1
100
AcDbSpline
 70
8
 71
3
 72
8
 73
4
 74
0
 40
0
 40
0
 40
0
 40
0
 40
1
 40
1
 40
1
 40
1
 10
300.127240
 20
332.809868
 30
0.0
 10
291.108234
 20
332.809872
 30
0.0
 10
283.796888
 20
340.085244
 30
0.0
 10
283.796888
 20
349.059868
 30
0.0
  0
SPLINE
  5
1b9
100
AcDbEntity
  8
Layer_1
 62
1
100
AcDbSpline
 70
8
 71
3
 72
8
 73
4
 74
0
 40
0
 40
0
 40
0
 40
0
 40
1
 40
1
 40
1
 40
1
 10
283.796888
 20
349.059868
 30
0.0
 10
283.796888
 20
358.034492
 30
0.0
 10
291.108234
 20
365.309864
 30
0.0
 10
300.127240
 20
365.309868
 30
0.0
  0
SPLINE
  5
1ba
100
AcDbEntity
  8
Layer_1
 62
1
100
AcDbSpline
 70
8
 71
3
 72
8
 73
4
 74
0
 40
0
 40
0
 40
0
 40
0
 40
1
 40
1
 40
1
 40
1
 10
300.127240
 20
365.309868
 30
0.0
 10
304.458321
 20
365.309868
 30
0.0
 10
308.612012
 20
363.597820
 30
0.0
 10
311.674548
 20
360.550353
 30
0.0
  0
SPLINE
  5
1bb
100
AcDbEntity
  8
Layer_1
 62
1
100
AcDbSpline
 70
8
 71
3
 72
8
 73
4
 74
0
 40
0
 40
0
 40
0
 40
0
 40
1
 40
1
 40
1
 40
1
 10
311.674548
 20
360.550353
 30
0.0
 10
314.737085
 20
357.502887
 30
0.0
 10
316.457600
 20
353.369636
 30
0.0
 10
316.457600
 20
349.059868
 30
0.0
  0
LWPOLYLINE
  5
1bc
100
AcDbEntity
  8
Layer_1
 62
1
100
AcDbPolyline
 90
2
 70
1
 10
316.457600
 20
417.607236
 30
0.0
 10
316.457600
 20
417.607236
 30
0.0
  0
SPLINE
  5
1bd
100
AcDbEntity
  8
Layer_1
 62
1
100
AcDbSpline
 70
8
 71
3
 72
8
 73
4
 74
0
 40
0
 40
0
 40
0
 40
0
 40
1
 40
1
 40
1
 40
1
 10
316.457600
 20
262.218516
 30
0.0
 10
316.457600
 20
257.908748
 30
0.0
 10
314.737085
 20
253.775497
 30
0.0
 10
311.674548
 20
250.728031
 30
0.0
  0
SPLINE
  5
1be
100
AcDbEntity
  8
Layer_1
 62
1
100
AcDbSpline
 70
8
 71
3
 72
8
 73
4
 74
0
 40
0
 40
0
 40
0
 40
0
 40
1
 40
1
 40
1
 40
1
 10
311.674548
 20
250.728031
 30
0.0
 10
308.612012
 20
247.680564
 30
0.0
 10
304.458321
 20
245.968516
 30
0.0
 10
300.127240
 20
245.968516
 30
0.0
  0
SPLINE
  5
1bf
100
AcDbEntity
  8
Layer_1
 62
1
100
AcDbSpline
 70
8
 71
3
 72
8
 73
4
 74
0
 40
0
 40
0
 40
0
 40
0
 40
1
 40
1
 40
1
 40
1
 10
300.127240
 20
245.968516
 30
0.0
 10
291.108234
 20
245.968520
 30
0.0
 10
283.796888
 20
253.243892
 30
0.0
 10
283.796888
 20
262.218516
 30
0.0
  0
SPLINE
  5
1c0
100
AcDbEntity
  8
Layer_1
 62
1
100
AcDbSpline
 70
8
 71
3
 72
8
 73
4
 74
0
 40
0
 40
0
 40
0
 40
0
 40
1
 40
1
 40
1
 40
1
 10
283.796888
 20
262.218516
 30
0.0
 10
283.796888
 20
271.193140
 30
0.0
 10
291.108234
 20
278.468512
 30
0.0
 10
300.127240
 20
278.468516
 30
0.0
  0
SPLINE
  5
1c1
100
AcDbEntity
  8
Layer_1
 62
1
100
AcDbSpline
 70
8
 71
3
 72
8
 73
4
 74
0
 40
0
 40
0
 40
0
 40
0
 40
1
 40
1
 40
1
 40
1
 10
300.127240
 20
278.468516
 30
0.0
 10
304.458321
 20
278.468516
 30
0.0
 10
308.612012
 20
276.756468
 30
0.0
 10
311.674548
 20
273.709001
 30
0.0
  0
SPLINE
  5
1c2
100
AcDbEntity
  8
Layer_1
 62
1
100
AcDbSpline
 70
8
 71
3
 72
8
 73
4
 74
0
 40
0
 40
0
 40
0
 40
0
 40
1
 40
1
 40
1
 40
1
 10
311.674548
 20
273.709001
 30
0.0
 10
314.737085
 20
270.661535
 30
0.0
 10
316.457600
 20
266.528284
 30
0.0
 10
316.457600
 20
262.218516
 30
0.0
  0
LWPOLYLINE
  5
1c3
100
AcDbEntity
  8
Layer_1
 62
1
100
AcDbPolyline
 90
2
 70
1
 10
316.457600
 20
349.059868
 30
0.0
 10
316.457600
 20
349.059868
 30
0.0
  0
SPLINE
  5
1c4
100
AcDbEntity
  8
Layer_1
 62
1
100
AcDbSpline
 70
8
 71
3
 72
8
 73
4
 74
0
 40
0
 40
0
 40
0
 40
0
 40
1
 40
1
 40
1
 40
1
 10
316.457600
 20
194.871148
 30
0.0
 10
316.457600
 20
190.561380
 30
0.0
 10
314.737085
 20
186.428129
 30
0.0
 10
311.674548
 20
183.380663
 30
0.0
  0
SPLINE
  5
1c5
100
AcDbEntity
  8
Layer_1
 62
1
100
AcDbSpline
 70
8
 71
3
 72
8
 73
4
 74
0
 40
0
 40
0
 40
0
 40
0
 40
1
 40
1
 40
1
 40
1
 10
311.674548
 20
183.380663
 30
0.0
 10
308.612012
 20
180.333196
 30
0.0
 10
304.458321
 20
178.621148
 30
0.0
 10
300.127240
 20
178.621148
 30
0.0
  0
SPLINE
  5
1c6
100
AcDbEntity
  8
Layer_1
 62
1
100
AcDbSpline
 70
8
 71
3
 72
8
 73
4
 74
0
 40
0
 40
0
 40
0
 40
0
 40
1
 40
1
 40
1
 40
1
 10
300.127240
 20
178.621148
 30
0.0
 10
291.108234
 20
178.621152
 30
0.0
 10
283.796888
 20
185.896524
 30
0.0
 10
283.796888
 20
194.871148
 30
0.0
  0
SPLINE
  5
1c7
100
AcDbEntity
  8
Layer_1
 62
1
100
AcDbSpline
 70
8
 71
3
 72
8
 73
4
 74
0
 40
0
 40
0
 40
0
 40
0
 40
1
 40
1
 40
1
 40
1
 10
283.796888
 20
194.871148
 30
0.0
 10
283.796888
 20
203.845772
 30
0.0
 10
291.108234
 20
211.121144
 30
0.0
 10
300.127240
 20
211.121148
 30
0.0
  0
SPLINE
  5
1c8
100
AcDbEntity
  8
Layer_1
 62
1
100
AcDbSpline
 70
8
 71
3
 72
8
 73
4
 74
0
 40
0
 40
0
 40
0
 40
0
 40
1
 40
1
 40
1
 40
1
 10
300.127240
 20
211.121148
 30
0.0
 10
304.458321
 20
211.121148
 30
0.0
 10
308.612012
 20
209.409100
 30
0.0
 10
311.674548
 20
206.361633
 30
0.0
  0
SPLINE
  5
1c9
100
AcDbEntity
  8
Layer_1
 62
1
100
AcDbSpline
 70
8
 71
3
 72
8
 73
4
 74
0
 40
0
 40
0
 40
0
 40
0
 40
1
 40
1
 40
1
 40
1
 10
311.674548
 20
206.361633
 30
0.0
 10
314.737085
 20
203.314167
 30
0.0
 10
316.457600
 20
199.180916
 30
0.0
 10
316.457600
 20
194.871148
 30
0.0
  0
LWPOLYLINE
  5
1ca
100
AcDbEntity
  8
Layer_1
 62
1
100
AcDbPolyline
 90
2
 70
1
 10
316.457600
 20
262.218516
 30
0.0
 10
316.457600
 20
262.218516
 30
0.0
  0
SPLINE
  5
1cb
100
AcDbEntity
  8
Layer_1
 62
1
100
AcDbSpline
 70
8
 71
3
 72
8
 73
4
 74
0
 40
0
 40
0
 40
0
 40
0
 40
1
 40
1
 40
1
 40
1
 10
316.457600
 20
109.487652
 30
0.0
 10
316.457600
 20
105.177884
 30
0.0
 10
314.737085
 20
101.044633
 30
0.0
 10
311.674548
 20
97.997167
 30
0.0
  0
SPLINE
  5
1cc
100
AcDbEntity
  8
Layer_1
 62
1
100
AcDbSpline
 70
8
 71
3
 72
8
 73
4
 74
0
 40
0
 40
0
 40
0
 40
0
 40
1
 40
1
 40
1
 40
1
 10
311.674548
 20
97.997167
 30
0.0
 10
308.612012
 20
94.949700
 30
0.0
 10
304.458321
 20
93.237652
 30
0.0
 10
300.127240
 20
93.237652
 30
0.0
  0
SPLINE
  5
1cd
100
AcDbEntity
  8
Layer_1
 62
1
100
AcDbSpline
 70
8
 71
3
 72
8
 73
4
 74
0
 40
0
 40
0
 40
0
 40
0
 40
1
 40
1
 40
1
 40
1
 10
300.127240
 20
93.237652
 30
0.0
 10
291.108234
 20
93.237656
 30
0.0
 10
283.796888
 20
100.513028
 30
0.0
 10
283.796888
 20
109.487652
 30
0.0
  0
SPLINE
  5
1ce
100
AcDbEntity
  8
Layer_1
 62
1
100
AcDbSpline
 70
8
 71
3
 72
8
 73
4
 74
0
 40
0
 40
0
 40
0
 40
0
 40
1
 40
1
 40
1
 40
1
 10
283.796888
 20
109.487652
 30
0.0
 10
283.796888
 20
118.462276
 30
0.0
 10
291.108234
 20
125.737648
 30
0.0
 10
300.127240
 20
125.737652
 30
0.0
  0
SPLINE
  5
1cf
100
AcDbEntity
  8
Layer_1
 62
1
100
AcDbSpline
 70
8
 71
3
 72
8
 73
4
 74
0
 40
0
 40
0
 40
0
 40
0
 40
1
 40
1
 40
1
 40
1
 10
300.127240
 20
125.737652
 30
0.0
 10
304.458321
 20
125.737652
 30
0.0
 10
308.612012
 20
124.025604
 30
0.0
 10
311.674548
 20
120.978137
 30
0.0
  0
SPLINE
  5
1d0
100
AcDbEntity
  8
Layer_1
 62
1
100
AcDbSpline
 70
8
 71
3
 72
8
 73
4
 74
0
 40
0
 40
0
 40
0
 40
0
 40
1
 40
1
 40
1
 40
1
 10
311.674548
 20
120.978137
 30
0.0
 10
314.737085
 20
117.930671
 30
0.0
 10
316.457600
 20
113.797420
 30
0.0
 10
316.457600
 20
109.487652
 30
0.0
  0
LWPOLYLINE
  5
1d1
100
AcDbEntity
  8
Layer_1
 62
1
100
AcDbPolyline
 90
2
 70
1
 10
316.457600
 20
194.871148
 30
0.0
 10
316.457600
 20
194.871148
 30
0.0
  0
SPLINE
  5
1d2
100
AcDbEntity
  8
Layer_1
 62
1
100
AcDbSpline
 70
8
 71
3
 72
8
 73
4
 74
0
 40
0
 40
0
 40
0
 40
0
 40
1
 40
1
 40
1
 40
1
 10
316.457600
 20
43.740292
 30
0.0
 10
316.457582
 20
34.765677
 30
0.0
 10
309.146236
 20
27.490324
 30
0.0
 10
300.127240
 20
27.490324
 30
0.0
  0
SPLINE
  5
1d3
100
AcDbEntity
  8
Layer_1
 62
1
100
AcDbSpline
 70
8
 71
3
 72
8
 73
4
 74
0
 40
0
 40
0
 40
0
 40
0
 40
1
 40
1
 40
1
 40
1
 10
300.127240
 20
27.490324
 30
0.0
 10
291.108247
 20
27.490328
 30
0.0
 10
283.796906
 20
34.765680
 30
0.0
 10
283.796888
 20
43.740292
 30
0.0
  0
SPLINE
  5
1d4
100
AcDbEntity
  8
Layer_1
 62
1
100
AcDbSpline
 70
8
 71
3
 72
8
 73
4
 74
0
 40
0
 40
0
 40
0
 40
0
 40
1
 40
1
 40
1
 40
1
 10
283.796888
 20
43.740292
 30
0.0
 10
283.796888
 20
52.714916
 30
0.0
 10
291.108234
 20
59.990288
 30
0.0
 10
300.127240
 20
59.990292
 30
0.0
  0
SPLINE
  5
1d5
100
AcDbEntity
  8
Layer_1
 62
1
100
AcDbSpline
 70
8
 71
3
 72
8
 73
4
 74
0
 40
0
 40
0
 40
0
 40
0
 40
1
 40
1
 40
1
 40
1
 10
300.127240
 20
59.990292
 30
0.0
 10
304.458321
 20
59.990292
 30
0.0
 10
308.612012
 20
58.278244
 30
0.0
 10
311.674548
 20
55.230777
 30
0.0
  0
SPLINE
  5
1d6
100
AcDbEntity
  8
Layer_1
 62
1
100
AcDbSpline
 70
8
 71
3
 72
8
 73
4
 74
0
 40
0
 40
0
 40
0
 40
0
 40
1
 40
1
 40
1
 40
1
 10
311.674548
 20
55.230777
 30
0.0
 10
314.737085
 20
52.183311
 30
0.0
 10
316.457600
 20
48.050060
 30
0.0
 10
316.457600
 20
43.740292
 30
0.0
  0
LWPOLYLINE
  5
1d7
100
AcDbEntity
  8
Layer_1
 62
1
100
AcDbPolyline
 90
2
 70
1
 10
316.457600
 20
109.487652
 30
0.0
 10
316.457600
 20
109.487652
 30
0.0
  0
SPLINE
  5
1d8
100
AcDbEntity
  8
Layer_1
 62
1
100
AcDbSpline
 70
8
 71
3
 72
8
 73
4
 74
0
 40
0
 40
0
 40
0
 40
0
 40
1
 40
1
 40
1
 40
1
 10
371.737608
 20
692.107076
 30
0.0
 10
371.737608
 20
687.797308
 30
0.0
 10
370.017093
 20
683.664057
 30
0.0
 10
366.954556
 20
680.616591
 30
0.0
  0
SPLINE
  5
1d9
100
AcDbEntity
  8
Layer_1
 62
1
100
AcDbSpline
 70
8
 71
3
 72
8
 73
4
 74
0
 40
0
 40
0
 40
0
 40
0
 40
1
 40
1
 40
1
 40
1
 10
366.954556
 20
680.616591
 30
0.0
 10
363.892020
 20
677.569124
 30
0.0
 10
359.738329
 20
675.857076
 30
0.0
 10
355.407248
 20
675.857076
 30
0.0
  0
SPLINE
  5
1da
100
AcDbEntity
  8
Layer_1
 62
1
100
AcDbSpline
 70
8
 71
3
 72
8
 73
4
 74
0
 40
0
 40
0
 40
0
 40
0
 40
1
 40
1
 40
1
 40
1
 10
355.407248
 20
675.857076
 30
0.0
 10
351.076167
 20
675.857076
 30
0.0
 10
346.922476
 20
677.569124
 30
0.0
 10
343.859940
 20
680.616591
 30
0.0
  0
SPLINE
  5
1db
100
AcDbEntity
  8
Layer_1
 62
1
100
AcDbSpline
 70
8
 71
3
 72
8
 73
4
 74
0
 40
0
 40
0
 40
0
 40
0
 40
1
 40
1
 40
1
 40
1
 10
343.859940
 20
680.616591
 30
0.0
 10
340.797403
 20
683.664057
 30
0.0
 10
339.076888
 20
687.797308
 30
0.0
 10
339.076888
 20
692.107076
 30
0.0
  0
SPLINE
  5
1dc
100
AcDbEntity
  8
Layer_1
 62
1
100
AcDbSpline
 70
8
 71
3
 72
8
 73
4
 74
0
 40
0
 40
0
 40
0
 40
0
 40
1
 40
1
 40
1
 40
1
 10
339.076888
 20
692.107076
 30
0.0
 10
339.076888
 20
696.416844
 30
0.0
 10
340.797403
 20
700.550095
 30
0.0
 10
343.859940
 20
703.597561
 30
0.0
  0
SPLINE
  5
1dd
100
AcDbEntity
  8
Layer_1
 62
1
100
AcDbSpline
 70
8
 71
3
 72
8
 73
4
 74
0
 40
0
 40
0
 40
0
 40
0
 40
1
 40
1
 40
1
 40
1
 10
343.859940
 20
703.597561
 30
0.0
 10
346.922476
 20
706.645028
 30
0.0
 10
351.076167
 20
708.357076
 30
0.0
 10
355.407248
 20
708.357076
 30
0.0
  0
SPLINE
  5
1de
100
AcDbEntity
  8
Layer_1
 62
1
100
AcDbSpline
 70
8
 71
3
 72
8
 73
4
 74
0
 40
0
 40
0
 40
0
 40
0
 40
1
 40
1
 40
1
 40
1
 10
355.407248
 20
708.357076
 30
0.0
 10
359.738329
 20
708.357076
 30
0.0
 10
363.892020
 20
706.645028
 30
0.0
 10
366.954556
 20
703.597561
 30
0.0
  0
SPLINE
  5
1df
100
AcDbEntity
  8
Layer_1
 62
1
100
AcDbSpline
 70
8
 71
3
 72
8
 73
4
 74
0
 40
0
 40
0
 40
0
 40
0
 40
1
 40
1
 40
1
 40
1
 10
366.954556
 20
703.597561
 30
0.0
 10
370.017093
 20
700.550095
 30
0.0
 10
371.737608
 20
696.416844
 30
0.0
 10
371.737608
 20
692.107076
 30
0.0
  0
LWPOLYLINE
  5
1e0
100
AcDbEntity
  8
Layer_1
 62
1
100
AcDbPolyline
 90
2
 70
1
 10
316.457600
 20
43.740292
 30
0.0
 10
316.457600
 20
43.740292
 30
0.0
  0
SPLINE
  5
1e1
100
AcDbEntity
  8
Layer_1
 62
1
100
AcDbSpline
 70
8
 71
3
 72
8
 73
4
 74
0
 40
0
 40
0
 40
0
 40
0
 40
1
 40
1
 40
1
 40
1
 10
371.737608
 20
599.755228
 30
0.0
 10
371.737608
 20
595.445460
 30
0.0
 10
370.017093
 20
591.312209
 30
0.0
 10
366.954556
 20
588.264743
 30
0.0
  0
SPLINE
  5
1e2
100
AcDbEntity
  8
Layer_1
 62
1
100
AcDbSpline
 70
8
 71
3
 72
8
 73
4
 74
0
 40
0
 40
0
 40
0
 40
0
 40
1
 40
1
 40
1
 40
1
 10
366.954556
 20
588.264743
 30
0.0
 10
363.892020
 20
585.217276
 30
0.0
 10
359.738329
 20
583.505228
 30
0.0
 10
355.407248
 20
583.505228
 30
0.0
  0
SPLINE
  5
1e3
100
AcDbEntity
  8
Layer_1
 62
1
100
AcDbSpline
 70
8
 71
3
 72
8
 73
4
 74
0
 40
0
 40
0
 40
0
 40
0
 40
1
 40
1
 40
1
 40
1
 10
355.407248
 20
583.505228
 30
0.0
 10
351.076167
 20
583.505228
 30
0.0
 10
346.922476
 20
585.217276
 30
0.0
 10
343.859940
 20
588.264743
 30
0.0
  0
SPLINE
  5
1e4
100
AcDbEntity
  8
Layer_1
 62
1
100
AcDbSpline
 70
8
 71
3
 72
8
 73
4
 74
0
 40
0
 40
0
 40
0
 40
0
 40
1
 40
1
 40
1
 40
1
 10
343.859940
 20
588.264743
 30
0.0
 10
340.797403
 20
591.312209
 30
0.0
 10
339.076888
 20
595.445460
 30
0.0
 10
339.076888
 20
599.755228
 30
0.0
  0
SPLINE
  5
1e5
100
AcDbEntity
  8
Layer_1
 62
1
100
AcDbSpline
 70
8
 71
3
 72
8
 73
4
 74
0
 40
0
 40
0
 40
0
 40
0
 40
1
 40
1
 40
1
 40
1
 10
339.076888
 20
599.755228
 30
0.0
 10
339.076888
 20
604.064996
 30
0.0
 10
340.797403
 20
608.198247
 30
0.0
 10
343.859940
 20
611.245713
 30
0.0
  0
SPLINE
  5
1e6
100
AcDbEntity
  8
Layer_1
 62
1
100
AcDbSpline
 70
8
 71
3
 72
8
 73
4
 74
0
 40
0
 40
0
 40
0
 40
0
 40
1
 40
1
 40
1
 40
1
 10
343.859940
 20
611.245713
 30
0.0
 10
346.922476
 20
614.293180
 30
0.0
 10
351.076167
 20
616.005228
 30
0.0
 10
355.407248
 20
616.005228
 30
0.0
  0
SPLINE
  5
1e7
100
AcDbEntity
  8
Layer_1
 62
1
100
AcDbSpline
 70
8
 71
3
 72
8
 73
4
 74
0
 40
0
 40
0
 40
0
 40
0
 40
1
 40
1
 40
1
 40
1
 10
355.407248
 20
616.005228
 30
0.0
 10
359.738329
 20
616.005228
 30
0.0
 10
363.892020
 20
614.293180
 30
0.0
 10
366.954556
 20
611.245713
 30
0.0
  0
SPLINE
  5
1e8
100
AcDbEntity
  8
Layer_1
 62
1
100
AcDbSpline
 70
8
 71
3
 72
8
 73
4
 74
0
 40
0
 40
0
 40
0
 40
0
 40
1
 40
1
 40
1
 40
1
 10
366.954556
 20
611.245713
 30
0.0
 10
370.017093
 20
608.198247
 30
0.0
 10
371.737608
 20
604.064996
 30
0.0
 10
371.737608
 20
599.755228
 30
0.0
  0
LWPOLYLINE
  5
1e9
100
AcDbEntity
  8
Layer_1
 62
1
100
AcDbPolyline
 90
2
 70
1
 10
371.737608
 20
692.107076
 30
0.0
 10
371.737608
 20
692.107076
 30
0.0
  0
SPLINE
  5
1ea
100
AcDbEntity
  8
Layer_1
 62
1
100
AcDbSpline
 70
8
 71
3
 72
8
 73
4
 74
0
 40
0
 40
0
 40
0
 40
0
 40
1
 40
1
 40
1
 40
1
 10
371.737608
 20
526.967244
 30
0.0
 10
371.737608
 20
522.657476
 30
0.0
 10
370.017093
 20
518.524225
 30
0.0
 10
366.954556
 20
515.476759
 30
0.0
  0
SPLINE
  5
1eb
100
AcDbEntity
  8
Layer_1
 62
1
100
AcDbSpline
 70
8
 71
3
 72
8
 73
4
 74
0
 40
0
 40
0
 40
0
 40
0
 40
1
 40
1
 40
1
 40
1
 10
366.954556
 20
515.476759
 30
0.0
 10
363.892020
 20
512.429292
 30
0.0
 10
359.738329
 20
510.717244
 30
0.0
 10
355.407248
 20
510.717244
 30
0.0
  0
SPLINE
  5
1ec
100
AcDbEntity
  8
Layer_1
 62
1
100
AcDbSpline
 70
8
 71
3
 72
8
 73
4
 74
0
 40
0
 40
0
 40
0
 40
0
 40
1
 40
1
 40
1
 40
1
 10
355.407248
 20
510.717244
 30
0.0
 10
351.076167
 20
510.717244
 30
0.0
 10
346.922476
 20
512.429292
 30
0.0
 10
343.859940
 20
515.476759
 30
0.0
  0
SPLINE
  5
1ed
100
AcDbEntity
  8
Layer_1
 62
1
100
AcDbSpline
 70
8
 71
3
 72
8
 73
4
 74
0
 40
0
 40
0
 40
0
 40
0
 40
1
 40
1
 40
1
 40
1
 10
343.859940
 20
515.476759
 30
0.0
 10
340.797403
 20
518.524225
 30
0.0
 10
339.076888
 20
522.657476
 30
0.0
 10
339.076888
 20
526.967244
 30
0.0
  0
SPLINE
  5
1ee
100
AcDbEntity
  8
Layer_1
 62
1
100
AcDbSpline
 70
8
 71
3
 72
8
 73
4
 74
0
 40
0
 40
0
 40
0
 40
0
 40
1
 40
1
 40
1
 40
1
 10
339.076888
 20
526.967244
 30
0.0
 10
339.076888
 20
531.277012
 30
0.0
 10
340.797403
 20
535.410263
 30
0.0
 10
343.859940
 20
538.457729
 30
0.0
  0
SPLINE
  5
1ef
100
AcDbEntity
  8
Layer_1
 62
1
100
AcDbSpline
 70
8
 71
3
 72
8
 73
4
 74
0
 40
0
 40
0
 40
0
 40
0
 40
1
 40
1
 40
1
 40
1
 10
343.859940
 20
538.457729
 30
0.0
 10
346.922476
 20
541.505196
 30
0.0
 10
351.076167
 20
543.217244
 30
0.0
 10
355.407248
 20
543.217244
 30
0.0
  0
SPLINE
  5
1f0
100
AcDbEntity
  8
Layer_1
 62
1
100
AcDbSpline
 70
8
 71
3
 72
8
 73
4
 74
0
 40
0
 40
0
 40
0
 40
0
 40
1
 40
1
 40
1
 40
1
 10
355.407248
 20
543.217244
 30
0.0
 10
359.738329
 20
543.217244
 30
0.0
 10
363.892020
 20
541.505196
 30
0.0
 10
366.954556
 20
538.457729
 30
0.0
  0
SPLINE
  5
1f1
100
AcDbEntity
  8
Layer_1
 62
1
100
AcDbSpline
 70
8
 71
3
 72
8
 73
4
 74
0
 40
0
 40
0
 40
0
 40
0
 40
1
 40
1
 40
1
 40
1
 10
366.954556
 20
538.457729
 30
0.0
 10
370.017093
 20
535.410263
 30
0.0
 10
371.737608
 20
531.277012
 30
0.0
 10
371.737608
 20
526.967244
 30
0.0
  0
LWPOLYLINE
  5
1f2
100
AcDbEntity
  8
Layer_1
 62
1
100
AcDbPolyline
 90
2
 70
1
 10
371.737608
 20
599.755228
 30
0.0
 10
371.737608
 20
599.755228
 30
0.0
  0
SPLINE
  5
1f3
100
AcDbEntity
  8
Layer_1
 62
1
100
AcDbSpline
 70
8
 71
3
 72
8
 73
4
 74
0
 40
0
 40
0
 40
0
 40
0
 40
1
 40
1
 40
1
 40
1
 10
371.737608
 20
435.219876
 30
0.0
 10
371.737608
 20
430.910108
 30
0.0
 10
370.017093
 20
426.776857
 30
0.0
 10
366.954556
 20
423.729391
 30
0.0
  0
SPLINE
  5
1f4
100
AcDbEntity
  8
Layer_1
 62
1
100
AcDbSpline
 70
8
 71
3
 72
8
 73
4
 74
0
 40
0
 40
0
 40
0
 40
0
 40
1
 40
1
 40
1
 40
1
 10
366.954556
 20
423.729391
 30
0.0
 10
363.892020
 20
420.681924
 30
0.0
 10
359.738329
 20
418.969876
 30
0.0
 10
355.407248
 20
418.969876
 30
0.0
  0
SPLINE
  5
1f5
100
AcDbEntity
  8
Layer_1
 62
1
100
AcDbSpline
 70
8
 71
3
 72
8
 73
4
 74
0
 40
0
 40
0
 40
0
 40
0
 40
1
 40
1
 40
1
 40
1
 10
355.407248
 20
418.969876
 30
0.0
 10
351.076167
 20
418.969876
 30
0.0
 10
346.922476
 20
420.681924
 30
0.0
 10
343.859940
 20
423.729391
 30
0.0
  0
SPLINE
  5
1f6
100
AcDbEntity
  8
Layer_1
 62
1
100
AcDbSpline
 70
8
 71
3
 72
8
 73
4
 74
0
 40
0
 40
0
 40
0
 40
0
 40
1
 40
1
 40
1
 40
1
 10
343.859940
 20
423.729391
 30
0.0
 10
340.797403
 20
426.776857
 30
0.0
 10
339.076888
 20
430.910108
 30
0.0
 10
339.076888
 20
435.219876
 30
0.0
  0
SPLINE
  5
1f7
100
AcDbEntity
  8
Layer_1
 62
1
100
AcDbSpline
 70
8
 71
3
 72
8
 73
4
 74
0
 40
0
 40
0
 40
0
 40
0
 40
1
 40
1
 40
1
 40
1
 10
339.076888
 20
435.219876
 30
0.0
 10
339.076888
 20
439.529644
 30
0.0
 10
340.797403
 20
443.662895
 30
0.0
 10
343.859940
 20
446.710361
 30
0.0
  0
SPLINE
  5
1f8
100
AcDbEntity
  8
Layer_1
 62
1
100
AcDbSpline
 70
8
 71
3
 72
8
 73
4
 74
0
 40
0
 40
0
 40
0
 40
0
 40
1
 40
1
 40
1
 40
1
 10
343.859940
 20
446.710361
 30
0.0
 10
346.922476
 20
449.757828
 30
0.0
 10
351.076167
 20
451.469876
 30
0.0
 10
355.407248
 20
451.469876
 30
0.0
  0
SPLINE
  5
1f9
100
AcDbEntity
  8
Layer_1
 62
1
100
AcDbSpline
 70
8
 71
3
 72
8
 73
4
 74
0
 40
0
 40
0
 40
0
 40
0
 40
1
 40
1
 40
1
 40
1
 10
355.407248
 20
451.469876
 30
0.0
 10
359.738329
 20
451.469876
 30
0.0
 10
363.892020
 20
449.757828
 30
0.0
 10
366.954556
 20
446.710361
 30
0.0
  0
SPLINE
  5
1fa
100
AcDbEntity
  8
Layer_1
 62
1
100
AcDbSpline
 70
8
 71
3
 72
8
 73
4
 74
0
 40
0
 40
0
 40
0
 40
0
 40
1
 40
1
 40
1
 40
1
 10
366.954556
 20
446.710361
 30
0.0
 10
370.017093
 20
443.662895
 30
0.0
 10
371.737608
 20
439.529644
 30
0.0
 10
371.737608
 20
435.219876
 30
0.0
  0
LWPOLYLINE
  5
1fb
100
AcDbEntity
  8
Layer_1
 62
1
100
AcDbPolyline
 90
2
 70
1
 10
371.737608
 20
526.967244
 30
0.0
 10
371.737608
 20
526.967244
 30
0.0
  0
SPLINE
  5
1fc
100
AcDbEntity
  8
Layer_1
 62
1
100
AcDbSpline
 70
8
 71
3
 72
8
 73
4
 74
0
 40
0
 40
0
 40
0
 40
0
 40
1
 40
1
 40
1
 40
1
 10
371.737608
 20
363.178524
 30
0.0
 10
371.737608
 20
358.868756
 30
0.0
 10
370.017093
 20
354.735505
 30
0.0
 10
366.954556
 20
351.688039
 30
0.0
  0
SPLINE
  5
1fd
100
AcDbEntity
  8
Layer_1
 62
1
100
AcDbSpline
 70
8
 71
3
 72
8
 73
4
 74
0
 40
0
 40
0
 40
0
 40
0
 40
1
 40
1
 40
1
 40
1
 10
366.954556
 20
351.688039
 30
0.0
 10
363.892020
 20
348.640572
 30
0.0
 10
359.738329
 20
346.928524
 30
0.0
 10
355.407248
 20
346.928524
 30
0.0
  0
SPLINE
  5
1fe
100
AcDbEntity
  8
Layer_1
 62
1
100
AcDbSpline
 70
8
 71
3
 72
8
 73
4
 74
0
 40
0
 40
0
 40
0
 40
0
 40
1
 40
1
 40
1
 40
1
 10
355.407248
 20
346.928524
 30
0.0
 10
351.076167
 20
346.928524
 30
0.0
 10
346.922476
 20
348.640572
 30
0.0
 10
343.859940
 20
351.688039
 30
0.0
  0
SPLINE
  5
1ff
100
AcDbEntity
  8
Layer_1
 62
1
100
AcDbSpline
 70
8
 71
3
 72
8
 73
4
 74
0
 40
0
 40
0
 40
0
 40
0
 40
1
 40
1
 40
1
 40
1
 10
343.859940
 20
351.688039
 30
0.0
 10
340.797403
 20
354.735505
 30
0.0
 10
339.076888
 20
358.868756
 30
0.0
 10
339.076888
 20
363.178524
 30
0.0
  0
SPLINE
  5
200
100
AcDbEntity
  8
Layer_1
 62
1
100
AcDbSpline
 70
8
 71
3
 72
8
 73
4
 74
0
 40
0
 40
0
 40
0
 40
0
 40
1
 40
1
 40
1
 40
1
 10
339.076888
 20
363.178524
 30
0.0
 10
339.076888
 20
367.488292
 30
0.0
 10
340.797403
 20
371.621543
 30
0.0
 10
343.859940
 20
374.669009
 30
0.0
  0
SPLINE
  5
201
100
AcDbEntity
  8
Layer_1
 62
1
100
AcDbSpline
 70
8
 71
3
 72
8
 73
4
 74
0
 40
0
 40
0
 40
0
 40
0
 40
1
 40
1
 40
1
 40
1
 10
343.859940
 20
374.669009
 30
0.0
 10
346.922476
 20
377.716476
 30
0.0
 10
351.076167
 20
379.428524
 30
0.0
 10
355.407248
 20
379.428524
 30
0.0
  0
SPLINE
  5
202
100
AcDbEntity
  8
Layer_1
 62
1
100
AcDbSpline
 70
8
 71
3
 72
8
 73
4
 74
0
 40
0
 40
0
 40
0
 40
0
 40
1
 40
1
 40
1
 40
1
 10
355.407248
 20
379.428524
 30
0.0
 10
359.738329
 20
379.428524
 30
0.0
 10
363.892020
 20
377.716476
 30
0.0
 10
366.954556
 20
374.669009
 30
0.0
  0
SPLINE
  5
203
100
AcDbEntity
  8
Layer_1
 62
1
100
AcDbSpline
 70
8
 71
3
 72
8
 73
4
 74
0
 40
0
 40
0
 40
0
 40
0
 40
1
 40
1
 40
1
 40
1
 10
366.954556
 20
374.669009
 30
0.0
 10
370.017093
 20
371.621543
 30
0.0
 10
371.737608
 20
367.488292
 30
0.0
 10
371.737608
 20
363.178524
 30
0.0
  0
LWPOLYLINE
  5
204
100
AcDbEntity
  8
Layer_1
 62
1
100
AcDbPolyline
 90
2
 70
1
 10
371.737608
 20
435.219876
 30
0.0
 10
371.737608
 20
435.219876
 30
0.0
  0
SPLINE
  5
205
100
AcDbEntity
  8
Layer_1
 62
1
100
AcDbSpline
 70
8
 71
3
 72
8
 73
4
 74
0
 40
0
 40
0
 40
0
 40
0
 40
1
 40
1
 40
1
 40
1
 10
371.737608
 20
273.031156
 30
0.0
 10
371.737608
 20
268.721388
 30
0.0
 10
370.017093
 20
264.588137
 30
0.0
 10
366.954556
 20
261.540671
 30
0.0
  0
SPLINE
  5
206
100
AcDbEntity
  8
Layer_1
 62
1
100
AcDbSpline
 70
8
 71
3
 72
8
 73
4
 74
0
 40
0
 40
0
 40
0
 40
0
 40
1
 40
1
 40
1
 40
1
 10
366.954556
 20
261.540671
 30
0.0
 10
363.892020
 20
258.493204
 30
0.0
 10
359.738329
 20
256.781156
 30
0.0
 10
355.407248
 20
256.781156
 30
0.0
  0
SPLINE
  5
207
100
AcDbEntity
  8
Layer_1
 62
1
100
AcDbSpline
 70
8
 71
3
 72
8
 73
4
 74
0
 40
0
 40
0
 40
0
 40
0
 40
1
 40
1
 40
1
 40
1
 10
355.407248
 20
256.781156
 30
0.0
 10
351.076167
 20
256.781156
 30
0.0
 10
346.922476
 20
258.493204
 30
0.0
 10
343.859940
 20
261.540671
 30
0.0
  0
SPLINE
  5
208
100
AcDbEntity
  8
Layer_1
 62
1
100
AcDbSpline
 70
8
 71
3
 72
8
 73
4
 74
0
 40
0
 40
0
 40
0
 40
0
 40
1
 40
1
 40
1
 40
1
 10
343.859940
 20
261.540671
 30
0.0
 10
340.797403
 20
264.588137
 30
0.0
 10
339.076888
 20
268.721388
 30
0.0
 10
339.076888
 20
273.031156
 30
0.0
  0
SPLINE
  5
209
100
AcDbEntity
  8
Layer_1
 62
1
100
AcDbSpline
 70
8
 71
3
 72
8
 73
4
 74
0
 40
0
 40
0
 40
0
 40
0
 40
1
 40
1
 40
1
 40
1
 10
339.076888
 20
273.031156
 30
0.0
 10
339.076888
 20
277.340924
 30
0.0
 10
340.797403
 20
281.474175
 30
0.0
 10
343.859940
 20
284.521641
 30
0.0
  0
SPLINE
  5
20a
100
AcDbEntity
  8
Layer_1
 62
1
100
AcDbSpline
 70
8
 71
3
 72
8
 73
4
 74
0
 40
0
 40
0
 40
0
 40
0
 40
1
 40
1
 40
1
 40
1
 10
343.859940
 20
284.521641
 30
0.0
 10
346.922476
 20
287.569108
 30
0.0
 10
351.076167
 20
289.281156
 30
0.0
 10
355.407248
 20
289.281156
 30
0.0
  0
SPLINE
  5
20b
100
AcDbEntity
  8
Layer_1
 62
1
100
AcDbSpline
 70
8
 71
3
 72
8
 73
4
 74
0
 40
0
 40
0
 40
0
 40
0
 40
1
 40
1
 40
1
 40
1
 10
355.407248
 20
289.281156
 30
0.0
 10
359.738329
 20
289.281156
 30
0.0
 10
363.892020
 20
287.569108
 30
0.0
 10
366.954556
 20
284.521641
 30
0.0
  0
SPLINE
  5
20c
100
AcDbEntity
  8
Layer_1
 62
1
100
AcDbSpline
 70
8
 71
3
 72
8
 73
4
 74
0
 40
0
 40
0
 40
0
 40
0
 40
1
 40
1
 40
1
 40
1
 10
366.954556
 20
284.521641
 30
0.0
 10
370.017093
 20
281.474175
 30
0.0
 10
371.737608
 20
277.340924
 30
0.0
 10
371.737608
 20
273.031156
 30
0.0
  0
LWPOLYLINE
  5
20d
100
AcDbEntity
  8
Layer_1
 62
1
100
AcDbPolyline
 90
2
 70
1
 10
371.737608
 20
363.178524
 30
0.0
 10
371.737608
 20
363.178524
 30
0.0
  0
SPLINE
  5
20e
100
AcDbEntity
  8
Layer_1
 62
1
100
AcDbSpline
 70
8
 71
3
 72
8
 73
4
 74
0
 40
0
 40
0
 40
0
 40
0
 40
1
 40
1
 40
1
 40
1
 10
371.737608
 20
201.247660
 30
0.0
 10
371.737608
 20
196.937892
 30
0.0
 10
370.017093
 20
192.804641
 30
0.0
 10
366.954556
 20
189.757175
 30
0.0
  0
SPLINE
  5
20f
100
AcDbEntity
  8
Layer_1
 62
1
100
AcDbSpline
 70
8
 71
3
 72
8
 73
4
 74
0
 40
0
 40
0
 40
0
 40
0
 40
1
 40
1
 40
1
 40
1
 10
366.954556
 20
189.757175
 30
0.0
 10
363.892020
 20
186.709708
 30
0.0
 10
359.738329
 20
184.997660
 30
0.0
 10
355.407248
 20
184.997660
 30
0.0
  0
SPLINE
  5
210
100
AcDbEntity
  8
Layer_1
 62
1
100
AcDbSpline
 70
8
 71
3
 72
8
 73
4
 74
0
 40
0
 40
0
 40
0
 40
0
 40
1
 40
1
 40
1
 40
1
 10
355.407248
 20
184.997660
 30
0.0
 10
351.076167
 20
184.997660
 30
0.0
 10
346.922476
 20
186.709708
 30
0.0
 10
343.859940
 20
189.757175
 30
0.0
  0
SPLINE
  5
211
100
AcDbEntity
  8
Layer_1
 62
1
100
AcDbSpline
 70
8
 71
3
 72
8
 73
4
 74
0
 40
0
 40
0
 40
0
 40
0
 40
1
 40
1
 40
1
 40
1
 10
343.859940
 20
189.757175
 30
0.0
 10
340.797403
 20
192.804641
 30
0.0
 10
339.076888
 20
196.937892
 30
0.0
 10
339.076888
 20
201.247660
 30
0.0
  0
SPLINE
  5
212
100
AcDbEntity
  8
Layer_1
 62
1
100
AcDbSpline
 70
8
 71
3
 72
8
 73
4
 74
0
 40
0
 40
0
 40
0
 40
0
 40
1
 40
1
 40
1
 40
1
 10
339.076888
 20
201.247660
 30
0.0
 10
339.076888
 20
205.557428
 30
0.0
 10
340.797403
 20
209.690679
 30
0.0
 10
343.859940
 20
212.738145
 30
0.0
  0
SPLINE
  5
213
100
AcDbEntity
  8
Layer_1
 62
1
100
AcDbSpline
 70
8
 71
3
 72
8
 73
4
 74
0
 40
0
 40
0
 40
0
 40
0
 40
1
 40
1
 40
1
 40
1
 10
343.859940
 20
212.738145
 30
0.0
 10
346.922476
 20
215.785612
 30
0.0
 10
351.076167
 20
217.497660
 30
0.0
 10
355.407248
 20
217.497660
 30
0.0
  0
SPLINE
  5
214
100
AcDbEntity
  8
Layer_1
 62
1
100
AcDbSpline
 70
8
 71
3
 72
8
 73
4
 74
0
 40
0
 40
0
 40
0
 40
0
 40
1
 40
1
 40
1
 40
1
 10
355.407248
 20
217.497660
 30
0.0
 10
359.738329
 20
217.497660
 30
0.0
 10
363.892020
 20
215.785612
 30
0.0
 10
366.954556
 20
212.738145
 30
0.0
  0
SPLINE
  5
215
100
AcDbEntity
  8
Layer_1
 62
1
100
AcDbSpline
 70
8
 71
3
 72
8
 73
4
 74
0
 40
0
 40
0
 40
0
 40
0
 40
1
 40
1
 40
1
 40
1
 10
366.954556
 20
212.738145
 30
0.0
 10
370.017093
 20
209.690679
 30
0.0
 10
371.737608
 20
205.557428
 30
0.0
 10
371.737608
 20
201.247660
 30
0.0
  0
LWPOLYLINE
  5
216
100
AcDbEntity
  8
Layer_1
 62
1
100
AcDbPolyline
 90
2
 70
1
 10
371.737608
 20
273.031156
 30
0.0
 10
371.737608
 20
273.031156
 30
0.0
  0
SPLINE
  5
217
100
AcDbEntity
  8
Layer_1
 62
1
100
AcDbSpline
 70
8
 71
3
 72
8
 73
4
 74
0
 40
0
 40
0
 40
0
 40
0
 40
1
 40
1
 40
1
 40
1
 10
371.737608
 20
111.900300
 30
0.0
 10
371.737608
 20
107.590532
 30
0.0
 10
370.017093
 20
103.457281
 30
0.0
 10
366.954556
 20
100.409815
 30
0.0
  0
SPLINE
  5
218
100
AcDbEntity
  8
Layer_1
 62
1
100
AcDbSpline
 70
8
 71
3
 72
8
 73
4
 74
0
 40
0
 40
0
 40
0
 40
0
 40
1
 40
1
 40
1
 40
1
 10
366.954556
 20
100.409815
 30
0.0
 10
363.892020
 20
97.362348
 30
0.0
 10
359.738329
 20
95.650300
 30
0.0
 10
355.407248
 20
95.650300
 30
0.0
  0
SPLINE
  5
219
100
AcDbEntity
  8
Layer_1
 62
1
100
AcDbSpline
 70
8
 71
3
 72
8
 73
4
 74
0
 40
0
 40
0
 40
0
 40
0
 40
1
 40
1
 40
1
 40
1
 10
355.407248
 20
95.650300
 30
0.0
 10
351.076167
 20
95.650300
 30
0.0
 10
346.922476
 20
97.362348
 30
0.0
 10
343.859940
 20
100.409815
 30
0.0
  0
SPLINE
  5
21a
100
AcDbEntity
  8
Layer_1
 62
1
100
AcDbSpline
 70
8
 71
3
 72
8
 73
4
 74
0
 40
0
 40
0
 40
0
 40
0
 40
1
 40
1
 40
1
 40
1
 10
343.859940
 20
100.409815
 30
0.0
 10
340.797403
 20
103.457281
 30
0.0
 10
339.076888
 20
107.590532
 30
0.0
 10
339.076888
 20
111.900300
 30
0.0
  0
SPLINE
  5
21b
100
AcDbEntity
  8
Layer_1
 62
1
100
AcDbSpline
 70
8
 71
3
 72
8
 73
4
 74
0
 40
0
 40
0
 40
0
 40
0
 40
1
 40
1
 40
1
 40
1
 10
339.076888
 20
111.900300
 30
0.0
 10
339.076888
 20
116.210068
 30
0.0
 10
340.797403
 20
120.343319
 30
0.0
 10
343.859940
 20
123.390785
 30
0.0
  0
SPLINE
  5
21c
100
AcDbEntity
  8
Layer_1
 62
1
100
AcDbSpline
 70
8
 71
3
 72
8
 73
4
 74
0
 40
0
 40
0
 40
0
 40
0
 40
1
 40
1
 40
1
 40
1
 10
343.859940
 20
123.390785
 30
0.0
 10
346.922476
 20
126.438252
 30
0.0
 10
351.076167
 20
128.150300
 30
0.0
 10
355.407248
 20
128.150300
 30
0.0
  0
SPLINE
  5
21d
100
AcDbEntity
  8
Layer_1
 62
1
100
AcDbSpline
 70
8
 71
3
 72
8
 73
4
 74
0
 40
0
 40
0
 40
0
 40
0
 40
1
 40
1
 40
1
 40
1
 10
355.407248
 20
128.150300
 30
0.0
 10
359.738329
 20
128.150300
 30
0.0
 10
363.892020
 20
126.438252
 30
0.0
 10
366.954556
 20
123.390785
 30
0.0
  0
SPLINE
  5
21e
100
AcDbEntity
  8
Layer_1
 62
1
100
AcDbSpline
 70
8
 71
3
 72
8
 73
4
 74
0
 40
0
 40
0
 40
0
 40
0
 40
1
 40
1
 40
1
 40
1
 10
366.954556
 20
123.390785
 30
0.0
 10
370.017093
 20
120.343319
 30
0.0
 10
371.737608
 20
116.210068
 30
0.0
 10
371.737608
 20
111.900300
 30
0.0
  0
LWPOLYLINE
  5
21f
100
AcDbEntity
  8
Layer_1
 62
1
100
AcDbPolyline
 90
2
 70
1
 10
371.737608
 20
201.247660
 30
0.0
 10
371.737608
 20
201.247660
 30
0.0
  0
SPLINE
  5
220
100
AcDbEntity
  8
Layer_1
 62
1
100
AcDbSpline
 70
8
 71
3
 72
8
 73
4
 74
0
 40
0
 40
0
 40
0
 40
0
 40
1
 40
1
 40
1
 40
1
 10
371.737608
 20
40.519844
 30
0.0
 10
371.737608
 20
36.210076
 30
0.0
 10
370.017093
 20
32.076825
 30
0.0
 10
366.954556
 20
29.029359
 30
0.0
  0
SPLINE
  5
221
100
AcDbEntity
  8
Layer_1
 62
1
100
AcDbSpline
 70
8
 71
3
 72
8
 73
4
 74
0
 40
0
 40
0
 40
0
 40
0
 40
1
 40
1
 40
1
 40
1
 10
366.954556
 20
29.029359
 30
0.0
 10
363.892020
 20
25.981892
 30
0.0
 10
359.738329
 20
24.269844
 30
0.0
 10
355.407248
 20
24.269844
 30
0.0
  0
SPLINE
  5
222
100
AcDbEntity
  8
Layer_1
 62
1
100
AcDbSpline
 70
8
 71
3
 72
8
 73
4
 74
0
 40
0
 40
0
 40
0
 40
0
 40
1
 40
1
 40
1
 40
1
 10
355.407248
 20
24.269844
 30
0.0
 10
351.076167
 20
24.269844
 30
0.0
 10
346.922476
 20
25.981892
 30
0.0
 10
343.859940
 20
29.029359
 30
0.0
  0
SPLINE
  5
223
100
AcDbEntity
  8
Layer_1
 62
1
100
AcDbSpline
 70
8
 71
3
 72
8
 73
4
 74
0
 40
0
 40
0
 40
0
 40
0
 40
1
 40
1
 40
1
 40
1
 10
343.859940
 20
29.029359
 30
0.0
 10
340.797403
 20
32.076825
 30
0.0
 10
339.076888
 20
36.210076
 30
0.0
 10
339.076888
 20
40.519844
 30
0.0
  0
SPLINE
  5
224
100
AcDbEntity
  8
Layer_1
 62
1
100
AcDbSpline
 70
8
 71
3
 72
8
 73
4
 74
0
 40
0
 40
0
 40
0
 40
0
 40
1
 40
1
 40
1
 40
1
 10
339.076888
 20
40.519844
 30
0.0
 10
339.076897
 20
49.494465
 30
0.0
 10
346.388246
 20
56.769828
 30
0.0
 10
355.407248
 20
56.769828
 30
0.0
  0
SPLINE
  5
225
100
AcDbEntity
  8
Layer_1
 62
1
100
AcDbSpline
 70
8
 71
3
 72
8
 73
4
 74
0
 40
0
 40
0
 40
0
 40
0
 40
1
 40
1
 40
1
 40
1
 10
355.407248
 20
56.769828
 30
0.0
 10
364.426250
 20
56.769828
 30
0.0
 10
371.737599
 20
49.494465
 30
0.0
 10
371.737608
 20
40.519844
 30
0.0
  0
LWPOLYLINE
  5
226
100
AcDbEntity
  8
Layer_1
 62
1
100
AcDbPolyline
 90
2
 70
1
 10
371.737608
 20
111.900300
 30
0.0
 10
371.737608
 20
111.900300
 30
0.0
  0
SPLINE
  5
227
100
AcDbEntity
  8
Layer_1
 62
1
100
AcDbSpline
 70
8
 71
3
 72
8
 73
4
 74
0
 40
0
 40
0
 40
0
 40
0
 40
1
 40
1
 40
1
 40
1
 10
427.337608
 20
726.107076
 30
0.0
 10
427.337608
 20
721.797308
 30
0.0
 10
425.617093
 20
717.664057
 30
0.0
 10
422.554556
 20
714.616591
 30
0.0
  0
SPLINE
  5
228
100
AcDbEntity
  8
Layer_1
 62
1
100
AcDbSpline
 70
8
 71
3
 72
8
 73
4
 74
0
 40
0
 40
0
 40
0
 40
0
 40
1
 40
1
 40
1
 40
1
 10
422.554556
 20
714.616591
 30
0.0
 10
419.492020
 20
711.569124
 30
0.0
 10
415.338329
 20
709.857076
 30
0.0
 10
411.007248
 20
709.857076
 30
0.0
  0
SPLINE
  5
229
100
AcDbEntity
  8
Layer_1
 62
1
100
AcDbSpline
 70
8
 71
3
 72
8
 73
4
 74
0
 40
0
 40
0
 40
0
 40
0
 40
1
 40
1
 40
1
 40
1
 10
411.007248
 20
709.857076
 30
0.0
 10
406.676167
 20
709.857076
 30
0.0
 10
402.522476
 20
711.569124
 30
0.0
 10
399.459940
 20
714.616591
 30
0.0
  0
SPLINE
  5
22a
100
AcDbEntity
  8
Layer_1
 62
1
100
AcDbSpline
 70
8
 71
3
 72
8
 73
4
 74
0
 40
0
 40
0
 40
0
 40
0
 40
1
 40
1
 40
1
 40
1
 10
399.459940
 20
714.616591
 30
0.0
 10
396.397403
 20
717.664057
 30
0.0
 10
394.676888
 20
721.797308
 30
0.0
 10
394.676888
 20
726.107076
 30
0.0
  0
SPLINE
  5
22b
100
AcDbEntity
  8
Layer_1
 62
1
100
AcDbSpline
 70
8
 71
3
 72
8
 73
4
 74
0
 40
0
 40
0
 40
0
 40
0
 40
1
 40
1
 40
1
 40
1
 10
394.676888
 20
726.107076
 30
0.0
 10
394.676888
 20
730.416844
 30
0.0
 10
396.397403
 20
734.550095
 30
0.0
 10
399.459940
 20
737.597561
 30
0.0
  0
SPLINE
  5
22c
100
AcDbEntity
  8
Layer_1
 62
1
100
AcDbSpline
 70
8
 71
3
 72
8
 73
4
 74
0
 40
0
 40
0
 40
0
 40
0
 40
1
 40
1
 40
1
 40
1
 10
399.459940
 20
737.597561
 30
0.0
 10
402.522476
 20
740.645028
 30
0.0
 10
406.676167
 20
742.357076
 30
0.0
 10
411.007248
 20
742.357076
 30
0.0
  0
SPLINE
  5
22d
100
AcDbEntity
  8
Layer_1
 62
1
100
AcDbSpline
 70
8
 71
3
 72
8
 73
4
 74
0
 40
0
 40
0
 40
0
 40
0
 40
1
 40
1
 40
1
 40
1
 10
411.007248
 20
742.357076
 30
0.0
 10
415.338329
 20
742.357076
 30
0.0
 10
419.492020
 20
740.645028
 30
0.0
 10
422.554556
 20
737.597561
 30
0.0
  0
SPLINE
  5
22e
100
AcDbEntity
  8
Layer_1
 62
1
100
AcDbSpline
 70
8
 71
3
 72
8
 73
4
 74
0
 40
0
 40
0
 40
0
 40
0
 40
1
 40
1
 40
1
 40
1
 10
422.554556
 20
737.597561
 30
0.0
 10
425.617093
 20
734.550095
 30
0.0
 10
427.337608
 20
730.416844
 30
0.0
 10
427.337608
 20
726.107076
 30
0.0
  0
LWPOLYLINE
  5
22f
100
AcDbEntity
  8
Layer_1
 62
1
100
AcDbPolyline
 90
2
 70
1
 10
371.737608
 20
40.519844
 30
0.0
 10
371.737608
 20
40.519844
 30
0.0
  0
SPLINE
  5
230
100
AcDbEntity
  8
Layer_1
 62
1
100
AcDbSpline
 70
8
 71
3
 72
8
 73
4
 74
0
 40
0
 40
0
 40
0
 40
0
 40
1
 40
1
 40
1
 40
1
 10
427.337608
 20
648.955228
 30
0.0
 10
427.337608
 20
644.645460
 30
0.0
 10
425.617093
 20
640.512209
 30
0.0
 10
422.554556
 20
637.464743
 30
0.0
  0
SPLINE
  5
231
100
AcDbEntity
  8
Layer_1
 62
1
100
AcDbSpline
 70
8
 71
3
 72
8
 73
4
 74
0
 40
0
 40
0
 40
0
 40
0
 40
1
 40
1
 40
1
 40
1
 10
422.554556
 20
637.464743
 30
0.0
 10
419.492020
 20
634.417276
 30
0.0
 10
415.338329
 20
632.705228
 30
0.0
 10
411.007248
 20
632.705228
 30
0.0
  0
SPLINE
  5
232
100
AcDbEntity
  8
Layer_1
 62
1
100
AcDbSpline
 70
8
 71
3
 72
8
 73
4
 74
0
 40
0
 40
0
 40
0
 40
0
 40
1
 40
1
 40
1
 40
1
 10
411.007248
 20
632.705228
 30
0.0
 10
406.676167
 20
632.705228
 30
0.0
 10
402.522476
 20
634.417276
 30
0.0
 10
399.459940
 20
637.464743
 30
0.0
  0
SPLINE
  5
233
100
AcDbEntity
  8
Layer_1
 62
1
100
AcDbSpline
 70
8
 71
3
 72
8
 73
4
 74
0
 40
0
 40
0
 40
0
 40
0
 40
1
 40
1
 40
1
 40
1
 10
399.459940
 20
637.464743
 30
0.0
 10
396.397403
 20
640.512209
 30
0.0
 10
394.676888
 20
644.645460
 30
0.0
 10
394.676888
 20
648.955228
 30
0.0
  0
SPLINE
  5
234
100
AcDbEntity
  8
Layer_1
 62
1
100
AcDbSpline
 70
8
 71
3
 72
8
 73
4
 74
0
 40
0
 40
0
 40
0
 40
0
 40
1
 40
1
 40
1
 40
1
 10
394.676888
 20
648.955228
 30
0.0
 10
394.676888
 20
653.264996
 30
0.0
 10
396.397403
 20
657.398247
 30
0.0
 10
399.459940
 20
660.445713
 30
0.0
  0
SPLINE
  5
235
100
AcDbEntity
  8
Layer_1
 62
1
100
AcDbSpline
 70
8
 71
3
 72
8
 73
4
 74
0
 40
0
 40
0
 40
0
 40
0
 40
1
 40
1
 40
1
 40
1
 10
399.459940
 20
660.445713
 30
0.0
 10
402.522476
 20
663.493180
 30
0.0
 10
406.676167
 20
665.205228
 30
0.0
 10
411.007248
 20
665.205228
 30
0.0
  0
SPLINE
  5
236
100
AcDbEntity
  8
Layer_1
 62
1
100
AcDbSpline
 70
8
 71
3
 72
8
 73
4
 74
0
 40
0
 40
0
 40
0
 40
0
 40
1
 40
1
 40
1
 40
1
 10
411.007248
 20
665.205228
 30
0.0
 10
415.338329
 20
665.205228
 30
0.0
 10
419.492020
 20
663.493180
 30
0.0
 10
422.554556
 20
660.445713
 30
0.0
  0
SPLINE
  5
237
100
AcDbEntity
  8
Layer_1
 62
1
100
AcDbSpline
 70
8
 71
3
 72
8
 73
4
 74
0
 40
0
 40
0
 40
0
 40
0
 40
1
 40
1
 40
1
 40
1
 10
422.554556
 20
660.445713
 30
0.0
 10
425.617093
 20
657.398247
 30
0.0
 10
427.337608
 20
653.264996
 30
0.0
 10
427.337608
 20
648.955228
 30
0.0
  0
LWPOLYLINE
  5
238
100
AcDbEntity
  8
Layer_1
 62
1
100
AcDbPolyline
 90
2
 70
1
 10
427.337608
 20
726.107076
 30
0.0
 10
427.337608
 20
726.107076
 30
0.0
  0
SPLINE
  5
239
100
AcDbEntity
  8
Layer_1
 62
1
100
AcDbSpline
 70
8
 71
3
 72
8
 73
4
 74
0
 40
0
 40
0
 40
0
 40
0
 40
1
 40
1
 40
1
 40
1
 10
427.337608
 20
551.767244
 30
0.0
 10
427.337608
 20
547.457476
 30
0.0
 10
425.617093
 20
543.324225
 30
0.0
 10
422.554556
 20
540.276759
 30
0.0
  0
SPLINE
  5
23a
100
AcDbEntity
  8
Layer_1
 62
1
100
AcDbSpline
 70
8
 71
3
 72
8
 73
4
 74
0
 40
0
 40
0
 40
0
 40
0
 40
1
 40
1
 40
1
 40
1
 10
422.554556
 20
540.276759
 30
0.0
 10
419.492020
 20
537.229292
 30
0.0
 10
415.338329
 20
535.517244
 30
0.0
 10
411.007248
 20
535.517244
 30
0.0
  0
SPLINE
  5
23b
100
AcDbEntity
  8
Layer_1
 62
1
100
AcDbSpline
 70
8
 71
3
 72
8
 73
4
 74
0
 40
0
 40
0
 40
0
 40
0
 40
1
 40
1
 40
1
 40
1
 10
411.007248
 20
535.517244
 30
0.0
 10
406.676167
 20
535.517244
 30
0.0
 10
402.522476
 20
537.229292
 30
0.0
 10
399.459940
 20
540.276759
 30
0.0
  0
SPLINE
  5
23c
100
AcDbEntity
  8
Layer_1
 62
1
100
AcDbSpline
 70
8
 71
3
 72
8
 73
4
 74
0
 40
0
 40
0
 40
0
 40
0
 40
1
 40
1
 40
1
 40
1
 10
399.459940
 20
540.276759
 30
0.0
 10
396.397403
 20
543.324225
 30
0.0
 10
394.676888
 20
547.457476
 30
0.0
 10
394.676888
 20
551.767244
 30
0.0
  0
SPLINE
  5
23d
100
AcDbEntity
  8
Layer_1
 62
1
100
AcDbSpline
 70
8
 71
3
 72
8
 73
4
 74
0
 40
0
 40
0
 40
0
 40
0
 40
1
 40
1
 40
1
 40
1
 10
394.676888
 20
551.767244
 30
0.0
 10
394.676888
 20
556.077012
 30
0.0
 10
396.397403
 20
560.210263
 30
0.0
 10
399.459940
 20
563.257729
 30
0.0
  0
SPLINE
  5
23e
100
AcDbEntity
  8
Layer_1
 62
1
100
AcDbSpline
 70
8
 71
3
 72
8
 73
4
 74
0
 40
0
 40
0
 40
0
 40
0
 40
1
 40
1
 40
1
 40
1
 10
399.459940
 20
563.257729
 30
0.0
 10
402.522476
 20
566.305196
 30
0.0
 10
406.676167
 20
568.017244
 30
0.0
 10
411.007248
 20
568.017244
 30
0.0
  0
SPLINE
  5
23f
100
AcDbEntity
  8
Layer_1
 62
1
100
AcDbSpline
 70
8
 71
3
 72
8
 73
4
 74
0
 40
0
 40
0
 40
0
 40
0
 40
1
 40
1
 40
1
 40
1
 10
411.007248
 20
568.017244
 30
0.0
 10
415.338329
 20
568.017244
 30
0.0
 10
419.492020
 20
566.305196
 30
0.0
 10
422.554556
 20
563.257729
 30
0.0
  0
SPLINE
  5
240
100
AcDbEntity
  8
Layer_1
 62
1
100
AcDbSpline
 70
8
 71
3
 72
8
 73
4
 74
0
 40
0
 40
0
 40
0
 40
0
 40
1
 40
1
 40
1
 40
1
 10
422.554556
 20
563.257729
 30
0.0
 10
425.617093
 20
560.210263
 30
0.0
 10
427.337608
 20
556.077012
 30
0.0
 10
427.337608
 20
551.767244
 30
0.0
  0
LWPOLYLINE
  5
241
100
AcDbEntity
  8
Layer_1
 62
1
100
AcDbPolyline
 90
2
 70
1
 10
427.337608
 20
648.955228
 30
0.0
 10
427.337608
 20
648.955228
 30
0.0
  0
SPLINE
  5
242
100
AcDbEntity
  8
Layer_1
 62
1
100
AcDbSpline
 70
8
 71
3
 72
8
 73
4
 74
0
 40
0
 40
0
 40
0
 40
0
 40
1
 40
1
 40
1
 40
1
 10
427.337608
 20
474.419876
 30
0.0
 10
427.337608
 20
470.110108
 30
0.0
 10
425.617093
 20
465.976857
 30
0.0
 10
422.554556
 20
462.929391
 30
0.0
  0
SPLINE
  5
243
100
AcDbEntity
  8
Layer_1
 62
1
100
AcDbSpline
 70
8
 71
3
 72
8
 73
4
 74
0
 40
0
 40
0
 40
0
 40
0
 40
1
 40
1
 40
1
 40
1
 10
422.554556
 20
462.929391
 30
0.0
 10
419.492020
 20
459.881924
 30
0.0
 10
415.338329
 20
458.169876
 30
0.0
 10
411.007248
 20
458.169876
 30
0.0
  0
SPLINE
  5
244
100
AcDbEntity
  8
Layer_1
 62
1
100
AcDbSpline
 70
8
 71
3
 72
8
 73
4
 74
0
 40
0
 40
0
 40
0
 40
0
 40
1
 40
1
 40
1
 40
1
 10
411.007248
 20
458.169876
 30
0.0
 10
406.676167
 20
458.169876
 30
0.0
 10
402.522476
 20
459.881924
 30
0.0
 10
399.459940
 20
462.929391
 30
0.0
  0
SPLINE
  5
245
100
AcDbEntity
  8
Layer_1
 62
1
100
AcDbSpline
 70
8
 71
3
 72
8
 73
4
 74
0
 40
0
 40
0
 40
0
 40
0
 40
1
 40
1
 40
1
 40
1
 10
399.459940
 20
462.929391
 30
0.0
 10
396.397403
 20
465.976857
 30
0.0
 10
394.676888
 20
470.110108
 30
0.0
 10
394.676888
 20
474.419876
 30
0.0
  0
SPLINE
  5
246
100
AcDbEntity
  8
Layer_1
 62
1
100
AcDbSpline
 70
8
 71
3
 72
8
 73
4
 74
0
 40
0
 40
0
 40
0
 40
0
 40
1
 40
1
 40
1
 40
1
 10
394.676888
 20
474.419876
 30
0.0
 10
394.676888
 20
478.729644
 30
0.0
 10
396.397403
 20
482.862895
 30
0.0
 10
399.459940
 20
485.910361
 30
0.0
  0
SPLINE
  5
247
100
AcDbEntity
  8
Layer_1
 62
1
100
AcDbSpline
 70
8
 71
3
 72
8
 73
4
 74
0
 40
0
 40
0
 40
0
 40
0
 40
1
 40
1
 40
1
 40
1
 10
399.459940
 20
485.910361
 30
0.0
 10
402.522476
 20
488.957828
 30
0.0
 10
406.676167
 20
490.669876
 30
0.0
 10
411.007248
 20
490.669876
 30
0.0
  0
SPLINE
  5
248
100
AcDbEntity
  8
Layer_1
 62
1
100
AcDbSpline
 70
8
 71
3
 72
8
 73
4
 74
0
 40
0
 40
0
 40
0
 40
0
 40
1
 40
1
 40
1
 40
1
 10
411.007248
 20
490.669876
 30
0.0
 10
415.338329
 20
490.669876
 30
0.0
 10
419.492020
 20
488.957828
 30
0.0
 10
422.554556
 20
485.910361
 30
0.0
  0
SPLINE
  5
249
100
AcDbEntity
  8
Layer_1
 62
1
100
AcDbSpline
 70
8
 71
3
 72
8
 73
4
 74
0
 40
0
 40
0
 40
0
 40
0
 40
1
 40
1
 40
1
 40
1
 10
422.554556
 20
485.910361
 30
0.0
 10
425.617093
 20
482.862895
 30
0.0
 10
427.337608
 20
478.729644
 30
0.0
 10
427.337608
 20
474.419876
 30
0.0
  0
LWPOLYLINE
  5
24a
100
AcDbEntity
  8
Layer_1
 62
1
100
AcDbPolyline
 90
2
 70
1
 10
427.337608
 20
551.767244
 30
0.0
 10
427.337608
 20
551.767244
 30
0.0
  0
SPLINE
  5
24b
100
AcDbEntity
  8
Layer_1
 62
1
100
AcDbSpline
 70
8
 71
3
 72
8
 73
4
 74
0
 40
0
 40
0
 40
0
 40
0
 40
1
 40
1
 40
1
 40
1
 10
427.389776
 20
378.775348
 30
0.0
 10
427.389776
 20
369.800724
 30
0.0
 10
420.078430
 20
362.525352
 30
0.0
 10
411.059424
 20
362.525348
 30
0.0
  0
SPLINE
  5
24c
100
AcDbEntity
  8
Layer_1
 62
1
100
AcDbSpline
 70
8
 71
3
 72
8
 73
4
 74
0
 40
0
 40
0
 40
0
 40
0
 40
1
 40
1
 40
1
 40
1
 10
411.059424
 20
362.525348
 30
0.0
 10
406.728343
 20
362.525348
 30
0.0
 10
402.574652
 20
364.237396
 30
0.0
 10
399.512116
 20
367.284863
 30
0.0
  0
SPLINE
  5
24d
100
AcDbEntity
  8
Layer_1
 62
1
100
AcDbSpline
 70
8
 71
3
 72
8
 73
4
 74
0
 40
0
 40
0
 40
0
 40
0
 40
1
 40
1
 40
1
 40
1
 10
399.512116
 20
367.284863
 30
0.0
 10
396.449579
 20
370.332329
 30
0.0
 10
394.729064
 20
374.465580
 30
0.0
 10
394.729064
 20
378.775348
 30
0.0
  0
SPLINE
  5
24e
100
AcDbEntity
  8
Layer_1
 62
1
100
AcDbSpline
 70
8
 71
3
 72
8
 73
4
 74
0
 40
0
 40
0
 40
0
 40
0
 40
1
 40
1
 40
1
 40
1
 10
394.729064
 20
378.775348
 30
0.0
 10
394.729064
 20
383.085116
 30
0.0
 10
396.449579
 20
387.218367
 30
0.0
 10
399.512116
 20
390.265833
 30
0.0
  0
SPLINE
  5
24f
100
AcDbEntity
  8
Layer_1
 62
1
100
AcDbSpline
 70
8
 71
3
 72
8
 73
4
 74
0
 40
0
 40
0
 40
0
 40
0
 40
1
 40
1
 40
1
 40
1
 10
399.512116
 20
390.265833
 30
0.0
 10
402.574652
 20
393.313300
 30
0.0
 10
406.728343
 20
395.025348
 30
0.0
 10
411.059424
 20
395.025348
 30
0.0
  0
SPLINE
  5
250
100
AcDbEntity
  8
Layer_1
 62
1
100
AcDbSpline
 70
8
 71
3
 72
8
 73
4
 74
0
 40
0
 40
0
 40
0
 40
0
 40
1
 40
1
 40
1
 40
1
 10
411.059424
 20
395.025348
 30
0.0
 10
420.078430
 20
395.025344
 30
0.0
 10
427.389776
 20
387.749972
 30
0.0
 10
427.389776
 20
378.775348
 30
0.0
  0
LWPOLYLINE
  5
251
100
AcDbEntity
  8
Layer_1
 62
1
100
AcDbPolyline
 90
2
 70
1
 10
427.337608
 20
474.419876
 30
0.0
 10
427.337608
 20
474.419876
 30
0.0
  0
SPLINE
  5
252
100
AcDbEntity
  8
Layer_1
 62
1
100
AcDbSpline
 70
8
 71
3
 72
8
 73
4
 74
0
 40
0
 40
0
 40
0
 40
0
 40
1
 40
1
 40
1
 40
1
 10
427.337608
 20
303.031156
 30
0.0
 10
427.337608
 20
298.721388
 30
0.0
 10
425.617093
 20
294.588137
 30
0.0
 10
422.554556
 20
291.540671
 30
0.0
  0
SPLINE
  5
253
100
AcDbEntity
  8
Layer_1
 62
1
100
AcDbSpline
 70
8
 71
3
 72
8
 73
4
 74
0
 40
0
 40
0
 40
0
 40
0
 40
1
 40
1
 40
1
 40
1
 10
422.554556
 20
291.540671
 30
0.0
 10
419.492020
 20
288.493204
 30
0.0
 10
415.338329
 20
286.781156
 30
0.0
 10
411.007248
 20
286.781156
 30
0.0
  0
SPLINE
  5
254
100
AcDbEntity
  8
Layer_1
 62
1
100
AcDbSpline
 70
8
 71
3
 72
8
 73
4
 74
0
 40
0
 40
0
 40
0
 40
0
 40
1
 40
1
 40
1
 40
1
 10
411.007248
 20
286.781156
 30
0.0
 10
406.676167
 20
286.781156
 30
0.0
 10
402.522476
 20
288.493204
 30
0.0
 10
399.459940
 20
291.540671
 30
0.0
  0
SPLINE
  5
255
100
AcDbEntity
  8
Layer_1
 62
1
100
AcDbSpline
 70
8
 71
3
 72
8
 73
4
 74
0
 40
0
 40
0
 40
0
 40
0
 40
1
 40
1
 40
1
 40
1
 10
399.459940
 20
291.540671
 30
0.0
 10
396.397403
 20
294.588137
 30
0.0
 10
394.676888
 20
298.721388
 30
0.0
 10
394.676888
 20
303.031156
 30
0.0
  0
SPLINE
  5
256
100
AcDbEntity
  8
Layer_1
 62
1
100
AcDbSpline
 70
8
 71
3
 72
8
 73
4
 74
0
 40
0
 40
0
 40
0
 40
0
 40
1
 40
1
 40
1
 40
1
 10
394.676888
 20
303.031156
 30
0.0
 10
394.676888
 20
307.340924
 30
0.0
 10
396.397403
 20
311.474175
 30
0.0
 10
399.459940
 20
314.521641
 30
0.0
  0
SPLINE
  5
257
100
AcDbEntity
  8
Layer_1
 62
1
100
AcDbSpline
 70
8
 71
3
 72
8
 73
4
 74
0
 40
0
 40
0
 40
0
 40
0
 40
1
 40
1
 40
1
 40
1
 10
399.459940
 20
314.521641
 30
0.0
 10
402.522476
 20
317.569108
 30
0.0
 10
406.676167
 20
319.281156
 30
0.0
 10
411.007248
 20
319.281156
 30
0.0
  0
SPLINE
  5
258
100
AcDbEntity
  8
Layer_1
 62
1
100
AcDbSpline
 70
8
 71
3
 72
8
 73
4
 74
0
 40
0
 40
0
 40
0
 40
0
 40
1
 40
1
 40
1
 40
1
 10
411.007248
 20
319.281156
 30
0.0
 10
415.338329
 20
319.281156
 30
0.0
 10
419.492020
 20
317.569108
 30
0.0
 10
422.554556
 20
314.521641
 30
0.0
  0
SPLINE
  5
259
100
AcDbEntity
  8
Layer_1
 62
1
100
AcDbSpline
 70
8
 71
3
 72
8
 73
4
 74
0
 40
0
 40
0
 40
0
 40
0
 40
1
 40
1
 40
1
 40
1
 10
422.554556
 20
314.521641
 30
0.0
 10
425.617093
 20
311.474175
 30
0.0
 10
427.337608
 20
307.340924
 30
0.0
 10
427.337608
 20
303.031156
 30
0.0
  0
LWPOLYLINE
  5
25a
100
AcDbEntity
  8
Layer_1
 62
1
100
AcDbPolyline
 90
2
 70
1
 10
427.389776
 20
378.775348
 30
0.0
 10
427.389776
 20
378.775348
 30
0.0
  0
SPLINE
  5
25b
100
AcDbEntity
  8
Layer_1
 62
1
100
AcDbSpline
 70
8
 71
3
 72
8
 73
4
 74
0
 40
0
 40
0
 40
0
 40
0
 40
1
 40
1
 40
1
 40
1
 10
427.337608
 20
207.647660
 30
0.0
 10
427.337608
 20
203.337892
 30
0.0
 10
425.617093
 20
199.204641
 30
0.0
 10
422.554556
 20
196.157175
 30
0.0
  0
SPLINE
  5
25c
100
AcDbEntity
  8
Layer_1
 62
1
100
AcDbSpline
 70
8
 71
3
 72
8
 73
4
 74
0
 40
0
 40
0
 40
0
 40
0
 40
1
 40
1
 40
1
 40
1
 10
422.554556
 20
196.157175
 30
0.0
 10
419.492020
 20
193.109708
 30
0.0
 10
415.338329
 20
191.397660
 30
0.0
 10
411.007248
 20
191.397660
 30
0.0
  0
SPLINE
  5
25d
100
AcDbEntity
  8
Layer_1
 62
1
100
AcDbSpline
 70
8
 71
3
 72
8
 73
4
 74
0
 40
0
 40
0
 40
0
 40
0
 40
1
 40
1
 40
1
 40
1
 10
411.007248
 20
191.397660
 30
0.0
 10
406.676167
 20
191.397660
 30
0.0
 10
402.522476
 20
193.109708
 30
0.0
 10
399.459940
 20
196.157175
 30
0.0
  0
SPLINE
  5
25e
100
AcDbEntity
  8
Layer_1
 62
1
100
AcDbSpline
 70
8
 71
3
 72
8
 73
4
 74
0
 40
0
 40
0
 40
0
 40
0
 40
1
 40
1
 40
1
 40
1
 10
399.459940
 20
196.157175
 30
0.0
 10
396.397403
 20
199.204641
 30
0.0
 10
394.676888
 20
203.337892
 30
0.0
 10
394.676888
 20
207.647660
 30
0.0
  0
SPLINE
  5
25f
100
AcDbEntity
  8
Layer_1
 62
1
100
AcDbSpline
 70
8
 71
3
 72
8
 73
4
 74
0
 40
0
 40
0
 40
0
 40
0
 40
1
 40
1
 40
1
 40
1
 10
394.676888
 20
207.647660
 30
0.0
 10
394.676888
 20
211.957428
 30
0.0
 10
396.397403
 20
216.090679
 30
0.0
 10
399.459940
 20
219.138145
 30
0.0
  0
SPLINE
  5
260
100
AcDbEntity
  8
Layer_1
 62
1
100
AcDbSpline
 70
8
 71
3
 72
8
 73
4
 74
0
 40
0
 40
0
 40
0
 40
0
 40
1
 40
1
 40
1
 40
1
 10
399.459940
 20
219.138145
 30
0.0
 10
402.522476
 20
222.185612
 30
0.0
 10
406.676167
 20
223.897660
 30
0.0
 10
411.007248
 20
223.897660
 30
0.0
  0
SPLINE
  5
261
100
AcDbEntity
  8
Layer_1
 62
1
100
AcDbSpline
 70
8
 71
3
 72
8
 73
4
 74
0
 40
0
 40
0
 40
0
 40
0
 40
1
 40
1
 40
1
 40
1
 10
411.007248
 20
223.897660
 30
0.0
 10
415.338329
 20
223.897660
 30
0.0
 10
419.492020
 20
222.185612
 30
0.0
 10
422.554556
 20
219.138145
 30
0.0
  0
SPLINE
  5
262
100
AcDbEntity
  8
Layer_1
 62
1
100
AcDbSpline
 70
8
 71
3
 72
8
 73
4
 74
0
 40
0
 40
0
 40
0
 40
0
 40
1
 40
1
 40
1
 40
1
 10
422.554556
 20
219.138145
 30
0.0
 10
425.617093
 20
216.090679
 30
0.0
 10
427.337608
 20
211.957428
 30
0.0
 10
427.337608
 20
207.647660
 30
0.0
  0
LWPOLYLINE
  5
263
100
AcDbEntity
  8
Layer_1
 62
1
100
AcDbPolyline
 90
2
 70
1
 10
427.337608
 20
303.031156
 30
0.0
 10
427.337608
 20
303.031156
 30
0.0
  0
SPLINE
  5
264
100
AcDbEntity
  8
Layer_1
 62
1
100
AcDbSpline
 70
8
 71
3
 72
8
 73
4
 74
0
 40
0
 40
0
 40
0
 40
0
 40
1
 40
1
 40
1
 40
1
 10
427.337608
 20
133.100300
 30
0.0
 10
427.337608
 20
128.790532
 30
0.0
 10
425.617093
 20
124.657281
 30
0.0
 10
422.554556
 20
121.609815
 30
0.0
  0
SPLINE
  5
265
100
AcDbEntity
  8
Layer_1
 62
1
100
AcDbSpline
 70
8
 71
3
 72
8
 73
4
 74
0
 40
0
 40
0
 40
0
 40
0
 40
1
 40
1
 40
1
 40
1
 10
422.554556
 20
121.609815
 30
0.0
 10
419.492020
 20
118.562348
 30
0.0
 10
415.338329
 20
116.850300
 30
0.0
 10
411.007248
 20
116.850300
 30
0.0
  0
SPLINE
  5
266
100
AcDbEntity
  8
Layer_1
 62
1
100
AcDbSpline
 70
8
 71
3
 72
8
 73
4
 74
0
 40
0
 40
0
 40
0
 40
0
 40
1
 40
1
 40
1
 40
1
 10
411.007248
 20
116.850300
 30
0.0
 10
406.676167
 20
116.850300
 30
0.0
 10
402.522476
 20
118.562348
 30
0.0
 10
399.459940
 20
121.609815
 30
0.0
  0
SPLINE
  5
267
100
AcDbEntity
  8
Layer_1
 62
1
100
AcDbSpline
 70
8
 71
3
 72
8
 73
4
 74
0
 40
0
 40
0
 40
0
 40
0
 40
1
 40
1
 40
1
 40
1
 10
399.459940
 20
121.609815
 30
0.0
 10
396.397403
 20
124.657281
 30
0.0
 10
394.676888
 20
128.790532
 30
0.0
 10
394.676888
 20
133.100300
 30
0.0
  0
SPLINE
  5
268
100
AcDbEntity
  8
Layer_1
 62
1
100
AcDbSpline
 70
8
 71
3
 72
8
 73
4
 74
0
 40
0
 40
0
 40
0
 40
0
 40
1
 40
1
 40
1
 40
1
 10
394.676888
 20
133.100300
 30
0.0
 10
394.676888
 20
137.410068
 30
0.0
 10
396.397403
 20
141.543319
 30
0.0
 10
399.459940
 20
144.590785
 30
0.0
  0
SPLINE
  5
269
100
AcDbEntity
  8
Layer_1
 62
1
100
AcDbSpline
 70
8
 71
3
 72
8
 73
4
 74
0
 40
0
 40
0
 40
0
 40
0
 40
1
 40
1
 40
1
 40
1
 10
399.459940
 20
144.590785
 30
0.0
 10
402.522476
 20
147.638252
 30
0.0
 10
406.676167
 20
149.350300
 30
0.0
 10
411.007248
 20
149.350300
 30
0.0
  0
SPLINE
  5
26a
100
AcDbEntity
  8
Layer_1
 62
1
100
AcDbSpline
 70
8
 71
3
 72
8
 73
4
 74
0
 40
0
 40
0
 40
0
 40
0
 40
1
 40
1
 40
1
 40
1
 10
411.007248
 20
149.350300
 30
0.0
 10
415.338329
 20
149.350300
 30
0.0
 10
419.492020
 20
147.638252
 30
0.0
 10
422.554556
 20
144.590785
 30
0.0
  0
SPLINE
  5
26b
100
AcDbEntity
  8
Layer_1
 62
1
100
AcDbSpline
 70
8
 71
3
 72
8
 73
4
 74
0
 40
0
 40
0
 40
0
 40
0
 40
1
 40
1
 40
1
 40
1
 10
422.554556
 20
144.590785
 30
0.0
 10
425.617093
 20
141.543319
 30
0.0
 10
427.337608
 20
137.410068
 30
0.0
 10
427.337608
 20
133.100300
 30
0.0
  0
LWPOLYLINE
  5
26c
100
AcDbEntity
  8
Layer_1
 62
1
100
AcDbPolyline
 90
2
 70
1
 10
427.337608
 20
207.647660
 30
0.0
 10
427.337608
 20
207.647660
 30
0.0
  0
SPLINE
  5
26d
100
AcDbEntity
  8
Layer_1
 62
1
100
AcDbSpline
 70
8
 71
3
 72
8
 73
4
 74
0
 40
0
 40
0
 40
0
 40
0
 40
1
 40
1
 40
1
 40
1
 10
427.337608
 20
39.319844
 30
0.0
 10
427.337608
 20
35.010076
 30
0.0
 10
425.617093
 20
30.876825
 30
0.0
 10
422.554556
 20
27.829359
 30
0.0
  0
SPLINE
  5
26e
100
AcDbEntity
  8
Layer_1
 62
1
100
AcDbSpline
 70
8
 71
3
 72
8
 73
4
 74
0
 40
0
 40
0
 40
0
 40
0
 40
1
 40
1
 40
1
 40
1
 10
422.554556
 20
27.829359
 30
0.0
 10
419.492020
 20
24.781892
 30
0.0
 10
415.338329
 20
23.069844
 30
0.0
 10
411.007248
 20
23.069844
 30
0.0
  0
SPLINE
  5
26f
100
AcDbEntity
  8
Layer_1
 62
1
100
AcDbSpline
 70
8
 71
3
 72
8
 73
4
 74
0
 40
0
 40
0
 40
0
 40
0
 40
1
 40
1
 40
1
 40
1
 10
411.007248
 20
23.069844
 30
0.0
 10
406.676167
 20
23.069844
 30
0.0
 10
402.522476
 20
24.781892
 30
0.0
 10
399.459940
 20
27.829359
 30
0.0
  0
SPLINE
  5
270
100
AcDbEntity
  8
Layer_1
 62
1
100
AcDbSpline
 70
8
 71
3
 72
8
 73
4
 74
0
 40
0
 40
0
 40
0
 40
0
 40
1
 40
1
 40
1
 40
1
 10
399.459940
 20
27.829359
 30
0.0
 10
396.397403
 20
30.876825
 30
0.0
 10
394.676888
 20
35.010076
 30
0.0
 10
394.676888
 20
39.319844
 30
0.0
  0
SPLINE
  5
271
100
AcDbEntity
  8
Layer_1
 62
1
100
AcDbSpline
 70
8
 71
3
 72
8
 73
4
 74
0
 40
0
 40
0
 40
0
 40
0
 40
1
 40
1
 40
1
 40
1
 10
394.676888
 20
39.319844
 30
0.0
 10
394.676897
 20
48.294465
 30
0.0
 10
401.988246
 20
55.569828
 30
0.0
 10
411.007248
 20
55.569828
 30
0.0
  0
SPLINE
  5
272
100
AcDbEntity
  8
Layer_1
 62
1
100
AcDbSpline
 70
8
 71
3
 72
8
 73
4
 74
0
 40
0
 40
0
 40
0
 40
0
 40
1
 40
1
 40
1
 40
1
 10
411.007248
 20
55.569828
 30
0.0
 10
420.026250
 20
55.569828
 30
0.0
 10
427.337599
 20
48.294465
 30
0.0
 10
427.337608
 20
39.319844
 30
0.0
  0
LWPOLYLINE
  5
273
100
AcDbEntity
  8
Layer_1
 62
1
100
AcDbPolyline
 90
2
 70
1
 10
427.337608
 20
133.100300
 30
0.0
 10
427.337608
 20
133.100300
 30
0.0
  0
SPLINE
  5
274
100
AcDbEntity
  8
Layer_1
 62
1
100
AcDbSpline
 70
8
 71
3
 72
8
 73
4
 74
0
 40
0
 40
0
 40
0
 40
0
 40
1
 40
1
 40
1
 40
1
 10
482.937608
 20
325.831156
 30
0.0
 10
482.937608
 20
321.521388
 30
0.0
 10
481.217093
 20
317.388137
 30
0.0
 10
478.154556
 20
314.340671
 30
0.0
  0
SPLINE
  5
275
100
AcDbEntity
  8
Layer_1
 62
1
100
AcDbSpline
 70
8
 71
3
 72
8
 73
4
 74
0
 40
0
 40
0
 40
0
 40
0
 40
1
 40
1
 40
1
 40
1
 10
478.154556
 20
314.340671
 30
0.0
 10
475.092020
 20
311.293204
 30
0.0
 10
470.938329
 20
309.581156
 30
0.0
 10
466.607248
 20
309.581156
 30
0.0
  0
SPLINE
  5
276
100
AcDbEntity
  8
Layer_1
 62
1
100
AcDbSpline
 70
8
 71
3
 72
8
 73
4
 74
0
 40
0
 40
0
 40
0
 40
0
 40
1
 40
1
 40
1
 40
1
 10
466.607248
 20
309.581156
 30
0.0
 10
462.276167
 20
309.581156
 30
0.0
 10
458.122476
 20
311.293204
 30
0.0
 10
455.059940
 20
314.340671
 30
0.0
  0
SPLINE
  5
277
100
AcDbEntity
  8
Layer_1
 62
1
100
AcDbSpline
 70
8
 71
3
 72
8
 73
4
 74
0
 40
0
 40
0
 40
0
 40
0
 40
1
 40
1
 40
1
 40
1
 10
455.059940
 20
314.340671
 30
0.0
 10
451.997403
 20
317.388137
 30
0.0
 10
450.276888
 20
321.521388
 30
0.0
 10
450.276888
 20
325.831156
 30
0.0
  0
SPLINE
  5
278
100
AcDbEntity
  8
Layer_1
 62
1
100
AcDbSpline
 70
8
 71
3
 72
8
 73
4
 74
0
 40
0
 40
0
 40
0
 40
0
 40
1
 40
1
 40
1
 40
1
 10
450.276888
 20
325.831156
 30
0.0
 10
450.276888
 20
330.140924
 30
0.0
 10
451.997403
 20
334.274175
 30
0.0
 10
455.059940
 20
337.321641
 30
0.0
  0
SPLINE
  5
279
100
AcDbEntity
  8
Layer_1
 62
1
100
AcDbSpline
 70
8
 71
3
 72
8
 73
4
 74
0
 40
0
 40
0
 40
0
 40
0
 40
1
 40
1
 40
1
 40
1
 10
455.059940
 20
337.321641
 30
0.0
 10
458.122476
 20
340.369108
 30
0.0
 10
462.276167
 20
342.081156
 30
0.0
 10
466.607248
 20
342.081156
 30
0.0
  0
SPLINE
  5
27a
100
AcDbEntity
  8
Layer_1
 62
1
100
AcDbSpline
 70
8
 71
3
 72
8
 73
4
 74
0
 40
0
 40
0
 40
0
 40
0
 40
1
 40
1
 40
1
 40
1
 10
466.607248
 20
342.081156
 30
0.0
 10
470.938329
 20
342.081156
 30
0.0
 10
475.092020
 20
340.369108
 30
0.0
 10
478.154556
 20
337.321641
 30
0.0
  0
SPLINE
  5
27b
100
AcDbEntity
  8
Layer_1
 62
1
100
AcDbSpline
 70
8
 71
3
 72
8
 73
4
 74
0
 40
0
 40
0
 40
0
 40
0
 40
1
 40
1
 40
1
 40
1
 10
478.154556
 20
337.321641
 30
0.0
 10
481.217093
 20
334.274175
 30
0.0
 10
482.937608
 20
330.140924
 30
0.0
 10
482.937608
 20
325.831156
 30
0.0
  0
LWPOLYLINE
  5
27c
100
AcDbEntity
  8
Layer_1
 62
1
100
AcDbPolyline
 90
2
 70
1
 10
427.337608
 20
39.319844
 30
0.0
 10
427.337608
 20
39.319844
 30
0.0
  0
SPLINE
  5
27d
100
AcDbEntity
  8
Layer_1
 62
1
100
AcDbSpline
 70
8
 71
3
 72
8
 73
4
 74
0
 40
0
 40
0
 40
0
 40
0
 40
1
 40
1
 40
1
 40
1
 10
482.937608
 20
245.247660
 30
0.0
 10
482.937608
 20
240.937892
 30
0.0
 10
481.217093
 20
236.804641
 30
0.0
 10
478.154556
 20
233.757175
 30
0.0
  0
SPLINE
  5
27e
100
AcDbEntity
  8
Layer_1
 62
1
100
AcDbSpline
 70
8
 71
3
 72
8
 73
4
 74
0
 40
0
 40
0
 40
0
 40
0
 40
1
 40
1
 40
1
 40
1
 10
478.154556
 20
233.757175
 30
0.0
 10
475.092020
 20
230.709708
 30
0.0
 10
470.938329
 20
228.997660
 30
0.0
 10
466.607248
 20
228.997660
 30
0.0
  0
SPLINE
  5
27f
100
AcDbEntity
  8
Layer_1
 62
1
100
AcDbSpline
 70
8
 71
3
 72
8
 73
4
 74
0
 40
0
 40
0
 40
0
 40
0
 40
1
 40
1
 40
1
 40
1
 10
466.607248
 20
228.997660
 30
0.0
 10
462.276167
 20
228.997660
 30
0.0
 10
458.122476
 20
230.709708
 30
0.0
 10
455.059940
 20
233.757175
 30
0.0
  0
SPLINE
  5
280
100
AcDbEntity
  8
Layer_1
 62
1
100
AcDbSpline
 70
8
 71
3
 72
8
 73
4
 74
0
 40
0
 40
0
 40
0
 40
0
 40
1
 40
1
 40
1
 40
1
 10
455.059940
 20
233.757175
 30
0.0
 10
451.997403
 20
236.804641
 30
0.0
 10
450.276888
 20
240.937892
 30
0.0
 10
450.276888
 20
245.247660
 30
0.0
  0
SPLINE
  5
281
100
AcDbEntity
  8
Layer_1
 62
1
100
AcDbSpline
 70
8
 71
3
 72
8
 73
4
 74
0
 40
0
 40
0
 40
0
 40
0
 40
1
 40
1
 40
1
 40
1
 10
450.276888
 20
245.247660
 30
0.0
 10
450.276888
 20
249.557428
 30
0.0
 10
451.997403
 20
253.690679
 30
0.0
 10
455.059940
 20
256.738145
 30
0.0
  0
SPLINE
  5
282
100
AcDbEntity
  8
Layer_1
 62
1
100
AcDbSpline
 70
8
 71
3
 72
8
 73
4
 74
0
 40
0
 40
0
 40
0
 40
0
 40
1
 40
1
 40
1
 40
1
 10
455.059940
 20
256.738145
 30
0.0
 10
458.122476
 20
259.785612
 30
0.0
 10
462.276167
 20
261.497660
 30
0.0
 10
466.607248
 20
261.497660
 30
0.0
  0
SPLINE
  5
283
100
AcDbEntity
  8
Layer_1
 62
1
100
AcDbSpline
 70
8
 71
3
 72
8
 73
4
 74
0
 40
0
 40
0
 40
0
 40
0
 40
1
 40
1
 40
1
 40
1
 10
466.607248
 20
261.497660
 30
0.0
 10
470.938329
 20
261.497660
 30
0.0
 10
475.092020
 20
259.785612
 30
0.0
 10
478.154556
 20
256.738145
 30
0.0
  0
SPLINE
  5
284
100
AcDbEntity
  8
Layer_1
 62
1
100
AcDbSpline
 70
8
 71
3
 72
8
 73
4
 74
0
 40
0
 40
0
 40
0
 40
0
 40
1
 40
1
 40
1
 40
1
 10
478.154556
 20
256.738145
 30
0.0
 10
481.217093
 20
253.690679
 30
0.0
 10
482.937608
 20
249.557428
 30
0.0
 10
482.937608
 20
245.247660
 30
0.0
  0
LWPOLYLINE
  5
285
100
AcDbEntity
  8
Layer_1
 62
1
100
AcDbPolyline
 90
2
 70
1
 10
482.937608
 20
325.831156
 30
0.0
 10
482.937608
 20
325.831156
 30
0.0
  0
SPLINE
  5
286
100
AcDbEntity
  8
Layer_1
 62
1
100
AcDbSpline
 70
8
 71
3
 72
8
 73
4
 74
0
 40
0
 40
0
 40
0
 40
0
 40
1
 40
1
 40
1
 40
1
 10
482.937608
 20
147.500300
 30
0.0
 10
482.937608
 20
143.190532
 30
0.0
 10
481.217093
 20
139.057281
 30
0.0
 10
478.154556
 20
136.009815
 30
0.0
  0
SPLINE
  5
287
100
AcDbEntity
  8
Layer_1
 62
1
100
AcDbSpline
 70
8
 71
3
 72
8
 73
4
 74
0
 40
0
 40
0
 40
0
 40
0
 40
1
 40
1
 40
1
 40
1
 10
478.154556
 20
136.009815
 30
0.0
 10
475.092020
 20
132.962348
 30
0.0
 10
470.938329
 20
131.250300
 30
0.0
 10
466.607248
 20
131.250300
 30
0.0
  0
SPLINE
  5
288
100
AcDbEntity
  8
Layer_1
 62
1
100
AcDbSpline
 70
8
 71
3
 72
8
 73
4
 74
0
 40
0
 40
0
 40
0
 40
0
 40
1
 40
1
 40
1
 40
1
 10
466.607248
 20
131.250300
 30
0.0
 10
462.276167
 20
131.250300
 30
0.0
 10
458.122476
 20
132.962348
 30
0.0
 10
455.059940
 20
136.009815
 30
0.0
  0
SPLINE
  5
289
100
AcDbEntity
  8
Layer_1
 62
1
100
AcDbSpline
 70
8
 71
3
 72
8
 73
4
 74
0
 40
0
 40
0
 40
0
 40
0
 40
1
 40
1
 40
1
 40
1
 10
455.059940
 20
136.009815
 30
0.0
 10
451.997403
 20
139.057281
 30
0.0
 10
450.276888
 20
143.190532
 30
0.0
 10
450.276888
 20
147.500300
 30
0.0
  0
SPLINE
  5
28a
100
AcDbEntity
  8
Layer_1
 62
1
100
AcDbSpline
 70
8
 71
3
 72
8
 73
4
 74
0
 40
0
 40
0
 40
0
 40
0
 40
1
 40
1
 40
1
 40
1
 10
450.276888
 20
147.500300
 30
0.0
 10
450.276888
 20
151.810068
 30
0.0
 10
451.997403
 20
155.943319
 30
0.0
 10
455.059940
 20
158.990785
 30
0.0
  0
SPLINE
  5
28b
100
AcDbEntity
  8
Layer_1
 62
1
100
AcDbSpline
 70
8
 71
3
 72
8
 73
4
 74
0
 40
0
 40
0
 40
0
 40
0
 40
1
 40
1
 40
1
 40
1
 10
455.059940
 20
158.990785
 30
0.0
 10
458.122476
 20
162.038252
 30
0.0
 10
462.276167
 20
163.750300
 30
0.0
 10
466.607248
 20
163.750300
 30
0.0
  0
SPLINE
  5
28c
100
AcDbEntity
  8
Layer_1
 62
1
100
AcDbSpline
 70
8
 71
3
 72
8
 73
4
 74
0
 40
0
 40
0
 40
0
 40
0
 40
1
 40
1
 40
1
 40
1
 10
466.607248
 20
163.750300
 30
0.0
 10
470.938329
 20
163.750300
 30
0.0
 10
475.092020
 20
162.038252
 30
0.0
 10
478.154556
 20
158.990785
 30
0.0
  0
SPLINE
  5
28d
100
AcDbEntity
  8
Layer_1
 62
1
100
AcDbSpline
 70
8
 71
3
 72
8
 73
4
 74
0
 40
0
 40
0
 40
0
 40
0
 40
1
 40
1
 40
1
 40
1
 10
478.154556
 20
158.990785
 30
0.0
 10
481.217093
 20
155.943319
 30
0.0
 10
482.937608
 20
151.810068
 30
0.0
 10
482.937608
 20
147.500300
 30
0.0
  0
LWPOLYLINE
  5
28e
100
AcDbEntity
  8
Layer_1
 62
1
100
AcDbPolyline
 90
2
 70
1
 10
482.937608
 20
245.247660
 30
0.0
 10
482.937608
 20
245.247660
 30
0.0
  0
SPLINE
  5
28f
100
AcDbEntity
  8
Layer_1
 62
1
100
AcDbSpline
 70
8
 71
3
 72
8
 73
4
 74
0
 40
0
 40
0
 40
0
 40
0
 40
1
 40
1
 40
1
 40
1
 10
482.937608
 20
67.719828
 30
0.0
 10
482.937608
 20
63.410060
 30
0.0
 10
481.217093
 20
59.276809
 30
0.0
 10
478.154556
 20
56.229343
 30
0.0
  0
SPLINE
  5
290
100
AcDbEntity
  8
Layer_1
 62
1
100
AcDbSpline
 70
8
 71
3
 72
8
 73
4
 74
0
 40
0
 40
0
 40
0
 40
0
 40
1
 40
1
 40
1
 40
1
 10
478.154556
 20
56.229343
 30
0.0
 10
475.092020
 20
53.181876
 30
0.0
 10
470.938329
 20
51.469828
 30
0.0
 10
466.607248
 20
51.469828
 30
0.0
  0
SPLINE
  5
291
100
AcDbEntity
  8
Layer_1
 62
1
100
AcDbSpline
 70
8
 71
3
 72
8
 73
4
 74
0
 40
0
 40
0
 40
0
 40
0
 40
1
 40
1
 40
1
 40
1
 10
466.607248
 20
51.469828
 30
0.0
 10
462.276167
 20
51.469828
 30
0.0
 10
458.122476
 20
53.181876
 30
0.0
 10
455.059940
 20
56.229343
 30
0.0
  0
SPLINE
  5
292
100
AcDbEntity
  8
Layer_1
 62
1
100
AcDbSpline
 70
8
 71
3
 72
8
 73
4
 74
0
 40
0
 40
0
 40
0
 40
0
 40
1
 40
1
 40
1
 40
1
 10
455.059940
 20
56.229343
 30
0.0
 10
451.997403
 20
59.276809
 30
0.0
 10
450.276888
 20
63.410060
 30
0.0
 10
450.276888
 20
67.719828
 30
0.0
  0
SPLINE
  5
293
100
AcDbEntity
  8
Layer_1
 62
1
100
AcDbSpline
 70
8
 71
3
 72
8
 73
4
 74
0
 40
0
 40
0
 40
0
 40
0
 40
1
 40
1
 40
1
 40
1
 10
450.276888
 20
67.719828
 30
0.0
 10
450.276888
 20
72.029596
 30
0.0
 10
451.997403
 20
76.162847
 30
0.0
 10
455.059940
 20
79.210313
 30
0.0
  0
SPLINE
  5
294
100
AcDbEntity
  8
Layer_1
 62
1
100
AcDbSpline
 70
8
 71
3
 72
8
 73
4
 74
0
 40
0
 40
0
 40
0
 40
0
 40
1
 40
1
 40
1
 40
1
 10
455.059940
 20
79.210313
 30
0.0
 10
458.122476
 20
82.257780
 30
0.0
 10
462.276167
 20
83.969828
 30
0.0
 10
466.607248
 20
83.969828
 30
0.0
  0
SPLINE
  5
295
100
AcDbEntity
  8
Layer_1
 62
1
100
AcDbSpline
 70
8
 71
3
 72
8
 73
4
 74
0
 40
0
 40
0
 40
0
 40
0
 40
1
 40
1
 40
1
 40
1
 10
466.607248
 20
83.969828
 30
0.0
 10
470.938329
 20
83.969828
 30
0.0
 10
475.092020
 20
82.257780
 30
0.0
 10
478.154556
 20
79.210313
 30
0.0
  0
SPLINE
  5
296
100
AcDbEntity
  8
Layer_1
 62
1
100
AcDbSpline
 70
8
 71
3
 72
8
 73
4
 74
0
 40
0
 40
0
 40
0
 40
0
 40
1
 40
1
 40
1
 40
1
 10
478.154556
 20
79.210313
 30
0.0
 10
481.217093
 20
76.162847
 30
0.0
 10
482.937608
 20
72.029596
 30
0.0
 10
482.937608
 20
67.719828
 30
0.0
  0
LWPOLYLINE
  5
297
100
AcDbEntity
  8
Layer_1
 62
1
100
AcDbPolyline
 90
2
 70
1
 10
482.937608
 20
147.500300
 30
0.0
 10
482.937608
 20
147.500300
 30
0.0
  0
LWPOLYLINE
  5
298
100
AcDbEntity
  8
Layer_1
 62
1
100
AcDbPolyline
 90
2
 70
1
 10
482.937608
 20
67.719828
 30
0.0
 10
482.937608
 20
67.719828
 30
0.0
  0
LWPOLYLINE
  5
299
100
AcDbEntity
  8
Layer_1
 62
7
100
AcDbPolyline
 90
2
 70
0
 10
383.198883
 20
754.907074
 30
0.0
 10
438.974069
 20
754.907074
 30
0.0
  0
LWPOLYLINE
  5
29a
100
AcDbEntity
  8
Layer_1
 62
7
100
AcDbPolyline
 90
4
 70
0
 10
438.970245
 20
755.105730
 30
0.0
 10
436.662307
 20
776.698274
 30
0.0
 10
385.887655
 20
777.105682
 30
0.0
 10
383.195060
 20
755.105730
 30
0.0
  0
LWPOLYLINE
  5
29b
100
AcDbEntity
  8
Layer_1
 62
7
100
AcDbPolyline
 90
2
 70
0
 10
438.927248
 20
-5.591516
 30
0.0
 10
438.927248
 20
755.208516
 30
0.0
  0
LWPOLYLINE
  5
29c
100
AcDbEntity
  8
Layer_1
 62
7
100
AcDbPolyline
 90
2
 70
0
 10
494.447248
 20
-5.431516
 30
0.0
 10
494.447248
 20
401.928516
 30
0.0
  0
LWPOLYLINE
  5
29d
100
AcDbEntity
  8
Layer_1
 62
7
100
AcDbPolyline
 90
2
 70
0
 10
327.647248
 20
1.459844
 30
0.0
 10
327.647248
 20
725.139884
 30
0.0
  0
LWPOLYLINE
  5
29e
100
AcDbEntity
  8
Layer_1
 62
7
100
AcDbPolyline
 90
2
 70
0
 10
383.327240
 20
-1.740236
 30
0.0
 10
383.327240
 20
754.899868
 30
0.0
  0
LWPOLYLINE
  5
29f
100
AcDbEntity
  8
Layer_1
 62
7
100
AcDbPolyline
 90
2
 70
0
 10
216.687248
 20
7.368484
 30
0.0
 10
216.687248
 20
651.326412
 30
0.0
  0
LWPOLYLINE
  5
2a0
100
AcDbEntity
  8
Layer_1
 62
7
100
AcDbPolyline
 90
2
 70
0
 10
272.207248
 20
5.128484
 30
0.0
 10
272.207248
 20
651.048524
 30
0.0
  0
LWPOLYLINE
  5
2a1
100
AcDbEntity
  8
Layer_1
 62
7
100
AcDbPolyline
 90
2
 70
0
 10
105.087248
 20
9.619844
 30
0.0
 10
105.087248
 20
754.899884
 30
0.0
  0
LWPOLYLINE
  5
2a2
100
AcDbEntity
  8
Layer_1
 62
7
100
AcDbPolyline
 90
2
 70
0
 10
160.927240
 20
7.379844
 30
0.0
 10
160.927240
 20
755.219868
 30
0.0
  0
LWPOLYLINE
  5
2a3
100
AcDbEntity
  8
Layer_1
 62
7
100
AcDbPolyline
 90
2
 70
0
 10
327.518886
 20
725.307074
 30
0.0
 10
383.294071
 20
725.307074
 30
0.0
  0
LWPOLYLINE
  5
2a4
100
AcDbEntity
  8
Layer_1
 62
7
100
AcDbPolyline
 90
4
 70
0
 10
383.290248
 20
725.505730
 30
0.0
 10
380.982309
 20
747.098274
 30
0.0
 10
330.207657
 20
747.505682
 30
0.0
 10
327.515062
 20
725.505730
 30
0.0
  0
LWPOLYLINE
  5
2a5
100
AcDbEntity
  8
Layer_1
 62
7
100
AcDbPolyline
 90
2
 70
0
 10
272.158888
 20
623.067076
 30
0.0
 10
327.934074
 20
623.067076
 30
0.0
  0
LWPOLYLINE
  5
2a6
100
AcDbEntity
  8
Layer_1
 62
7
100
AcDbPolyline
 90
4
 70
0
 10
327.930250
 20
623.265732
 30
0.0
 10
325.622311
 20
644.858276
 30
0.0
 10
274.847660
 20
645.265684
 30
0.0
 10
272.155065
 20
623.265732
 30
0.0
  0
LWPOLYLINE
  5
2a7
100
AcDbEntity
  8
Layer_1
 62
7
100
AcDbPolyline
 90
2
 70
0
 10
216.478888
 20
651.707078
 30
0.0
 10
272.254074
 20
651.707078
 30
0.0
  0
LWPOLYLINE
  5
2a8
100
AcDbEntity
  8
Layer_1
 62
7
100
AcDbPolyline
 90
4
 70
0
 10
272.250250
 20
651.814325
 30
0.0
 10
269.942311
 20
663.471303
 30
0.0
 10
219.167660
 20
663.691247
 30
0.0
 10
216.475065
 20
651.814325
 30
0.0
  0
LWPOLYLINE
  5
2a9
100
AcDbEntity
  8
Layer_1
 62
7
100
AcDbPolyline
 90
2
 70
0
 10
160.958888
 20
606.907077
 30
0.0
 10
216.734074
 20
606.907077
 30
0.0
  0
LWPOLYLINE
  5
2aa
100
AcDbEntity
  8
Layer_1
 62
7
100
AcDbPolyline
 90
4
 70
0
 10
216.730250
 20
607.003776
 30
0.0
 10
214.422311
 20
617.514343
 30
0.0
 10
163.647660
 20
617.712656
 30
0.0
 10
160.955065
 20
607.003776
 30
0.0
  0
LWPOLYLINE
  5
2ab
100
AcDbEntity
  8
Layer_1
 62
7
100
AcDbPolyline
 90
2
 70
0
 10
105.118888
 20
754.747073
 30
0.0
 10
160.894074
 20
754.747073
 30
0.0
  0
LWPOLYLINE
  5
2ac
100
AcDbEntity
  8
Layer_1
 62
7
100
AcDbPolyline
 90
4
 70
0
 10
160.890250
 20
754.861351
 30
0.0
 10
158.582311
 20
767.282604
 30
0.0
 10
107.807660
 20
767.516968
 30
0.0
 10
105.115065
 20
754.861351
 30
0.0
  0
LWPOLYLINE
  5
2ad
100
AcDbEntity
  8
Layer_1
 62
7
100
AcDbPolyline
 90
2
 70
0
 10
104.755424
 20
9.888484
 30
0.0
 10
160.488768
 20
9.888484
 30
0.0
  0
LWPOLYLINE
  5
2ae
100
AcDbEntity
  8
Layer_1
 62
7
100
AcDbPolyline
 90
2
 70
0
 10
161.022096
 20
7.755204
 30
0.0
 10
216.755432
 20
7.755204
 30
0.0
  0
LWPOLYLINE
  5
2af
100
AcDbEntity
  8
Layer_1
 62
7
100
AcDbPolyline
 90
2
 70
0
 10
216.488760
 20
7.355204
 30
0.0
 10
272.222096
 20
7.355204
 30
0.0
  0
LWPOLYLINE
  5
2b0
100
AcDbEntity
  8
Layer_1
 62
7
100
AcDbPolyline
 90
2
 70
0
 10
271.688760
 20
4.821844
 30
0.0
 10
327.422096
 20
4.821844
 30
0.0
  0
LWPOLYLINE
  5
2b1
100
AcDbEntity
  8
Layer_1
 62
7
100
AcDbPolyline
 90
2
 70
0
 10
327.288760
 20
1.488484
 30
0.0
 10
383.022096
 20
1.488484
 30
0.0
  0
LWPOLYLINE
  5
2b2
100
AcDbEntity
  8
Layer_1
 62
7
100
AcDbPolyline
 90
2
 70
0
 10
382.888760
 20
-2.111516
 30
0.0
 10
438.622096
 20
-2.111516
 30
0.0
  0
LWPOLYLINE
  5
2b3
100
AcDbEntity
  8
Layer_1
 62
7
100
AcDbPolyline
 90
2
 70
0
 10
438.622096
 20
-5.044876
 30
0.0
 10
494.355432
 20
-5.044876
 30
0.0
  0
LWPOLYLINE
  5
2b4
100
AcDbEntity
  8
Layer_1
 62
7
100
AcDbPolyline
 90
2
 70
0
 10
438.793912
 20
401.741844
 30
0.0
 10
494.527248
 20
401.741844
 30
0.0
  0
ENDSEC
  0
SECTION
  2
OBJECTS
  0
DICTIONARY
  5
C
330
0
100
AcDbDictionary
  3
ACAD_GROUP
350
D
  3
ACAD_MLINESTYLE
350
17
  0
DICTIONARY
  5
D
330
C
100
AcDbDictionary
  0
DICTIONARY
  5
1A
330
C
100
AcDbDictionary
  0
DICTIONARY
  5
17
330
C
100
AcDbDictionary
  3
STANDARD
350
18
  0
DICTIONARY
  5
19
330
C
100
AcDbDictionary
  0
ENDSEC
  0
EOF
