  0
SECTION
  2
HEADER
  9
$ACADVER
  1
AC1014
  9
$HANDSEED
  5
FFFF
  9
$MEASUREMENT
 70
     1
  0
ENDSEC
  0
SECTION
  2
TABLES
  0
TABLE
  2
VPORT
  5
8
330
0
100
AcDbSymbolTable
 70
     4
  0
VPORT
  5
2E
330
8
100
AcDbSymbolTableRecord
100
AcDbViewportTableRecord
  2
*ACTIVE
 70
     0
 10
0.0
 20
0.0
 11
1.0
 21
1.0
 12
210.0
 22
148.5
 13
0.0
 23
0.0
 14
10.0
 24
10.0
 15
10.0
 25
10.0
 16
0.0
 26
0.0
 36
1.0
 17
0.0
 27
0.0
 37
0.0
 40
341.0
 41
1.24
 42
50.0
 43
0.0
 44
0.0
 50
0.0
 51
0.0
 71
     0
 72
   100
 73
     1
 74
     3
 75
     0
 76
     0
 77
     0
 78
     0
  0
ENDTAB
  0
TABLE
  2
LTYPE
  5
5
330
0
100
AcDbSymbolTable
 70
     1
  0
LTYPE
  5
14
330
5
100
AcDbSymbolTableRecord
100
AcDbLinetypeTableRecord
  2
BYBLOCK
 70
     0
  3

 72
    65
 73
     0
 40
0.0
  0
LTYPE
  5
15
330
5
100
AcDbSymbolTableRecord
100
AcDbLinetypeTableRecord
  2
BYLAYER
 70
     0
  3

 72
    65
 73
     0
 40
0.0
  0
LTYPE
  5
16
330
5
100
AcDbSymbolTableRecord
100
AcDbLinetypeTableRecord
  2
CONTINUOUS
 70
     0
  3
Solid line
 72
    65
 73
     0
 40
0.0
  0
ENDTAB
  0
TABLE
  2
LAYER
  5
2
100
AcDbSymbolTable
 70
2
  0
LAYER
  5
50
100
AcDbSymbolTableRecord
100
AcDbLayerTableRecord
  2
0
 70
0
  6
CONTINUOUS
  0
LAYER
  5
51
100
AcDbSymbolTableRecord
100
AcDbLayerTableRecord
  2
Layer_1
 70
0
  6
CONTINUOUS
  0
ENDTAB
  0
TABLE
  2
STYLE
  5
3
330
0
100
AcDbSymbolTable
 70
     1
  0
STYLE
  5
11
330
3
100
AcDbSymbolTableRecord
100
AcDbTextStyleTableRecord
  2
STANDARD
 70
     0
 40
0.0
 41
1.0
 50
0.0
 71
     0
 42
2.5
  3
txt
  4

  0
ENDTAB
  0
TABLE
  2
VIEW
  5
6
330
0
100
AcDbSymbolTable
 70
     0
  0
ENDTAB
  0
TABLE
  2
UCS
  5
7
330
0
100
AcDbSymbolTable
 70
     0
  0
ENDTAB
  0
TABLE
  2
APPID
  5
9
330
0
100
AcDbSymbolTable
 70
     2
  0
APPID
  5
12
330
9
100
AcDbSymbolTableRecord
100
AcDbRegAppTableRecord
  2
ACAD
 70
     0
  0
ENDTAB
  0
TABLE
  2
DIMSTYLE
  5
A
330
0
100
AcDbSymbolTable
 70
     1
  0
DIMSTYLE
105
27
330
A
100
AcDbSymbolTableRecord
100
AcDbDimStyleTableRecord
  2
ISO-25
 70
     0
  3

  4

  5

  6

  7

 40
1.0
 41
2.5
 42
0.625
 43
3.75
 44
1.25
 45
0.0
 46
0.0
 47
0.0
 48
0.0
140
2.5
141
2.5
142
0.0
143
0.03937007874016
144
1.0
145
0.0
146
1.0
147
0.625
 71
     0
 72
     0
 73
     0
 74
     0
 75
     0
 76
     0
 77
     1
 78
     8
170
     0
171
     3
172
     1
173
     0
174
     0
175
     0
176
     0
177
     0
178
     0
270
     2
271
     2
272
     2
273
     2
274
     3
340
11
275
     0
280
     0
281
     0
282
     0
283
     0
284
     8
285
     0
286
     0
287
     3
288
     0
  0
ENDTAB
  0
TABLE
  2
BLOCK_RECORD
  5
1
330
0
100
AcDbSymbolTable
 70
     1
  0
BLOCK_RECORD
  5
1F
330
1
100
AcDbSymbolTableRecord
100
AcDbBlockTableRecord
  2
*MODEL_SPACE
  0
BLOCK_RECORD
  5
1B
330
1
100
AcDbSymbolTableRecord
100
AcDbBlockTableRecord
  2
*PAPER_SPACE
  0
ENDTAB
  0
ENDSEC
  0
SECTION
  2
BLOCKS
  0
BLOCK
  5
20
330
1F
100
AcDbEntity
  8
0
100
AcDbBlockBegin
  2
*MODEL_SPACE
 70
     0
 10
0.0
 20
0.0
 30
0.0
  3
*MODEL_SPACE
  1

  0
ENDBLK
  5
21
330
1F
100
AcDbEntity
  8
0
100
AcDbBlockEnd
  0
BLOCK
  5
1C
330
1B
100
AcDbEntity
 67
     1
  8
0
100
AcDbBlockBegin
  2
*PAPER_SPACE
  1

  0
ENDBLK
  5
1D
330
1B
100
AcDbEntity
 67
     1
  8
0
100
AcDbBlockEnd
  0
ENDSEC
  0
SECTION
  2
ENTITIES
  0
SPLINE
  5
100
100
AcDbEntity
  8
Layer_1
 62
7
100
AcDbSpline
 70
0
 71
3
 72
10
 73
6
 74
4
 40
0.000000
 40
0.000000
 40
0.000000
 40
0.000000
 40
41.771357
 40
82.339953
 40
123.483566
 40
123.483566
 40
123.483566
 40
123.483566
 10
142.934800
 20
760.759820
 30
0.0
 10
139.691867
 20
747.168202
 30
0.0
 10
133.299379
 20
720.376323
 30
0.0
 10
134.930649
 20
678.675659
 30
0.0
 10
141.938812
 20
652.317834
 30
0.0
 10
145.467552
 20
639.046180
 30
0.0
 11
142.934800
 21
760.759820
 31
0.0
 11
135.131093
 21
719.723879
 31
0.0
 11
136.384443
 21
679.174649
 31
0.0
 11
145.467552
 21
639.046180
 31
0.0
  0
SPLINE
  5
101
100
AcDbEntity
  8
Layer_1
 62
7
100
AcDbSpline
 70
0
 71
3
 72
10
 73
6
 74
4
 40
0.000000
 40
0.000000
 40
0.000000
 40
0.000000
 40
33.516790
 40
65.287595
 40
94.993089
 40
94.993089
 40
94.993089
 40
94.993089
 10
145.467552
 20
639.046180
 30
0.0
 10
156.314215
 20
641.700832
 30
0.0
 10
177.442507
 20
646.871847
 30
0.0
 10
207.650189
 20
656.884475
 30
0.0
 10
225.500330
 20
667.039529
 30
0.0
 10
234.125560
 20
671.946476
 30
0.0
 11
145.467552
 21
639.046180
 31
0.0
 11
177.910839
 21
647.460949
 31
0.0
 11
207.853121
 21
658.083744
 31
0.0
 11
234.125560
 21
671.946476
 31
0.0
  0
SPLINE
  5
102
100
AcDbEntity
  8
Layer_1
 62
7
100
AcDbSpline
 70
0
 71
3
 72
10
 73
6
 74
4
 40
0.000000
 40
0.000000
 40
0.000000
 40
0.000000
 40
43.011561
 40
72.085141
 40
98.033102
 40
98.033102
 40
98.033102
 40
98.033102
 10
302.566496
 20
671.599564
 30
0.0
 10
314.862204
 20
664.191334
 30
0.0
 10
335.469170
 20
651.775527
 30
0.0
 10
365.618171
 20
638.934665
 30
0.0
 10
383.115809
 20
633.424808
 30
0.0
 10
391.367632
 20
630.826380
 30
0.0
 11
302.566496
 21
671.599564
 31
0.0
 11
340.009736
 21
650.433597
 31
0.0
 11
366.740349
 21
638.999115
 31
0.0
 11
391.367632
 21
630.826380
 31
0.0
  0
SPLINE
  5
103
100
AcDbEntity
  8
Layer_1
 62
7
100
AcDbSpline
 70
0
 71
3
 72
10
 73
6
 74
4
 40
0.000000
 40
0.000000
 40
0.000000
 40
0.000000
 40
40.219745
 40
80.523685
 40
122.319114
 40
122.319114
 40
122.319114
 40
122.319114
 10
391.367632
 20
630.826380
 30
0.0
 10
394.308700
 20
643.904641
 30
0.0
 10
400.196993
 20
670.088541
 30
0.0
 10
403.271849
 20
711.139414
 30
0.0
 10
398.293160
 20
738.151226
 30
0.0
 10
395.758592
 20
751.902492
 30
0.0
 11
391.367632
 21
630.826380
 31
0.0
 11
399.226833
 21
670.270782
 31
0.0
 11
401.537119
 21
710.508453
 31
0.0
 11
395.758592
 21
751.902492
 31
0.0
  0
LWPOLYLINE
  5
104
100
AcDbEntity
  8
Layer_1
 62
7
100
AcDbPolyline
 90
2
 70
1
 10
234.125560
 20
671.946476
 30
0.0
 10
302.566496
 20
671.599564
 30
0.0
  0
SPLINE
  5
105
100
AcDbEntity
  8
Layer_1
 62
7
100
AcDbSpline
 70
0
 71
3
 72
10
 73
6
 74
4
 40
0.000000
 40
0.000000
 40
0.000000
 40
0.000000
 40
31.283921
 40
63.015231
 40
97.308786
 40
97.308786
 40
97.308786
 40
97.308786
 10
395.758592
 20
751.902492
 30
0.0
 10
385.359567
 20
751.265643
 30
0.0
 10
364.412802
 20
749.982838
 30
0.0
 10
332.266041
 20
742.915222
 30
0.0
 10
313.450200
 20
731.204089
 30
0.0
 10
303.677184
 20
725.121284
 30
0.0
 11
395.758592
 21
751.902492
 31
0.0
 11
364.593352
 21
749.180087
 31
0.0
 11
333.804499
 21
741.503982
 31
0.0
 11
303.677184
 21
725.121284
 31
0.0
  0
LWPOLYLINE
  5
106
100
AcDbEntity
  8
Layer_1
 62
7
100
AcDbPolyline
 90
2
 70
1
 10
303.677184
 20
725.121284
 30
0.0
 10
234.421792
 20
724.019540
 30
0.0
  0
LWPOLYLINE
  5
107
100
AcDbEntity
  8
Layer_1
 62
7
100
AcDbPolyline
 90
2
 70
1
 10
142.934800
 20
760.759820
 30
0.0
 10
142.934800
 20
760.759820
 30
0.0
  0
SPLINE
  5
108
100
AcDbEntity
  8
Layer_1
 62
7
100
AcDbSpline
 70
0
 71
3
 72
10
 73
6
 74
4
 40
0.000000
 40
0.000000
 40
0.000000
 40
0.000000
 40
25.158068
 40
56.476782
 40
100.006531
 40
100.006531
 40
100.006531
 40
100.006531
 10
234.421792
 20
724.019540
 30
0.0
 10
227.760504
 20
729.133943
 30
0.0
 10
212.806730
 20
740.615152
 30
0.0
 10
182.090392
 20
754.683245
 30
0.0
 10
157.332999
 20
758.525356
 30
0.0
 10
142.934800
 20
760.759820
 30
0.0
 11
234.421792
 21
724.019540
 31
0.0
 11
213.963140
 21
738.660986
 31
0.0
 11
185.531351
 21
751.794731
 31
0.0
 11
142.934800
 21
760.759820
 31
0.0
  0
LWPOLYLINE
  5
109
100
AcDbEntity
  8
Layer_1
 62
7
100
AcDbPolyline
 90
2
 70
1
 10
467.852296
 20
608.934164
 30
0.0
 10
529.064568
 20
608.934164
 30
0.0
  0
SPLINE
  5
10a
100
AcDbEntity
  8
Layer_1
 62
7
100
AcDbSpline
 70
0
 71
3
 72
10
 73
6
 74
4
 40
0.000000
 40
0.000000
 40
0.000000
 40
0.000000
 40
2.161724
 40
4.254554
 40
6.416278
 40
6.416278
 40
6.416278
 40
6.416278
 10
529.064568
 20
608.934164
 30
0.0
 10
529.789288
 20
608.821476
 30
0.0
 10
531.215631
 20
608.599692
 30
0.0
 10
532.859497
 20
606.955827
 30
0.0
 10
533.081280
 20
605.529484
 30
0.0
 10
533.193968
 20
604.804764
 30
0.0
 11
529.064568
 21
608.934164
 31
0.0
 11
531.151903
 21
608.371954
 31
0.0
 11
532.631758
 21
606.892099
 31
0.0
 11
533.193968
 21
604.804764
 31
0.0
  0
LWPOLYLINE
  5
10b
100
AcDbEntity
  8
Layer_1
 62
7
100
AcDbPolyline
 90
2
 70
1
 10
533.193968
 20
604.804764
 30
0.0
 10
533.193968
 20
553.794532
 30
0.0
  0
SPLINE
  5
10c
100
AcDbEntity
  8
Layer_1
 62
7
100
AcDbSpline
 70
0
 71
3
 72
10
 73
6
 74
4
 40
0.000000
 40
0.000000
 40
0.000000
 40
0.000000
 40
2.161724
 40
4.254554
 40
6.416278
 40
6.416278
 40
6.416278
 40
6.416278
 10
533.193968
 20
553.794532
 30
0.0
 10
533.081280
 20
553.069812
 30
0.0
 10
532.859497
 20
551.643469
 30
0.0
 10
531.215631
 20
549.999603
 30
0.0
 10
529.789288
 20
549.777819
 30
0.0
 10
529.064568
 20
549.665132
 30
0.0
 11
533.193968
 21
553.794532
 31
0.0
 11
532.631758
 21
551.707196
 31
0.0
 11
531.151903
 21
550.227342
 31
0.0
 11
529.064568
 21
549.665132
 31
0.0
  0
LWPOLYLINE
  5
10d
100
AcDbEntity
  8
Layer_1
 62
7
100
AcDbPolyline
 90
2
 70
1
 10
529.064568
 20
549.665132
 30
0.0
 10
467.852296
 20
549.665132
 30
0.0
  0
SPLINE
  5
10e
100
AcDbEntity
  8
Layer_1
 62
7
100
AcDbSpline
 70
0
 71
3
 72
10
 73
6
 74
4
 40
0.000000
 40
0.000000
 40
0.000000
 40
0.000000
 40
2.161724
 40
4.254554
 40
6.416278
 40
6.416278
 40
6.416278
 40
6.416278
 10
467.852296
 20
549.665132
 30
0.0
 10
467.127576
 20
549.777819
 30
0.0
 10
465.701233
 20
549.999603
 30
0.0
 10
464.057367
 20
551.643469
 30
0.0
 10
463.835584
 20
553.069812
 30
0.0
 10
463.722896
 20
553.794532
 30
0.0
 11
467.852296
 21
549.665132
 31
0.0
 11
465.764961
 21
550.227342
 31
0.0
 11
464.285106
 21
551.707196
 31
0.0
 11
463.722896
 21
553.794532
 31
0.0
  0
LWPOLYLINE
  5
10f
100
AcDbEntity
  8
Layer_1
 62
7
100
AcDbPolyline
 90
2
 70
1
 10
463.722896
 20
553.794532
 30
0.0
 10
463.722896
 20
604.804764
 30
0.0
  0
LWPOLYLINE
  5
110
100
AcDbEntity
  8
Layer_1
 62
7
100
AcDbPolyline
 90
2
 70
1
 10
467.852296
 20
608.934164
 30
0.0
 10
467.852296
 20
608.934164
 30
0.0
  0
LWPOLYLINE
  5
111
100
AcDbEntity
  8
Layer_1
 62
3
100
AcDbPolyline
 90
15
 70
1
 10
349.682832
 20
571.177140
 30
0.0
 10
355.281584
 20
577.747300
 30
0.0
 10
357.936888
 20
577.793620
 30
0.0
 10
361.011840
 20
581.420332
 30
0.0
 10
360.997520
 20
577.743884
 30
0.0
 10
363.969584
 20
577.807884
 30
0.0
 10
360.930072
 20
574.373284
 30
0.0
 10
360.990712
 20
571.130780
 30
0.0
 10
355.356512
 20
564.393060
 30
0.0
 10
355.334752
 20
567.681876
 30
0.0
 10
358.321120
 20
571.201652
 30
0.0
 10
355.278184
 20
571.116468
 30
0.0
 10
355.338184
 20
574.810636
 30
0.0
 10
352.256408
 20
571.166212
 30
0.0
 10
349.682832
 20
571.177140
 30
0.0
  0
LWPOLYLINE
  5
112
100
AcDbEntity
  8
Layer_1
 62
3
100
AcDbPolyline
 90
15
 70
1
 10
326.863624
 20
571.472356
 30
0.0
 10
332.462392
 20
578.042516
 30
0.0
 10
335.117688
 20
578.088836
 30
0.0
 10
338.192632
 20
581.715540
 30
0.0
 10
338.178392
 20
578.039092
 30
0.0
 10
341.150448
 20
578.103092
 30
0.0
 10
338.110944
 20
574.668484
 30
0.0
 10
338.171584
 20
571.425988
 30
0.0
 10
332.537384
 20
564.688260
 30
0.0
 10
332.515624
 20
567.977076
 30
0.0
 10
335.501992
 20
571.496852
 30
0.0
 10
332.459056
 20
571.411676
 30
0.0
 10
332.519056
 20
575.105828
 30
0.0
 10
329.437280
 20
571.461404
 30
0.0
 10
326.863624
 20
571.472356
 30
0.0
  0
LWPOLYLINE
  5
113
100
AcDbEntity
  8
Layer_1
 62
3
100
AcDbPolyline
 90
15
 70
1
 10
326.874192
 20
558.078996
 30
0.0
 10
332.472944
 20
564.649172
 30
0.0
 10
335.128256
 20
564.695492
 30
0.0
 10
338.203200
 20
568.322204
 30
0.0
 10
338.188880
 20
564.645756
 30
0.0
 10
341.160944
 20
564.709756
 30
0.0
 10
338.121432
 20
561.275148
 30
0.0
 10
338.182072
 20
558.032652
 30
0.0
 10
332.547872
 20
551.294924
 30
0.0
 10
332.526112
 20
554.583740
 30
0.0
 10
335.512464
 20
558.103516
 30
0.0
 10
332.469536
 20
558.018340
 30
0.0
 10
332.529536
 20
561.712508
 30
0.0
 10
329.447752
 20
558.068068
 30
0.0
 10
326.874192
 20
558.078996
 30
0.0
  0
LWPOLYLINE
  5
114
100
AcDbEntity
  8
Layer_1
 62
3
100
AcDbPolyline
 90
15
 70
1
 10
315.497904
 20
571.663060
 30
0.0
 10
321.096656
 20
578.233220
 30
0.0
 10
323.751968
 20
578.279540
 30
0.0
 10
326.826912
 20
581.906252
 30
0.0
 10
326.812592
 20
578.229804
 30
0.0
 10
329.784656
 20
578.293804
 30
0.0
 10
326.745144
 20
574.859204
 30
0.0
 10
326.805784
 20
571.616700
 30
0.0
 10
321.171592
 20
564.878980
 30
0.0
 10
321.149832
 20
568.167796
 30
0.0
 10
324.136184
 20
571.687572
 30
0.0
 10
321.093256
 20
571.602388
 30
0.0
 10
321.153256
 20
575.296556
 30
0.0
 10
318.071472
 20
571.652132
 30
0.0
 10
315.497904
 20
571.663060
 30
0.0
  0
LWPOLYLINE
  5
115
100
AcDbEntity
  8
Layer_1
 62
3
100
AcDbPolyline
 90
15
 70
1
 10
315.439520
 20
558.047300
 30
0.0
 10
321.038272
 20
564.617476
 30
0.0
 10
323.693576
 20
564.663796
 30
0.0
 10
326.768528
 20
568.290500
 30
0.0
 10
326.754208
 20
564.614060
 30
0.0
 10
329.726272
 20
564.678060
 30
0.0
 10
326.686760
 20
561.243460
 30
0.0
 10
326.747400
 20
558.000956
 30
0.0
 10
321.113208
 20
551.263220
 30
0.0
 10
321.091448
 20
554.552052
 30
0.0
 10
324.077816
 20
558.071820
 30
0.0
 10
321.034880
 20
557.986644
 30
0.0
 10
321.094880
 20
561.680796
 30
0.0
 10
318.013096
 20
558.036372
 30
0.0
 10
315.439520
 20
558.047300
 30
0.0
  0
LWPOLYLINE
  5
116
100
AcDbEntity
  8
Layer_1
 62
3
100
AcDbPolyline
 90
15
 70
1
 10
315.428952
 20
544.352052
 30
0.0
 10
321.027712
 20
550.922220
 30
0.0
 10
323.683016
 20
550.968540
 30
0.0
 10
326.757960
 20
554.595244
 30
0.0
 10
326.743640
 20
550.918796
 30
0.0
 10
329.715696
 20
550.982796
 30
0.0
 10
326.676192
 20
547.548188
 30
0.0
 10
326.736832
 20
544.305684
 30
0.0
 10
321.102640
 20
537.567964
 30
0.0
 10
321.080880
 20
540.856780
 30
0.0
 10
324.067248
 20
544.376556
 30
0.0
 10
321.024312
 20
544.291372
 30
0.0
 10
321.084312
 20
547.985532
 30
0.0
 10
318.002528
 20
544.341108
 30
0.0
 10
315.428952
 20
544.352052
 30
0.0
  0
LWPOLYLINE
  5
117
100
AcDbEntity
  8
Layer_1
 62
3
100
AcDbPolyline
 90
15
 70
1
 10
338.208224
 20
571.371724
 30
0.0
 10
343.806992
 20
577.941900
 30
0.0
 10
346.462288
 20
577.988220
 30
0.0
 10
349.537232
 20
581.614924
 30
0.0
 10
349.522992
 20
577.938484
 30
0.0
 10
352.495040
 20
578.002484
 30
0.0
 10
349.455536
 20
574.567876
 30
0.0
 10
349.516176
 20
571.325380
 30
0.0
 10
343.881976
 20
564.587644
 30
0.0
 10
343.860216
 20
567.876468
 30
0.0
 10
346.846584
 20
571.396244
 30
0.0
 10
343.803656
 20
571.311068
 30
0.0
 10
343.863656
 20
575.005220
 30
0.0
 10
340.781880
 20
571.360796
 30
0.0
 10
338.208224
 20
571.371724
 30
0.0
  0
LWPOLYLINE
  5
118
100
AcDbEntity
  8
Layer_1
 62
3
100
AcDbPolyline
 90
15
 70
1
 10
326.985384
 20
544.563876
 30
0.0
 10
332.584144
 20
551.134052
 30
0.0
 10
335.239456
 20
551.180372
 30
0.0
 10
338.314392
 20
554.807084
 30
0.0
 10
338.300072
 20
551.130636
 30
0.0
 10
341.272136
 20
551.194636
 30
0.0
 10
338.232616
 20
547.760028
 30
0.0
 10
338.293256
 20
544.517532
 30
0.0
 10
332.659056
 20
537.779804
 30
0.0
 10
332.637296
 20
541.068620
 30
0.0
 10
335.623656
 20
544.588396
 30
0.0
 10
332.580728
 20
544.503220
 30
0.0
 10
332.640728
 20
548.197388
 30
0.0
 10
329.558944
 20
544.552948
 30
0.0
 10
326.985384
 20
544.563876
 30
0.0
  0
LWPOLYLINE
  5
119
100
AcDbEntity
  8
Layer_1
 62
3
100
AcDbPolyline
 90
15
 70
1
 10
338.298304
 20
557.957244
 30
0.0
 10
343.897064
 20
564.527404
 30
0.0
 10
346.552360
 20
564.573724
 30
0.0
 10
349.627312
 20
568.200436
 30
0.0
 10
349.612992
 20
564.523988
 30
0.0
 10
352.585048
 20
564.587988
 30
0.0
 10
349.545536
 20
561.153380
 30
0.0
 10
349.606176
 20
557.910876
 30
0.0
 10
343.971976
 20
551.173148
 30
0.0
 10
343.950216
 20
554.461972
 30
0.0
 10
346.936584
 20
557.981740
 30
0.0
 10
343.893656
 20
557.896564
 30
0.0
 10
343.953656
 20
561.590716
 30
0.0
 10
340.871880
 20
557.946292
 30
0.0
 10
338.298304
 20
557.957244
 30
0.0
  0
LWPOLYLINE
  5
11a
100
AcDbEntity
  8
Layer_1
 62
3
100
AcDbPolyline
 90
15
 70
1
 10
315.550712
 20
530.836932
 30
0.0
 10
321.149472
 20
537.407100
 30
0.0
 10
323.804768
 20
537.453420
 30
0.0
 10
326.879720
 20
541.080124
 30
0.0
 10
326.865400
 20
537.403676
 30
0.0
 10
329.837464
 20
537.467676
 30
0.0
 10
326.797944
 20
534.033060
 30
0.0
 10
326.858584
 20
530.790564
 30
0.0
 10
321.224384
 20
524.052836
 30
0.0
 10
321.202624
 20
527.341660
 30
0.0
 10
324.188984
 20
530.861428
 30
0.0
 10
321.146048
 20
530.776244
 30
0.0
 10
321.206048
 20
534.470404
 30
0.0
 10
318.124272
 20
530.825980
 30
0.0
 10
315.550712
 20
530.836932
 30
0.0
  0
LWPOLYLINE
  5
11b
100
AcDbEntity
  8
Layer_1
 62
3
100
AcDbPolyline
 90
15
 70
1
 10
372.118056
 20
611.666460
 30
0.0
 10
377.716816
 20
618.236636
 30
0.0
 10
380.372128
 20
618.282956
 30
0.0
 10
383.447064
 20
621.909668
 30
0.0
 10
383.432744
 20
618.233220
 30
0.0
 10
386.404808
 20
618.297220
 30
0.0
 10
383.365288
 20
614.862628
 30
0.0
 10
383.425928
 20
611.620124
 30
0.0
 10
377.791728
 20
604.882404
 30
0.0
 10
377.769968
 20
608.171220
 30
0.0
 10
380.756328
 20
611.690996
 30
0.0
 10
377.713392
 20
611.605812
 30
0.0
 10
377.773392
 20
615.299972
 30
0.0
 10
374.691608
 20
611.655548
 30
0.0
 10
372.118056
 20
611.666460
 30
0.0
  0
LWPOLYLINE
  5
11c
100
AcDbEntity
  8
Layer_1
 62
3
100
AcDbPolyline
 90
15
 70
1
 10
360.683384
 20
611.634764
 30
0.0
 10
366.282144
 20
618.204940
 30
0.0
 10
368.937440
 20
618.251260
 30
0.0
 10
372.012392
 20
621.877964
 30
0.0
 10
371.998072
 20
618.201532
 30
0.0
 10
374.970136
 20
618.265532
 30
0.0
 10
371.930616
 20
614.830932
 30
0.0
 10
371.991256
 20
611.588428
 30
0.0
 10
366.357056
 20
604.850700
 30
0.0
 10
366.335296
 20
608.139524
 30
0.0
 10
369.321664
 20
611.659300
 30
0.0
 10
366.278736
 20
611.574116
 30
0.0
 10
366.338736
 20
615.268276
 30
0.0
 10
363.256960
 20
611.623852
 30
0.0
 10
360.683384
 20
611.634764
 30
0.0
  0
LWPOLYLINE
  5
11d
100
AcDbEntity
  8
Layer_1
 62
3
100
AcDbPolyline
 90
15
 70
1
 10
360.672816
 20
597.939516
 30
0.0
 10
366.271584
 20
604.509676
 30
0.0
 10
368.926880
 20
604.555996
 30
0.0
 10
372.001824
 20
608.182692
 30
0.0
 10
371.987504
 20
604.506244
 30
0.0
 10
374.959552
 20
604.570244
 30
0.0
 10
371.920048
 20
601.135644
 30
0.0
 10
371.980688
 20
597.893148
 30
0.0
 10
366.346488
 20
591.155428
 30
0.0
 10
366.324728
 20
594.444244
 30
0.0
 10
369.311096
 20
597.964020
 30
0.0
 10
366.268168
 20
597.878836
 30
0.0
 10
366.328168
 20
601.572996
 30
0.0
 10
363.246392
 20
597.928572
 30
0.0
 10
360.672816
 20
597.939516
 30
0.0
  0
LWPOLYLINE
  5
11e
100
AcDbEntity
  8
Layer_1
 62
3
100
AcDbPolyline
 90
15
 70
1
 10
372.229248
 20
598.151340
 30
0.0
 10
377.828008
 20
604.721508
 30
0.0
 10
380.483320
 20
604.767828
 30
0.0
 10
383.558264
 20
608.394540
 30
0.0
 10
383.543944
 20
604.718092
 30
0.0
 10
386.516008
 20
604.782092
 30
0.0
 10
383.476496
 20
601.347484
 30
0.0
 10
383.537136
 20
598.104996
 30
0.0
 10
377.902944
 20
591.367276
 30
0.0
 10
377.881184
 20
594.656092
 30
0.0
 10
380.867536
 20
598.175860
 30
0.0
 10
377.824608
 20
598.090684
 30
0.0
 10
377.884608
 20
601.784844
 30
0.0
 10
374.802824
 20
598.140412
 30
0.0
 10
372.229248
 20
598.151340
 30
0.0
  0
LWPOLYLINE
  5
11f
100
AcDbEntity
  8
Layer_1
 62
3
100
AcDbPolyline
 90
15
 70
1
 10
383.542168
 20
611.544708
 30
0.0
 10
389.140928
 20
618.114876
 30
0.0
 10
391.796232
 20
618.161196
 30
0.0
 10
394.871184
 20
621.787908
 30
0.0
 10
394.856864
 20
618.111460
 30
0.0
 10
397.828928
 20
618.175460
 30
0.0
 10
394.789416
 20
614.740860
 30
0.0
 10
394.850056
 20
611.498356
 30
0.0
 10
389.215864
 20
604.760636
 30
0.0
 10
389.194104
 20
608.049452
 30
0.0
 10
392.180464
 20
611.569228
 30
0.0
 10
389.137536
 20
611.484044
 30
0.0
 10
389.197536
 20
615.178204
 30
0.0
 10
386.115760
 20
611.533780
 30
0.0
 10
383.542168
 20
611.544708
 30
0.0
  0
LWPOLYLINE
  5
120
100
AcDbEntity
  8
Layer_1
 62
3
100
AcDbPolyline
 90
15
 70
1
 10
360.794576
 20
584.424396
 30
0.0
 10
366.393336
 20
590.994556
 30
0.0
 10
369.048640
 20
591.040876
 30
0.0
 10
372.123592
 20
594.667580
 30
0.0
 10
372.109272
 20
590.991132
 30
0.0
 10
375.081336
 20
591.055132
 30
0.0
 10
372.041824
 20
587.620516
 30
0.0
 10
372.102464
 20
584.378020
 30
0.0
 10
366.468272
 20
577.640292
 30
0.0
 10
366.446512
 20
580.929124
 30
0.0
 10
369.432864
 20
584.448892
 30
0.0
 10
366.389936
 20
584.363708
 30
0.0
 10
366.449936
 20
588.057876
 30
0.0
 10
363.368160
 20
584.413444
 30
0.0
 10
360.794576
 20
584.424396
 30
0.0
  0
LWPOLYLINE
  5
121
100
AcDbEntity
  8
Layer_1
 62
3
100
AcDbPolyline
 90
15
 70
1
 10
395.432088
 20
570.687900
 30
0.0
 10
401.030848
 20
577.258060
 30
0.0
 10
403.686144
 20
577.304380
 30
0.0
 10
406.761096
 20
580.931092
 30
0.0
 10
406.746776
 20
577.254644
 30
0.0
 10
409.718840
 20
577.318644
 30
0.0
 10
406.679320
 20
573.884044
 30
0.0
 10
406.739960
 20
570.641540
 30
0.0
 10
401.105760
 20
563.903820
 30
0.0
 10
401.084000
 20
567.192636
 30
0.0
 10
404.070368
 20
570.712412
 30
0.0
 10
401.027440
 20
570.627228
 30
0.0
 10
401.087440
 20
574.321396
 30
0.0
 10
398.005664
 20
570.676972
 30
0.0
 10
395.432088
 20
570.687900
 30
0.0
  0
LWPOLYLINE
  5
122
100
AcDbEntity
  8
Layer_1
 62
3
100
AcDbPolyline
 90
15
 70
1
 10
372.612880
 20
570.983116
 30
0.0
 10
378.211648
 20
577.553276
 30
0.0
 10
380.866944
 20
577.599596
 30
0.0
 10
383.941888
 20
581.226300
 30
0.0
 10
383.927648
 20
577.549852
 30
0.0
 10
386.899696
 20
577.613852
 30
0.0
 10
383.860192
 20
574.179244
 30
0.0
 10
383.920832
 20
570.936748
 30
0.0
 10
378.286632
 20
564.199020
 30
0.0
 10
378.264872
 20
567.487836
 30
0.0
 10
381.251240
 20
571.007612
 30
0.0
 10
378.208312
 20
570.922436
 30
0.0
 10
378.268312
 20
574.616588
 30
0.0
 10
375.186536
 20
570.972164
 30
0.0
 10
372.612880
 20
570.983116
 30
0.0
  0
LWPOLYLINE
  5
123
100
AcDbEntity
  8
Layer_1
 62
3
100
AcDbPolyline
 90
15
 70
1
 10
372.623448
 20
557.589756
 30
0.0
 10
378.222208
 20
564.159932
 30
0.0
 10
380.877512
 20
564.206252
 30
0.0
 10
383.952456
 20
567.832964
 30
0.0
 10
383.938136
 20
564.156516
 30
0.0
 10
386.910192
 20
564.220516
 30
0.0
 10
383.870680
 20
560.785908
 30
0.0
 10
383.931320
 20
557.543412
 30
0.0
 10
378.297120
 20
550.805684
 30
0.0
 10
378.275360
 20
554.094500
 30
0.0
 10
381.261720
 20
557.614276
 30
0.0
 10
378.218784
 20
557.529100
 30
0.0
 10
378.278784
 20
561.223260
 30
0.0
 10
375.196992
 20
557.578828
 30
0.0
 10
372.623448
 20
557.589756
 30
0.0
  0
LWPOLYLINE
  5
124
100
AcDbEntity
  8
Layer_1
 62
3
100
AcDbPolyline
 90
15
 70
1
 10
361.247160
 20
571.173820
 30
0.0
 10
366.845920
 20
577.743980
 30
0.0
 10
369.501224
 20
577.790300
 30
0.0
 10
372.576168
 20
581.417012
 30
0.0
 10
372.561848
 20
577.740564
 30
0.0
 10
375.533904
 20
577.804564
 30
0.0
 10
372.494392
 20
574.369964
 30
0.0
 10
372.555032
 20
571.127460
 30
0.0
 10
366.920832
 20
564.389740
 30
0.0
 10
366.899072
 20
567.678556
 30
0.0
 10
369.885432
 20
571.198332
 30
0.0
 10
366.842496
 20
571.113148
 30
0.0
 10
366.902496
 20
574.807316
 30
0.0
 10
363.820704
 20
571.162892
 30
0.0
 10
361.247160
 20
571.173820
 30
0.0
  0
LWPOLYLINE
  5
125
100
AcDbEntity
  8
Layer_1
 62
3
100
AcDbPolyline
 90
15
 70
1
 10
361.188776
 20
557.558060
 30
0.0
 10
366.787536
 20
564.128236
 30
0.0
 10
369.442832
 20
564.174556
 30
0.0
 10
372.517784
 20
567.801260
 30
0.0
 10
372.503464
 20
564.124820
 30
0.0
 10
375.475520
 20
564.188820
 30
0.0
 10
372.436008
 20
560.754220
 30
0.0
 10
372.496648
 20
557.511716
 30
0.0
 10
366.862448
 20
550.773980
 30
0.0
 10
366.840688
 20
554.062812
 30
0.0
 10
369.827056
 20
557.582580
 30
0.0
 10
366.784120
 20
557.497404
 30
0.0
 10
366.844120
 20
561.191556
 30
0.0
 10
363.762344
 20
557.547132
 30
0.0
 10
361.188776
 20
557.558060
 30
0.0
  0
LWPOLYLINE
  5
126
100
AcDbEntity
  8
Layer_1
 62
3
100
AcDbPolyline
 90
15
 70
1
 10
361.178208
 20
543.862812
 30
0.0
 10
366.776976
 20
550.432980
 30
0.0
 10
369.432272
 20
550.479300
 30
0.0
 10
372.507216
 20
554.106004
 30
0.0
 10
372.492896
 20
550.429556
 30
0.0
 10
375.464944
 20
550.493556
 30
0.0
 10
372.425440
 20
547.058948
 30
0.0
 10
372.486080
 20
543.816444
 30
0.0
 10
366.851880
 20
537.078724
 30
0.0
 10
366.830120
 20
540.367540
 30
0.0
 10
369.816488
 20
543.887316
 30
0.0
 10
366.773552
 20
543.802132
 30
0.0
 10
366.833552
 20
547.496292
 30
0.0
 10
363.751776
 20
543.851868
 30
0.0
 10
361.178208
 20
543.862812
 30
0.0
  0
LWPOLYLINE
  5
127
100
AcDbEntity
  8
Layer_1
 62
3
100
AcDbPolyline
 90
15
 70
1
 10
383.957480
 20
570.882484
 30
0.0
 10
389.556248
 20
577.452660
 30
0.0
 10
392.211552
 20
577.498980
 30
0.0
 10
395.286496
 20
581.125684
 30
0.0
 10
395.272256
 20
577.449244
 30
0.0
 10
398.244312
 20
577.513244
 30
0.0
 10
395.204808
 20
574.078636
 30
0.0
 10
395.265448
 20
570.836140
 30
0.0
 10
389.631256
 20
564.098404
 30
0.0
 10
389.609496
 20
567.387228
 30
0.0
 10
392.595856
 20
570.907004
 30
0.0
 10
389.552928
 20
570.821828
 30
0.0
 10
389.612928
 20
574.515980
 30
0.0
 10
386.531152
 20
570.871556
 30
0.0
 10
383.957480
 20
570.882484
 30
0.0
  0
LWPOLYLINE
  5
128
100
AcDbEntity
  8
Layer_1
 62
3
100
AcDbPolyline
 90
15
 70
1
 10
372.734640
 20
544.074636
 30
0.0
 10
378.333400
 20
550.644812
 30
0.0
 10
380.988712
 20
550.691132
 30
0.0
 10
384.063656
 20
554.317844
 30
0.0
 10
384.049336
 20
550.641396
 30
0.0
 10
387.021400
 20
550.705396
 30
0.0
 10
383.981888
 20
547.270788
 30
0.0
 10
384.042528
 20
544.028292
 30
0.0
 10
378.408336
 20
537.290564
 30
0.0
 10
378.386576
 20
540.579380
 30
0.0
 10
381.372928
 20
544.099156
 30
0.0
 10
378.330000
 20
544.013980
 30
0.0
 10
378.390000
 20
547.708148
 30
0.0
 10
375.308216
 20
544.063708
 30
0.0
 10
372.734640
 20
544.074636
 30
0.0
  0
LWPOLYLINE
  5
129
100
AcDbEntity
  8
Layer_1
 62
3
100
AcDbPolyline
 90
15
 70
1
 10
384.047560
 20
557.468004
 30
0.0
 10
389.646320
 20
564.038164
 30
0.0
 10
392.301616
 20
564.084484
 30
0.0
 10
395.376568
 20
567.711188
 30
0.0
 10
395.362248
 20
564.034748
 30
0.0
 10
398.334312
 20
564.098748
 30
0.0
 10
395.294792
 20
560.664140
 30
0.0
 10
395.355432
 20
557.421636
 30
0.0
 10
389.721232
 20
550.683908
 30
0.0
 10
389.699472
 20
553.972724
 30
0.0
 10
392.685840
 20
557.492500
 30
0.0
 10
389.642912
 20
557.407324
 30
0.0
 10
389.702912
 20
561.101476
 30
0.0
 10
386.621136
 20
557.457052
 30
0.0
 10
384.047560
 20
557.468004
 30
0.0
  0
LWPOLYLINE
  5
12a
100
AcDbEntity
  8
Layer_1
 62
3
100
AcDbPolyline
 90
15
 70
1
 10
361.299968
 20
530.347692
 30
0.0
 10
366.898728
 20
536.917860
 30
0.0
 10
369.554032
 20
536.964180
 30
0.0
 10
372.628984
 20
540.590884
 30
0.0
 10
372.614664
 20
536.914436
 30
0.0
 10
375.586728
 20
536.978436
 30
0.0
 10
372.547216
 20
533.543820
 30
0.0
 10
372.607856
 20
530.301324
 30
0.0
 10
366.973664
 20
523.563596
 30
0.0
 10
366.951904
 20
526.852420
 30
0.0
 10
369.938256
 20
530.372188
 30
0.0
 10
366.895328
 20
530.287004
 30
0.0
 10
366.955328
 20
533.981164
 30
0.0
 10
363.873552
 20
530.336740
 30
0.0
 10
361.299968
 20
530.347692
 30
0.0
  0
LWPOLYLINE
  5
12b
100
AcDbEntity
  8
Layer_1
 62
3
100
AcDbPolyline
 90
15
 70
1
 10
314.935048
 20
598.697604
 30
0.0
 10
320.533816
 20
605.267764
 30
0.0
 10
323.189120
 20
605.314084
 30
0.0
 10
326.264064
 20
608.940788
 30
0.0
 10
326.249744
 20
605.264340
 30
0.0
 10
329.221800
 20
605.328340
 30
0.0
 10
326.182296
 20
601.893732
 30
0.0
 10
326.242936
 20
598.651236
 30
0.0
 10
320.608744
 20
591.913508
 30
0.0
 10
320.586984
 20
595.202324
 30
0.0
 10
323.573344
 20
598.722100
 30
0.0
 10
320.530416
 20
598.636924
 30
0.0
 10
320.590416
 20
602.331076
 30
0.0
 10
317.508640
 20
598.686652
 30
0.0
 10
314.935048
 20
598.697604
 30
0.0
  0
LWPOLYLINE
  5
12c
100
AcDbEntity
  8
Layer_1
 62
3
100
AcDbPolyline
 90
15
 70
1
 10
326.491488
 20
598.909420
 30
0.0
 10
332.090248
 20
605.479596
 30
0.0
 10
334.745552
 20
605.525916
 30
0.0
 10
337.820496
 20
609.152636
 30
0.0
 10
337.806176
 20
605.476188
 30
0.0
 10
340.778240
 20
605.540188
 30
0.0
 10
337.738728
 20
602.105588
 30
0.0
 10
337.799368
 20
598.863084
 30
0.0
 10
332.165168
 20
592.125364
 30
0.0
 10
332.143408
 20
595.414180
 30
0.0
 10
335.129768
 20
598.933956
 30
0.0
 10
332.086832
 20
598.848772
 30
0.0
 10
332.146832
 20
602.542940
 30
0.0
 10
329.065040
 20
598.898508
 30
0.0
 10
326.491488
 20
598.909420
 30
0.0
  0
LWPOLYLINE
  5
12d
100
AcDbEntity
  8
Layer_1
 62
3
100
AcDbPolyline
 90
15
 70
1
 10
337.804408
 20
612.302788
 30
0.0
 10
343.403160
 20
618.872956
 30
0.0
 10
346.058464
 20
618.919276
 30
0.0
 10
349.133416
 20
622.545980
 30
0.0
 10
349.119096
 20
618.869532
 30
0.0
 10
352.091160
 20
618.933532
 30
0.0
 10
349.051648
 20
615.498916
 30
0.0
 10
349.112288
 20
612.256412
 30
0.0
 10
343.478096
 20
605.518692
 30
0.0
 10
343.456336
 20
608.807508
 30
0.0
 10
346.442704
 20
612.327284
 30
0.0
 10
343.399768
 20
612.242100
 30
0.0
 10
343.459768
 20
615.936260
 30
0.0
 10
340.377984
 20
612.291836
 30
0.0
 10
337.804408
 20
612.302788
 30
0.0
  0
LWPOLYLINE
  5
12e
100
AcDbEntity
  8
Layer_1
 62
3
100
AcDbPolyline
 90
15
 70
1
 10
315.056816
 20
585.182484
 30
0.0
 10
320.655568
 20
591.752644
 30
0.0
 10
323.310872
 20
591.798964
 30
0.0
 10
326.385824
 20
595.425668
 30
0.0
 10
326.371504
 20
591.749220
 30
0.0
 10
329.343568
 20
591.813220
 30
0.0
 10
326.304056
 20
588.378604
 30
0.0
 10
326.364696
 20
585.136116
 30
0.0
 10
320.730496
 20
578.398380
 30
0.0
 10
320.708736
 20
581.687212
 30
0.0
 10
323.695088
 20
585.206972
 30
0.0
 10
320.652160
 20
585.121796
 30
0.0
 10
320.712160
 20
588.815948
 30
0.0
 10
317.630384
 20
585.171524
 30
0.0
 10
315.056816
 20
585.182484
 30
0.0
  0
LWPOLYLINE
  5
12f
100
AcDbEntity
  8
Layer_1
 62
3
100
AcDbPolyline
 90
15
 70
1
 10
350.199712
 20
516.611204
 30
0.0
 10
355.798472
 20
523.181364
 30
0.0
 10
358.453768
 20
523.227684
 30
0.0
 10
361.528720
 20
526.854396
 30
0.0
 10
361.514400
 20
523.177948
 30
0.0
 10
364.486464
 20
523.241948
 30
0.0
 10
361.446944
 20
519.807348
 30
0.0
 10
361.507584
 20
516.564844
 30
0.0
 10
355.873384
 20
509.827124
 30
0.0
 10
355.851624
 20
513.115940
 30
0.0
 10
358.837992
 20
516.635716
 30
0.0
 10
355.795064
 20
516.550532
 30
0.0
 10
355.855064
 20
520.244700
 30
0.0
 10
352.773288
 20
516.600276
 30
0.0
 10
350.199712
 20
516.611204
 30
0.0
  0
LWPOLYLINE
  5
130
100
AcDbEntity
  8
Layer_1
 62
3
100
AcDbPolyline
 90
15
 70
1
 10
327.380504
 20
516.906412
 30
0.0
 10
332.979272
 20
523.476580
 30
0.0
 10
335.634568
 20
523.522900
 30
0.0
 10
338.709512
 20
527.149604
 30
0.0
 10
338.695272
 20
523.473156
 30
0.0
 10
341.667320
 20
523.537156
 30
0.0
 10
338.627816
 20
520.102548
 30
0.0
 10
338.688456
 20
516.860052
 30
0.0
 10
333.054256
 20
510.122324
 30
0.0
 10
333.032496
 20
513.411140
 30
0.0
 10
336.018864
 20
516.930916
 30
0.0
 10
332.975936
 20
516.845740
 30
0.0
 10
333.035936
 20
520.539892
 30
0.0
 10
329.954160
 20
516.895468
 30
0.0
 10
327.380504
 20
516.906412
 30
0.0
  0
LWPOLYLINE
  5
131
100
AcDbEntity
  8
Layer_1
 62
3
100
AcDbPolyline
 90
15
 70
1
 10
338.725104
 20
516.805788
 30
0.0
 10
344.323872
 20
523.375964
 30
0.0
 10
346.979176
 20
523.422284
 30
0.0
 10
350.054120
 20
527.048988
 30
0.0
 10
350.039880
 20
523.372548
 30
0.0
 10
353.011936
 20
523.436548
 30
0.0
 10
349.972432
 20
520.001940
 30
0.0
 10
350.033072
 20
516.759444
 30
0.0
 10
344.398880
 20
510.021708
 30
0.0
 10
344.377120
 20
513.310532
 30
0.0
 10
347.363480
 20
516.830308
 30
0.0
 10
344.320552
 20
516.745132
 30
0.0
 10
344.380552
 20
520.439284
 30
0.0
 10
341.298776
 20
516.794860
 30
0.0
 10
338.725104
 20
516.805788
 30
0.0
  0
LWPOLYLINE
  5
132
100
AcDbEntity
  8
Layer_1
 62
3
100
AcDbPolyline
 90
15
 70
1
 10
372.612880
 20
516.401028
 30
0.0
 10
378.211648
 20
522.971188
 30
0.0
 10
380.866944
 20
523.017508
 30
0.0
 10
383.941888
 20
526.644212
 30
0.0
 10
383.927648
 20
522.967764
 30
0.0
 10
386.899696
 20
523.031764
 30
0.0
 10
383.860192
 20
519.597164
 30
0.0
 10
383.920832
 20
516.354660
 30
0.0
 10
378.286632
 20
509.616940
 30
0.0
 10
378.264872
 20
512.905756
 30
0.0
 10
381.251240
 20
516.425524
 30
0.0
 10
378.208312
 20
516.340348
 30
0.0
 10
378.268312
 20
520.034508
 30
0.0
 10
375.186536
 20
516.390076
 30
0.0
 10
372.612880
 20
516.401028
 30
0.0
  0
LWPOLYLINE
  5
133
100
AcDbEntity
  8
Layer_1
 62
3
100
AcDbPolyline
 90
15
 70
1
 10
372.623448
 20
503.007668
 30
0.0
 10
378.222208
 20
509.577844
 30
0.0
 10
380.877512
 20
509.624164
 30
0.0
 10
383.952456
 20
513.250876
 30
0.0
 10
383.938136
 20
509.574428
 30
0.0
 10
386.910192
 20
509.638428
 30
0.0
 10
383.870680
 20
506.203828
 30
0.0
 10
383.931320
 20
502.961324
 30
0.0
 10
378.297120
 20
496.223596
 30
0.0
 10
378.275360
 20
499.512420
 30
0.0
 10
381.261720
 20
503.032188
 30
0.0
 10
378.218784
 20
502.947012
 30
0.0
 10
378.278784
 20
506.641180
 30
0.0
 10
375.196992
 20
502.996740
 30
0.0
 10
372.623448
 20
503.007668
 30
0.0
  0
LWPOLYLINE
  5
134
100
AcDbEntity
  8
Layer_1
 62
3
100
AcDbPolyline
 90
15
 70
1
 10
361.247160
 20
516.591732
 30
0.0
 10
366.845920
 20
523.161900
 30
0.0
 10
369.501224
 20
523.208220
 30
0.0
 10
372.576168
 20
526.834932
 30
0.0
 10
372.561848
 20
523.158484
 30
0.0
 10
375.533904
 20
523.222484
 30
0.0
 10
372.494392
 20
519.787884
 30
0.0
 10
372.555032
 20
516.545380
 30
0.0
 10
366.920832
 20
509.807660
 30
0.0
 10
366.899072
 20
513.096476
 30
0.0
 10
369.885432
 20
516.616252
 30
0.0
 10
366.842496
 20
516.531068
 30
0.0
 10
366.902496
 20
520.225236
 30
0.0
 10
363.820704
 20
516.580812
 30
0.0
 10
361.247160
 20
516.591732
 30
0.0
  0
LWPOLYLINE
  5
135
100
AcDbEntity
  8
Layer_1
 62
3
100
AcDbPolyline
 90
15
 70
1
 10
361.188776
 20
502.975972
 30
0.0
 10
366.787536
 20
509.546148
 30
0.0
 10
369.442832
 20
509.592468
 30
0.0
 10
372.517784
 20
513.219172
 30
0.0
 10
372.503464
 20
509.542740
 30
0.0
 10
375.475520
 20
509.606740
 30
0.0
 10
372.436008
 20
506.172140
 30
0.0
 10
372.496648
 20
502.929636
 30
0.0
 10
366.862448
 20
496.191900
 30
0.0
 10
366.840688
 20
499.480732
 30
0.0
 10
369.827056
 20
503.000500
 30
0.0
 10
366.784120
 20
502.915324
 30
0.0
 10
366.844120
 20
506.609484
 30
0.0
 10
363.762344
 20
502.965052
 30
0.0
 10
361.188776
 20
502.975972
 30
0.0
  0
LWPOLYLINE
  5
136
100
AcDbEntity
  8
Layer_1
 62
3
100
AcDbPolyline
 90
15
 70
1
 10
383.957480
 20
516.300396
 30
0.0
 10
389.556248
 20
522.870572
 30
0.0
 10
392.211552
 20
522.916892
 30
0.0
 10
395.286496
 20
526.543596
 30
0.0
 10
395.272256
 20
522.867156
 30
0.0
 10
398.244312
 20
522.931156
 30
0.0
 10
395.204808
 20
519.496556
 30
0.0
 10
395.265448
 20
516.254052
 30
0.0
 10
389.631256
 20
509.516316
 30
0.0
 10
389.609496
 20
512.805148
 30
0.0
 10
392.595856
 20
516.324916
 30
0.0
 10
389.552928
 20
516.239740
 30
0.0
 10
389.612928
 20
519.933892
 30
0.0
 10
386.531152
 20
516.289468
 30
0.0
 10
383.957480
 20
516.300396
 30
0.0
  0
LWPOLYLINE
  5
137
100
AcDbEntity
  8
Layer_1
 62
3
100
AcDbPolyline
 90
15
 70
1
 10
384.047560
 20
502.885916
 30
0.0
 10
389.646320
 20
509.456076
 30
0.0
 10
392.301616
 20
509.502396
 30
0.0
 10
395.376568
 20
513.129108
 30
0.0
 10
395.362248
 20
509.452660
 30
0.0
 10
398.334312
 20
509.516660
 30
0.0
 10
395.294792
 20
506.082052
 30
0.0
 10
395.355432
 20
502.839548
 30
0.0
 10
389.721232
 20
496.101828
 30
0.0
 10
389.699472
 20
499.390644
 30
0.0
 10
392.685840
 20
502.910412
 30
0.0
 10
389.642912
 20
502.825236
 30
0.0
 10
389.702912
 20
506.519396
 30
0.0
 10
386.621136
 20
502.874964
 30
0.0
 10
384.047560
 20
502.885916
 30
0.0
  0
LWPOLYLINE
  5
138
100
AcDbEntity
  8
Layer_1
 62
3
100
AcDbPolyline
 90
15
 70
1
 10
303.956552
 20
571.698684
 30
0.0
 10
309.555312
 20
578.268844
 30
0.0
 10
312.210616
 20
578.315164
 30
0.0
 10
315.285568
 20
581.941868
 30
0.0
 10
315.271248
 20
578.265420
 30
0.0
 10
318.243312
 20
578.329420
 30
0.0
 10
315.203800
 20
574.894820
 30
0.0
 10
315.264440
 20
571.652316
 30
0.0
 10
309.630248
 20
564.914588
 30
0.0
 10
309.608488
 20
568.203404
 30
0.0
 10
312.594856
 20
571.723180
 30
0.0
 10
309.551920
 20
571.638004
 30
0.0
 10
309.611920
 20
575.332172
 30
0.0
 10
306.530144
 20
571.687740
 30
0.0
 10
303.956552
 20
571.698684
 30
0.0
  0
LWPOLYLINE
  5
139
100
AcDbEntity
  8
Layer_1
 62
3
100
AcDbPolyline
 90
15
 70
1
 10
292.481952
 20
571.893268
 30
0.0
 10
298.080720
 20
578.463436
 30
0.0
 10
300.736016
 20
578.509756
 30
0.0
 10
303.810960
 20
582.136468
 30
0.0
 10
303.796720
 20
578.460028
 30
0.0
 10
306.768768
 20
578.524028
 30
0.0
 10
303.729264
 20
575.089420
 30
0.0
 10
303.789904
 20
571.846916
 30
0.0
 10
298.155704
 20
565.109188
 30
0.0
 10
298.133944
 20
568.398012
 30
0.0
 10
301.120312
 20
571.917788
 30
0.0
 10
298.077376
 20
571.832604
 30
0.0
 10
298.137376
 20
575.526764
 30
0.0
 10
295.055600
 20
571.882340
 30
0.0
 10
292.481952
 20
571.893268
 30
0.0
  0
LWPOLYLINE
  5
13a
100
AcDbEntity
  8
Layer_1
 62
3
100
AcDbPolyline
 90
15
 70
1
 10
292.572032
 20
558.478780
 30
0.0
 10
298.170784
 20
565.048948
 30
0.0
 10
300.826088
 20
565.095268
 30
0.0
 10
303.901040
 20
568.721972
 30
0.0
 10
303.886720
 20
565.045524
 30
0.0
 10
306.858784
 20
565.109524
 30
0.0
 10
303.819272
 20
561.674908
 30
0.0
 10
303.879912
 20
558.432404
 30
0.0
 10
298.245712
 20
551.694684
 30
0.0
 10
298.223952
 20
554.983500
 30
0.0
 10
301.210320
 20
558.503276
 30
0.0
 10
298.167384
 20
558.418092
 30
0.0
 10
298.227384
 20
562.112252
 30
0.0
 10
295.145608
 20
558.467828
 30
0.0
 10
292.572032
 20
558.478780
 30
0.0
  0
LWPOLYLINE
  5
13b
100
AcDbEntity
  8
Layer_1
 62
3
100
AcDbPolyline
 90
15
 70
1
 10
223.781160
 20
573.195380
 30
0.0
 10
229.379920
 20
579.765548
 30
0.0
 10
232.035232
 20
579.811868
 30
0.0
 10
235.110168
 20
583.438572
 30
0.0
 10
235.095848
 20
579.762124
 30
0.0
 10
238.067912
 20
579.826124
 30
0.0
 10
235.028392
 20
576.391516
 30
0.0
 10
235.089032
 20
573.149012
 30
0.0
 10
229.454832
 20
566.411292
 30
0.0
 10
229.433072
 20
569.700108
 30
0.0
 10
232.419432
 20
573.219884
 30
0.0
 10
229.376504
 20
573.134700
 30
0.0
 10
229.436504
 20
576.828868
 30
0.0
 10
226.354720
 20
573.184444
 30
0.0
 10
223.781160
 20
573.195380
 30
0.0
  0
LWPOLYLINE
  5
13c
100
AcDbEntity
  8
Layer_1
 62
3
100
AcDbPolyline
 90
15
 70
1
 10
223.722776
 20
559.579628
 30
0.0
 10
229.321536
 20
566.149796
 30
0.0
 10
231.976832
 20
566.196116
 30
0.0
 10
235.051784
 20
569.822820
 30
0.0
 10
235.037464
 20
566.146388
 30
0.0
 10
238.009528
 20
566.210388
 30
0.0
 10
234.970008
 20
562.775788
 30
0.0
 10
235.030648
 20
559.533284
 30
0.0
 10
229.396448
 20
552.795556
 30
0.0
 10
229.374688
 20
556.084380
 30
0.0
 10
232.361056
 20
559.604156
 30
0.0
 10
229.318128
 20
559.518972
 30
0.0
 10
229.378128
 20
563.213132
 30
0.0
 10
226.296352
 20
559.568708
 30
0.0
 10
223.722776
 20
559.579628
 30
0.0
  0
LWPOLYLINE
  5
13d
100
AcDbEntity
  8
Layer_1
 62
3
100
AcDbPolyline
 90
15
 70
1
 10
223.712208
 20
545.884372
 30
0.0
 10
229.310976
 20
552.454540
 30
0.0
 10
231.966272
 20
552.500860
 30
0.0
 10
235.041216
 20
556.127564
 30
0.0
 10
235.026896
 20
552.451116
 30
0.0
 10
237.998944
 20
552.515116
 30
0.0
 10
234.959440
 20
549.080508
 30
0.0
 10
235.020080
 20
545.838012
 30
0.0
 10
229.385880
 20
539.100284
 30
0.0
 10
229.364120
 20
542.389100
 30
0.0
 10
232.350488
 20
545.908876
 30
0.0
 10
229.307560
 20
545.823700
 30
0.0
 10
229.367560
 20
549.517852
 30
0.0
 10
226.285784
 20
545.873428
 30
0.0
 10
223.712208
 20
545.884372
 30
0.0
  0
LWPOLYLINE
  5
13e
100
AcDbEntity
  8
Layer_1
 62
3
100
AcDbPolyline
 90
15
 70
1
 10
212.228320
 20
573.214852
 30
0.0
 10
217.827080
 20
579.785020
 30
0.0
 10
220.482384
 20
579.831340
 30
0.0
 10
223.557336
 20
583.458052
 30
0.0
 10
223.543016
 20
579.781604
 30
0.0
 10
226.515080
 20
579.845604
 30
0.0
 10
223.475568
 20
576.411004
 30
0.0
 10
223.536208
 20
573.168500
 30
0.0
 10
217.902016
 20
566.430780
 30
0.0
 10
217.880256
 20
569.719596
 30
0.0
 10
220.866616
 20
573.239372
 30
0.0
 10
217.823688
 20
573.154188
 30
0.0
 10
217.883688
 20
576.848356
 30
0.0
 10
214.801912
 20
573.203932
 30
0.0
 10
212.228320
 20
573.214852
 30
0.0
  0
LWPOLYLINE
  5
13f
100
AcDbEntity
  8
Layer_1
 62
3
100
AcDbPolyline
 90
15
 70
1
 10
189.409112
 20
573.510068
 30
0.0
 10
195.007880
 20
580.080228
 30
0.0
 10
197.663184
 20
580.126548
 30
0.0
 10
200.738128
 20
583.753252
 30
0.0
 10
200.723888
 20
580.076804
 30
0.0
 10
203.695944
 20
580.140804
 30
0.0
 10
200.656440
 20
576.706204
 30
0.0
 10
200.717080
 20
573.463700
 30
0.0
 10
195.082888
 20
566.725972
 30
0.0
 10
195.061128
 20
570.014796
 30
0.0
 10
198.047488
 20
573.534564
 30
0.0
 10
195.004560
 20
573.449388
 30
0.0
 10
195.064560
 20
577.143540
 30
0.0
 10
191.982784
 20
573.499116
 30
0.0
 10
189.409112
 20
573.510068
 30
0.0
  0
LWPOLYLINE
  5
140
100
AcDbEntity
  8
Layer_1
 62
3
100
AcDbPolyline
 90
15
 70
1
 10
189.419680
 20
560.116708
 30
0.0
 10
195.018440
 20
566.686884
 30
0.0
 10
197.673752
 20
566.733204
 30
0.0
 10
200.748696
 20
570.359916
 30
0.0
 10
200.734376
 20
566.683468
 30
0.0
 10
203.706440
 20
566.747468
 30
0.0
 10
200.666928
 20
563.312868
 30
0.0
 10
200.727568
 20
560.070364
 30
0.0
 10
195.093376
 20
553.332636
 30
0.0
 10
195.071616
 20
556.621452
 30
0.0
 10
198.057968
 20
560.141228
 30
0.0
 10
195.015040
 20
560.056052
 30
0.0
 10
195.075040
 20
563.750220
 30
0.0
 10
191.993256
 20
560.105780
 30
0.0
 10
189.419680
 20
560.116708
 30
0.0
  0
LWPOLYLINE
  5
141
100
AcDbEntity
  8
Layer_1
 62
3
100
AcDbPolyline
 90
15
 70
1
 10
178.043392
 20
573.700772
 30
0.0
 10
183.642152
 20
580.270932
 30
0.0
 10
186.297464
 20
580.317252
 30
0.0
 10
189.372408
 20
583.943964
 30
0.0
 10
189.358088
 20
580.267516
 30
0.0
 10
192.330152
 20
580.331516
 30
0.0
 10
189.290640
 20
576.896916
 30
0.0
 10
189.351280
 20
573.654412
 30
0.0
 10
183.717088
 20
566.916692
 30
0.0
 10
183.695328
 20
570.205508
 30
0.0
 10
186.681680
 20
573.725284
 30
0.0
 10
183.638752
 20
573.640100
 30
0.0
 10
183.698752
 20
577.334268
 30
0.0
 10
180.616968
 20
573.689844
 30
0.0
 10
178.043392
 20
573.700772
 30
0.0
  0
LWPOLYLINE
  5
142
100
AcDbEntity
  8
Layer_1
 62
3
100
AcDbPolyline
 90
15
 70
1
 10
177.985008
 20
560.085012
 30
0.0
 10
183.583768
 20
566.655188
 30
0.0
 10
186.239072
 20
566.701508
 30
0.0
 10
189.314024
 20
570.328212
 30
0.0
 10
189.299704
 20
566.651780
 30
0.0
 10
192.271768
 20
566.715780
 30
0.0
 10
189.232256
 20
563.281180
 30
0.0
 10
189.292896
 20
560.038676
 30
0.0
 10
183.658704
 20
553.300940
 30
0.0
 10
183.636944
 20
556.589772
 30
0.0
 10
186.623304
 20
560.109540
 30
0.0
 10
183.580376
 20
560.024364
 30
0.0
 10
183.640376
 20
563.718524
 30
0.0
 10
180.558600
 20
560.074092
 30
0.0
 10
177.985008
 20
560.085012
 30
0.0
  0
LWPOLYLINE
  5
143
100
AcDbEntity
  8
Layer_1
 62
3
100
AcDbPolyline
 90
15
 70
1
 10
177.974440
 20
546.389764
 30
0.0
 10
183.573208
 20
552.959932
 30
0.0
 10
186.228512
 20
553.006252
 30
0.0
 10
189.303456
 20
556.632956
 30
0.0
 10
189.289136
 20
552.956508
 30
0.0
 10
192.261192
 20
553.020508
 30
0.0
 10
189.221688
 20
549.585900
 30
0.0
 10
189.282328
 20
546.343404
 30
0.0
 10
183.648136
 20
539.605676
 30
0.0
 10
183.626376
 20
542.894492
 30
0.0
 10
186.612736
 20
546.414268
 30
0.0
 10
183.569808
 20
546.329092
 30
0.0
 10
183.629808
 20
550.023244
 30
0.0
 10
180.548032
 20
546.378820
 30
0.0
 10
177.974440
 20
546.389764
 30
0.0
  0
LWPOLYLINE
  5
144
100
AcDbEntity
  8
Layer_1
 62
3
100
AcDbPolyline
 90
15
 70
1
 10
200.753720
 20
573.409436
 30
0.0
 10
206.352488
 20
579.979612
 30
0.0
 10
209.007784
 20
580.025932
 30
0.0
 10
212.082728
 20
583.652636
 30
0.0
 10
212.068488
 20
579.976196
 30
0.0
 10
215.040544
 20
580.040196
 30
0.0
 10
212.001040
 20
576.605596
 30
0.0
 10
212.061680
 20
573.363092
 30
0.0
 10
206.427480
 20
566.625356
 30
0.0
 10
206.405720
 20
569.914188
 30
0.0
 10
209.392088
 20
573.433956
 30
0.0
 10
206.349152
 20
573.348780
 30
0.0
 10
206.409152
 20
577.042932
 30
0.0
 10
203.327376
 20
573.398508
 30
0.0
 10
200.753720
 20
573.409436
 30
0.0
  0
LWPOLYLINE
  5
145
100
AcDbEntity
  8
Layer_1
 62
3
100
AcDbPolyline
 90
15
 70
1
 10
189.530880
 20
546.601588
 30
0.0
 10
195.129640
 20
553.171764
 30
0.0
 10
197.784944
 20
553.218084
 30
0.0
 10
200.859888
 20
556.844796
 30
0.0
 10
200.845568
 20
553.168348
 30
0.0
 10
203.817624
 20
553.232348
 30
0.0
 10
200.778112
 20
549.797748
 30
0.0
 10
200.838752
 20
546.555244
 30
0.0
 10
195.204552
 20
539.817516
 30
0.0
 10
195.182792
 20
543.106340
 30
0.0
 10
198.169152
 20
546.626108
 30
0.0
 10
195.126216
 20
546.540932
 30
0.0
 10
195.186216
 20
550.235100
 30
0.0
 10
192.104424
 20
546.590660
 30
0.0
 10
189.530880
 20
546.601588
 30
0.0
  0
LWPOLYLINE
  5
146
100
AcDbEntity
  8
Layer_1
 62
3
100
AcDbPolyline
 90
15
 70
1
 10
200.843800
 20
559.994956
 30
0.0
 10
206.442552
 20
566.565116
 30
0.0
 10
209.097856
 20
566.611436
 30
0.0
 10
212.172808
 20
570.238148
 30
0.0
 10
212.158488
 20
566.561700
 30
0.0
 10
215.130552
 20
566.625700
 30
0.0
 10
212.091040
 20
563.191092
 30
0.0
 10
212.151680
 20
559.948588
 30
0.0
 10
206.517480
 20
553.210868
 30
0.0
 10
206.495720
 20
556.499684
 30
0.0
 10
209.482088
 20
560.019452
 30
0.0
 10
206.439152
 20
559.934276
 30
0.0
 10
206.499152
 20
563.628436
 30
0.0
 10
203.417376
 20
559.984004
 30
0.0
 10
200.843800
 20
559.994956
 30
0.0
  0
LWPOLYLINE
  5
147
100
AcDbEntity
  8
Layer_1
 62
3
100
AcDbPolyline
 90
15
 70
1
 10
178.096208
 20
532.874644
 30
0.0
 10
183.694968
 20
539.444812
 30
0.0
 10
186.350264
 20
539.491132
 30
0.0
 10
189.425216
 20
543.117836
 30
0.0
 10
189.410896
 20
539.441388
 30
0.0
 10
192.382960
 20
539.505388
 30
0.0
 10
189.343448
 20
536.070772
 30
0.0
 10
189.404088
 20
532.828284
 30
0.0
 10
183.769888
 20
526.090548
 30
0.0
 10
183.748128
 20
529.379372
 30
0.0
 10
186.734488
 20
532.899140
 30
0.0
 10
183.691552
 20
532.813956
 30
0.0
 10
183.751552
 20
536.508116
 30
0.0
 10
180.669768
 20
532.863692
 30
0.0
 10
178.096208
 20
532.874644
 30
0.0
  0
LWPOLYLINE
  5
148
100
AcDbEntity
  8
Layer_1
 62
3
100
AcDbPolyline
 90
15
 70
1
 10
166.490560
 20
573.467540
 30
0.0
 10
172.089312
 20
580.037708
 30
0.0
 10
174.744616
 20
580.084028
 30
0.0
 10
177.819568
 20
583.710732
 30
0.0
 10
177.805248
 20
580.034284
 30
0.0
 10
180.777312
 20
580.098284
 30
0.0
 10
177.737800
 20
576.663676
 30
0.0
 10
177.798440
 20
573.421180
 30
0.0
 10
172.164240
 20
566.683452
 30
0.0
 10
172.142480
 20
569.972268
 30
0.0
 10
175.128848
 20
573.492044
 30
0.0
 10
172.085912
 20
573.406868
 30
0.0
 10
172.145912
 20
577.101028
 30
0.0
 10
169.064136
 20
573.456604
 30
0.0
 10
166.490560
 20
573.467540
 30
0.0
  0
LWPOLYLINE
  5
149
100
AcDbEntity
  8
Layer_1
 62
3
100
AcDbPolyline
 90
15
 70
1
 10
143.671352
 20
573.762756
 30
0.0
 10
149.270120
 20
580.332916
 30
0.0
 10
151.925416
 20
580.379236
 30
0.0
 10
155.000360
 20
584.005948
 30
0.0
 10
154.986120
 20
580.329500
 30
0.0
 10
157.958176
 20
580.393500
 30
0.0
 10
154.918672
 20
576.958900
 30
0.0
 10
154.979312
 20
573.716396
 30
0.0
 10
149.345112
 20
566.978676
 30
0.0
 10
149.323352
 20
570.267492
 30
0.0
 10
152.309720
 20
573.787268
 30
0.0
 10
149.266784
 20
573.702084
 30
0.0
 10
149.326784
 20
577.396244
 30
0.0
 10
146.245008
 20
573.751820
 30
0.0
 10
143.671352
 20
573.762756
 30
0.0
  0
LWPOLYLINE
  5
14a
100
AcDbEntity
  8
Layer_1
 62
3
100
AcDbPolyline
 90
15
 70
1
 10
143.681920
 20
560.369396
 30
0.0
 10
149.280672
 20
566.939572
 30
0.0
 10
151.935984
 20
566.985892
 30
0.0
 10
155.010928
 20
570.612612
 30
0.0
 10
154.996608
 20
566.936164
 30
0.0
 10
157.968672
 20
567.000164
 30
0.0
 10
154.929160
 20
563.565564
 30
0.0
 10
154.989800
 20
560.323060
 30
0.0
 10
149.355600
 20
553.585340
 30
0.0
 10
149.333840
 20
556.874156
 30
0.0
 10
152.320192
 20
560.393932
 30
0.0
 10
149.277264
 20
560.308748
 30
0.0
 10
149.337264
 20
564.002916
 30
0.0
 10
146.255480
 20
560.358484
 30
0.0
 10
143.681920
 20
560.369396
 30
0.0
  0
LWPOLYLINE
  5
14b
100
AcDbEntity
  8
Layer_1
 62
3
100
AcDbPolyline
 90
15
 70
1
 10
132.305632
 20
573.953460
 30
0.0
 10
137.904384
 20
580.523628
 30
0.0
 10
140.559696
 20
580.569948
 30
0.0
 10
143.634640
 20
584.196652
 30
0.0
 10
143.620320
 20
580.520204
 30
0.0
 10
146.592384
 20
580.584204
 30
0.0
 10
143.552872
 20
577.149596
 30
0.0
 10
143.613512
 20
573.907092
 30
0.0
 10
137.979320
 20
567.169372
 30
0.0
 10
137.957560
 20
570.458188
 30
0.0
 10
140.943912
 20
573.977964
 30
0.0
 10
137.900984
 20
573.892780
 30
0.0
 10
137.960984
 20
577.586948
 30
0.0
 10
134.879200
 20
573.942524
 30
0.0
 10
132.305632
 20
573.953460
 30
0.0
  0
LWPOLYLINE
  5
14c
100
AcDbEntity
  8
Layer_1
 62
3
100
AcDbPolyline
 90
15
 70
1
 10
132.247248
 20
560.337708
 30
0.0
 10
137.846000
 20
566.907876
 30
0.0
 10
140.501304
 20
566.954196
 30
0.0
 10
143.576256
 20
570.580908
 30
0.0
 10
143.561936
 20
566.904468
 30
0.0
 10
146.534000
 20
566.968468
 30
0.0
 10
143.494488
 20
563.533860
 30
0.0
 10
143.555128
 20
560.291356
 30
0.0
 10
137.920936
 20
553.553628
 30
0.0
 10
137.899176
 20
556.842452
 30
0.0
 10
140.885544
 20
560.362228
 30
0.0
 10
137.842608
 20
560.277044
 30
0.0
 10
137.902608
 20
563.971204
 30
0.0
 10
134.820824
 20
560.326780
 30
0.0
 10
132.247248
 20
560.337708
 30
0.0
  0
LWPOLYLINE
  5
14d
100
AcDbEntity
  8
Layer_1
 62
3
100
AcDbPolyline
 90
15
 70
1
 10
132.236672
 20
546.642460
 30
0.0
 10
137.835440
 20
553.212620
 30
0.0
 10
140.490744
 20
553.258940
 30
0.0
 10
143.565688
 20
556.885644
 30
0.0
 10
143.551368
 20
553.209196
 30
0.0
 10
146.523424
 20
553.273196
 30
0.0
 10
143.483920
 20
549.838596
 30
0.0
 10
143.544560
 20
546.596092
 30
0.0
 10
137.910368
 20
539.858364
 30
0.0
 10
137.888608
 20
543.147188
 30
0.0
 10
140.874976
 20
546.666956
 30
0.0
 10
137.832040
 20
546.581780
 30
0.0
 10
137.892040
 20
550.275932
 30
0.0
 10
134.810256
 20
546.631508
 30
0.0
 10
132.236672
 20
546.642460
 30
0.0
  0
LWPOLYLINE
  5
14e
100
AcDbEntity
  8
Layer_1
 62
3
100
AcDbPolyline
 90
15
 70
1
 10
155.015952
 20
573.662124
 30
0.0
 10
160.614720
 20
580.232300
 30
0.0
 10
163.270016
 20
580.278620
 30
0.0
 10
166.344960
 20
583.905324
 30
0.0
 10
166.330720
 20
580.228892
 30
0.0
 10
169.302768
 20
580.292892
 30
0.0
 10
166.263264
 20
576.858292
 30
0.0
 10
166.323904
 20
573.615788
 30
0.0
 10
160.689704
 20
566.878060
 30
0.0
 10
160.667944
 20
570.166884
 30
0.0
 10
163.654312
 20
573.686660
 30
0.0
 10
160.611384
 20
573.601476
 30
0.0
 10
160.671384
 20
577.295636
 30
0.0
 10
157.589608
 20
573.651212
 30
0.0
 10
155.015952
 20
573.662124
 30
0.0
  0
LWPOLYLINE
  5
14f
100
AcDbEntity
  8
Layer_1
 62
3
100
AcDbPolyline
 90
15
 70
1
 10
143.793112
 20
546.854284
 30
0.0
 10
149.391872
 20
553.424452
 30
0.0
 10
152.047184
 20
553.470772
 30
0.0
 10
155.122120
 20
557.097492
 30
0.0
 10
155.107800
 20
553.421044
 30
0.0
 10
158.079864
 20
553.485044
 30
0.0
 10
155.040344
 20
550.050444
 30
0.0
 10
155.100984
 20
546.807940
 30
0.0
 10
149.466784
 20
540.070220
 30
0.0
 10
149.445024
 20
543.359036
 30
0.0
 10
152.431384
 20
546.878812
 30
0.0
 10
149.388456
 20
546.793628
 30
0.0
 10
149.448376
 20
550.487796
 30
0.0
 10
146.366592
 20
546.843364
 30
0.0
 10
143.793112
 20
546.854284
 30
0.0
  0
LWPOLYLINE
  5
150
100
AcDbEntity
  8
Layer_1
 62
3
100
AcDbPolyline
 90
15
 70
1
 10
155.106032
 20
560.247644
 30
0.0
 10
160.704792
 20
566.817812
 30
0.0
 10
163.360088
 20
566.864132
 30
0.0
 10
166.435040
 20
570.490836
 30
0.0
 10
166.420720
 20
566.814388
 30
0.0
 10
169.392776
 20
566.878388
 30
0.0
 10
166.353264
 20
563.443772
 30
0.0
 10
166.413904
 20
560.201268
 30
0.0
 10
160.779704
 20
553.463548
 30
0.0
 10
160.757944
 20
556.752364
 30
0.0
 10
163.744312
 20
560.272140
 30
0.0
 10
160.701384
 20
560.186956
 30
0.0
 10
160.761384
 20
563.881116
 30
0.0
 10
157.679608
 20
560.236692
 30
0.0
 10
155.106032
 20
560.247644
 30
0.0
  0
LWPOLYLINE
  5
151
100
AcDbEntity
  8
Layer_1
 62
3
100
AcDbPolyline
 90
15
 70
1
 10
132.358440
 20
533.127340
 30
0.0
 10
137.957200
 20
539.697500
 30
0.0
 10
140.612496
 20
539.743820
 30
0.0
 10
143.687448
 20
543.370524
 30
0.0
 10
143.673128
 20
539.694076
 30
0.0
 10
146.645192
 20
539.758076
 30
0.0
 10
143.605672
 20
536.323460
 30
0.0
 10
143.666312
 20
533.080972
 30
0.0
 10
138.032112
 20
526.343236
 30
0.0
 10
138.010352
 20
529.632068
 30
0.0
 10
140.996712
 20
533.151828
 30
0.0
 10
137.953776
 20
533.066652
 30
0.0
 10
138.013776
 20
536.760804
 30
0.0
 10
134.932000
 20
533.116380
 30
0.0
 10
132.358440
 20
533.127340
 30
0.0
  0
LWPOLYLINE
  5
152
100
AcDbEntity
  8
Layer_1
 62
3
100
AcDbPolyline
 90
15
 70
1
 10
189.166992
 20
614.446108
 30
0.0
 10
194.765752
 20
621.016276
 30
0.0
 10
197.421064
 20
621.062596
 30
0.0
 10
200.496000
 20
624.689316
 30
0.0
 10
200.481680
 20
621.012868
 30
0.0
 10
203.453744
 20
621.076868
 30
0.0
 10
200.414224
 20
617.642268
 30
0.0
 10
200.474864
 20
614.399772
 30
0.0
 10
194.840664
 20
607.662044
 30
0.0
 10
194.818904
 20
610.950860
 30
0.0
 10
197.805264
 20
614.470636
 30
0.0
 10
194.762328
 20
614.385460
 30
0.0
 10
194.822328
 20
618.079612
 30
0.0
 10
191.740544
 20
614.435188
 30
0.0
 10
189.166992
 20
614.446108
 30
0.0
  0
LWPOLYLINE
  5
153
100
AcDbEntity
  8
Layer_1
 62
3
100
AcDbPolyline
 90
15
 70
1
 10
177.732320
 20
614.414412
 30
0.0
 10
183.331080
 20
620.984588
 30
0.0
 10
185.986376
 20
621.030908
 30
0.0
 10
189.061328
 20
624.657612
 30
0.0
 10
189.047008
 20
620.981172
 30
0.0
 10
192.019072
 20
621.045172
 30
0.0
 10
188.979552
 20
617.610572
 30
0.0
 10
189.040192
 20
614.368076
 30
0.0
 10
183.405992
 20
607.630340
 30
0.0
 10
183.384232
 20
610.919164
 30
0.0
 10
186.370600
 20
614.438940
 30
0.0
 10
183.327672
 20
614.353764
 30
0.0
 10
183.387672
 20
618.047916
 30
0.0
 10
180.305896
 20
614.403492
 30
0.0
 10
177.732320
 20
614.414412
 30
0.0
  0
LWPOLYLINE
  5
154
100
AcDbEntity
  8
Layer_1
 62
3
100
AcDbPolyline
 90
15
 70
1
 10
177.721752
 20
600.719164
 30
0.0
 10
183.320520
 20
607.289324
 30
0.0
 10
185.975816
 20
607.335644
 30
0.0
 10
189.050760
 20
610.962356
 30
0.0
 10
189.036440
 20
607.285908
 30
0.0
 10
192.008488
 20
607.349908
 30
0.0
 10
188.968984
 20
603.915308
 30
0.0
 10
189.029624
 20
600.672812
 30
0.0
 10
183.395424
 20
593.935092
 30
0.0
 10
183.373664
 20
597.223908
 30
0.0
 10
186.360032
 20
600.743684
 30
0.0
 10
183.317104
 20
600.658500
 30
0.0
 10
183.377104
 20
604.352660
 30
0.0
 10
180.295328
 20
600.708236
 30
0.0
 10
177.721752
 20
600.719164
 30
0.0
  0
LWPOLYLINE
  5
155
100
AcDbEntity
  8
Layer_1
 62
3
100
AcDbPolyline
 90
15
 70
1
 10
189.278184
 20
600.930988
 30
0.0
 10
194.876944
 20
607.501148
 30
0.0
 10
197.532256
 20
607.547468
 30
0.0
 10
200.607200
 20
611.174188
 30
0.0
 10
200.592880
 20
607.497740
 30
0.0
 10
203.564944
 20
607.561740
 30
0.0
 10
200.525432
 20
604.127148
 30
0.0
 10
200.586072
 20
600.884644
 30
0.0
 10
194.951880
 20
594.146924
 30
0.0
 10
194.930120
 20
597.435740
 30
0.0
 10
197.916472
 20
600.955516
 30
0.0
 10
194.873544
 20
600.870332
 30
0.0
 10
194.933544
 20
604.564492
 30
0.0
 10
191.851760
 20
600.920068
 30
0.0
 10
189.278184
 20
600.930988
 30
0.0
  0
LWPOLYLINE
  5
156
100
AcDbEntity
  8
Layer_1
 62
3
100
AcDbPolyline
 90
15
 70
1
 10
200.591104
 20
614.324348
 30
0.0
 10
206.189864
 20
620.894516
 30
0.0
 10
208.845168
 20
620.940836
 30
0.0
 10
211.920120
 20
624.567540
 30
0.0
 10
211.905800
 20
620.891092
 30
0.0
 10
214.877864
 20
620.955092
 30
0.0
 10
211.838352
 20
617.520484
 30
0.0
 10
211.898992
 20
614.277988
 30
0.0
 10
206.264800
 20
607.540260
 30
0.0
 10
206.243040
 20
610.829076
 30
0.0
 10
209.229400
 20
614.348852
 30
0.0
 10
206.186472
 20
614.263676
 30
0.0
 10
206.246472
 20
617.957828
 30
0.0
 10
203.164696
 20
614.313404
 30
0.0
 10
200.591104
 20
614.324348
 30
0.0
  0
LWPOLYLINE
  5
157
100
AcDbEntity
  8
Layer_1
 62
3
100
AcDbPolyline
 90
15
 70
1
 10
177.843512
 20
587.204044
 30
0.0
 10
183.442272
 20
593.774196
 30
0.0
 10
186.097576
 20
593.820516
 30
0.0
 10
189.172528
 20
597.447212
 30
0.0
 10
189.158208
 20
593.770764
 30
0.0
 10
192.130272
 20
593.834764
 30
0.0
 10
189.090760
 20
590.400148
 30
0.0
 10
189.151400
 20
587.157668
 30
0.0
 10
183.517208
 20
580.419924
 30
0.0
 10
183.495448
 20
583.708764
 30
0.0
 10
186.481800
 20
587.228524
 30
0.0
 10
183.438872
 20
587.143348
 30
0.0
 10
183.498872
 20
590.837516
 30
0.0
 10
180.417096
 20
587.193076
 30
0.0
 10
177.843512
 20
587.204044
 30
0.0
  0
LWPOLYLINE
  5
158
100
AcDbEntity
  8
Layer_1
 62
3
100
AcDbPolyline
 90
15
 70
1
 10
141.154960
 20
626.828148
 30
0.0
 10
146.753720
 20
633.398324
 30
0.0
 10
149.409032
 20
633.444644
 30
0.0
 10
152.483976
 20
637.071356
 30
0.0
 10
152.469656
 20
633.394908
 30
0.0
 10
155.441720
 20
633.458908
 30
0.0
 10
152.402208
 20
630.024308
 30
0.0
 10
152.462848
 20
626.781804
 30
0.0
 10
146.828656
 20
620.044084
 30
0.0
 10
146.806896
 20
623.332900
 30
0.0
 10
149.793248
 20
626.852676
 30
0.0
 10
146.750320
 20
626.767492
 30
0.0
 10
146.810320
 20
630.461660
 30
0.0
 10
143.728536
 20
626.817228
 30
0.0
 10
141.154960
 20
626.828148
 30
0.0
  0
LWPOLYLINE
  5
159
100
AcDbEntity
  8
Layer_1
 62
3
100
AcDbPolyline
 90
15
 70
1
 10
129.720288
 20
626.796452
 30
0.0
 10
135.319048
 20
633.366628
 30
0.0
 10
137.974352
 20
633.412948
 30
0.0
 10
141.049304
 20
637.039652
 30
0.0
 10
141.034984
 20
633.363212
 30
0.0
 10
144.007048
 20
633.427212
 30
0.0
 10
140.967536
 20
629.992612
 30
0.0
 10
141.028176
 20
626.750116
 30
0.0
 10
135.393984
 20
620.012380
 30
0.0
 10
135.372224
 20
623.301204
 30
0.0
 10
138.358584
 20
626.820980
 30
0.0
 10
135.315656
 20
626.735804
 30
0.0
 10
135.375656
 20
630.429956
 30
0.0
 10
132.293880
 20
626.785532
 30
0.0
 10
129.720288
 20
626.796452
 30
0.0
  0
LWPOLYLINE
  5
15a
100
AcDbEntity
  8
Layer_1
 62
3
100
AcDbPolyline
 90
15
 70
1
 10
129.709720
 20
613.101204
 30
0.0
 10
135.308488
 20
619.671372
 30
0.0
 10
137.963792
 20
619.717692
 30
0.0
 10
141.038736
 20
623.344396
 30
0.0
 10
141.024416
 20
619.667948
 30
0.0
 10
143.996472
 20
619.731948
 30
0.0
 10
140.956968
 20
616.297340
 30
0.0
 10
141.017608
 20
613.054844
 30
0.0
 10
135.383416
 20
606.317116
 30
0.0
 10
135.361656
 20
609.605932
 30
0.0
 10
138.348016
 20
613.125708
 30
0.0
 10
135.305088
 20
613.040532
 30
0.0
 10
135.365088
 20
616.734684
 30
0.0
 10
132.283312
 20
613.090260
 30
0.0
 10
129.709720
 20
613.101204
 30
0.0
  0
LWPOLYLINE
  5
15b
100
AcDbEntity
  8
Layer_1
 62
3
100
AcDbPolyline
 90
15
 70
1
 10
141.266160
 20
613.313028
 30
0.0
 10
146.864920
 20
619.883204
 30
0.0
 10
149.520224
 20
619.929524
 30
0.0
 10
152.595168
 20
623.556244
 30
0.0
 10
152.580848
 20
619.879796
 30
0.0
 10
155.552912
 20
619.943796
 30
0.0
 10
152.513392
 20
616.509188
 30
0.0
 10
152.574032
 20
613.266684
 30
0.0
 10
146.939832
 20
606.528964
 30
0.0
 10
146.918072
 20
609.817780
 30
0.0
 10
149.904432
 20
613.337556
 30
0.0
 10
146.861496
 20
613.252372
 30
0.0
 10
146.921496
 20
616.946540
 30
0.0
 10
143.839704
 20
613.302100
 30
0.0
 10
141.266160
 20
613.313028
 30
0.0
  0
LWPOLYLINE
  5
15c
100
AcDbEntity
  8
Layer_1
 62
3
100
AcDbPolyline
 90
15
 70
1
 10
152.579080
 20
626.706396
 30
0.0
 10
158.177832
 20
633.276556
 30
0.0
 10
160.833136
 20
633.322876
 30
0.0
 10
163.908088
 20
636.949580
 30
0.0
 10
163.893768
 20
633.273140
 30
0.0
 10
166.865832
 20
633.337140
 30
0.0
 10
163.826320
 20
629.902524
 30
0.0
 10
163.886960
 20
626.660020
 30
0.0
 10
158.252760
 20
619.922300
 30
0.0
 10
158.231000
 20
623.211116
 30
0.0
 10
161.217368
 20
626.730892
 30
0.0
 10
158.174432
 20
626.645708
 30
0.0
 10
158.234432
 20
630.339868
 30
0.0
 10
155.152656
 20
626.695444
 30
0.0
 10
152.579080
 20
626.706396
 30
0.0
  0
LWPOLYLINE
  5
15d
100
AcDbEntity
  8
Layer_1
 62
3
100
AcDbPolyline
 90
15
 70
1
 10
129.831488
 20
599.586092
 30
0.0
 10
135.430248
 20
606.156252
 30
0.0
 10
138.085544
 20
606.202572
 30
0.0
 10
141.160496
 20
609.829276
 30
0.0
 10
141.146176
 20
606.152828
 30
0.0
 10
144.118240
 20
606.216828
 30
0.0
 10
141.078720
 20
602.782212
 30
0.0
 10
141.139360
 20
599.539724
 30
0.0
 10
135.505160
 20
592.801988
 30
0.0
 10
135.483400
 20
596.090812
 30
0.0
 10
138.469760
 20
599.610580
 30
0.0
 10
135.426824
 20
599.525404
 30
0.0
 10
135.486824
 20
603.219556
 30
0.0
 10
132.405048
 20
599.575132
 30
0.0
 10
129.831488
 20
599.586092
 30
0.0
  0
LWPOLYLINE
  5
15e
100
AcDbEntity
  8
Layer_1
 62
3
100
AcDbPolyline
 90
15
 70
1
 10
168.259416
 20
519.138156
 30
0.0
 10
173.858176
 20
525.708324
 30
0.0
 10
176.513480
 20
525.754644
 30
0.0
 10
179.588432
 20
529.381356
 30
0.0
 10
179.574112
 20
525.704908
 30
0.0
 10
182.546176
 20
525.768908
 30
0.0
 10
179.506664
 20
522.334308
 30
0.0
 10
179.567304
 20
519.091804
 30
0.0
 10
173.933112
 20
512.354084
 30
0.0
 10
173.911352
 20
515.642900
 30
0.0
 10
176.897720
 20
519.162676
 30
0.0
 10
173.854784
 20
519.077492
 30
0.0
 10
173.914784
 20
522.771660
 30
0.0
 10
170.833000
 20
519.127236
 30
0.0
 10
168.259416
 20
519.138156
 30
0.0
  0
LWPOLYLINE
  5
15f
100
AcDbEntity
  8
Layer_1
 62
3
100
AcDbPolyline
 90
15
 70
1
 10
145.440208
 20
519.433372
 30
0.0
 10
151.038976
 20
526.003532
 30
0.0
 10
153.694280
 20
526.049852
 30
0.0
 10
156.769224
 20
529.676556
 30
0.0
 10
156.754984
 20
526.000108
 30
0.0
 10
159.727040
 20
526.064108
 30
0.0
 10
156.687536
 20
522.629508
 30
0.0
 10
156.748176
 20
519.387004
 30
0.0
 10
151.113984
 20
512.649276
 30
0.0
 10
151.092224
 20
515.938100
 30
0.0
 10
154.078584
 20
519.457868
 30
0.0
 10
151.035656
 20
519.372692
 30
0.0
 10
151.095656
 20
523.066844
 30
0.0
 10
148.013880
 20
519.422420
 30
0.0
 10
145.440208
 20
519.433372
 30
0.0
  0
LWPOLYLINE
  5
160
100
AcDbEntity
  8
Layer_1
 62
3
100
AcDbPolyline
 90
15
 70
1
 10
145.450776
 20
506.040012
 30
0.0
 10
151.049536
 20
512.610188
 30
0.0
 10
153.704848
 20
512.656508
 30
0.0
 10
156.779792
 20
516.283220
 30
0.0
 10
156.765472
 20
512.606772
 30
0.0
 10
159.737536
 20
512.670772
 30
0.0
 10
156.698024
 20
509.236172
 30
0.0
 10
156.758664
 20
505.993668
 30
0.0
 10
151.124472
 20
499.255940
 30
0.0
 10
151.102712
 20
502.544756
 30
0.0
 10
154.089064
 20
506.064532
 30
0.0
 10
151.046136
 20
505.979356
 30
0.0
 10
151.106136
 20
509.673524
 30
0.0
 10
148.024352
 20
506.029084
 30
0.0
 10
145.450776
 20
506.040012
 30
0.0
  0
LWPOLYLINE
  5
161
100
AcDbEntity
  8
Layer_1
 62
3
100
AcDbPolyline
 90
15
 70
1
 10
134.074488
 20
519.624076
 30
0.0
 10
139.673248
 20
526.194236
 30
0.0
 10
142.328560
 20
526.240556
 30
0.0
 10
145.403504
 20
529.867268
 30
0.0
 10
145.389184
 20
526.190820
 30
0.0
 10
148.361248
 20
526.254820
 30
0.0
 10
145.321736
 20
522.820220
 30
0.0
 10
145.382376
 20
519.577716
 30
0.0
 10
139.748184
 20
512.839996
 30
0.0
 10
139.726424
 20
516.128812
 30
0.0
 10
142.712776
 20
519.648588
 30
0.0
 10
139.669848
 20
519.563404
 30
0.0
 10
139.729768
 20
523.257572
 30
0.0
 10
136.647984
 20
519.613148
 30
0.0
 10
134.074488
 20
519.624076
 30
0.0
  0
LWPOLYLINE
  5
162
100
AcDbEntity
  8
Layer_1
 62
3
100
AcDbPolyline
 90
15
 70
1
 10
134.016104
 20
506.008316
 30
0.0
 10
139.614864
 20
512.578492
 30
0.0
 10
142.270168
 20
512.624812
 30
0.0
 10
145.345120
 20
516.251516
 30
0.0
 10
145.330800
 20
512.575084
 30
0.0
 10
148.302864
 20
512.639084
 30
0.0
 10
145.263352
 20
509.204484
 30
0.0
 10
145.323992
 20
505.961980
 30
0.0
 10
139.689800
 20
499.224244
 30
0.0
 10
139.668040
 20
502.513076
 30
0.0
 10
142.654400
 20
506.032844
 30
0.0
 10
139.611472
 20
505.947668
 30
0.0
 10
139.671472
 20
509.641828
 30
0.0
 10
136.589696
 20
505.997396
 30
0.0
 10
134.016104
 20
506.008316
 30
0.0
  0
SPLINE
  5
163
100
AcDbEntity
  8
Layer_1
 62
7
100
AcDbSpline
 70
0
 71
3
 72
10
 73
6
 74
4
 40
0.000000
 40
0.000000
 40
0.000000
 40
0.000000
 40
2.161724
 40
4.254554
 40
6.416278
 40
6.416278
 40
6.416278
 40
6.416278
 10
463.722896
 20
604.804764
 30
0.0
 10
463.835584
 20
605.529484
 30
0.0
 10
464.057367
 20
606.955827
 30
0.0
 10
465.701233
 20
608.599692
 30
0.0
 10
467.127576
 20
608.821476
 30
0.0
 10
467.852296
 20
608.934164
 30
0.0
 11
463.722896
 21
604.804764
 31
0.0
 11
464.285106
 21
606.892099
 31
0.0
 11
465.764961
 21
608.371954
 31
0.0
 11
467.852296
 21
608.934164
 31
0.0
  0
SPLINE
  5
164
100
AcDbEntity
  8
Layer_1
 62
7
100
AcDbSpline
 70
0
 71
3
 72
10
 73
6
 74
4
 40
0.000000
 40
0.000000
 40
0.000000
 40
0.000000
 40
41.774626
 40
82.348574
 40
123.494616
 40
123.494616
 40
123.494616
 40
123.494616
 10
141.747768
 20
629.709572
 30
0.0
 10
138.504403
 20
616.117003
 30
0.0
 10
132.110895
 20
589.322541
 30
0.0
 10
133.737043
 20
547.618023
 30
0.0
 10
140.744507
 20
521.257236
 30
0.0
 10
144.272768
 20
507.984572
 30
0.0
 11
141.747768
 21
629.709572
 31
0.0
 11
133.942051
 21
588.670686
 31
0.0
 11
135.191669
 21
548.115986
 31
0.0
 11
144.272768
 21
507.984572
 31
0.0
  0
SPLINE
  5
165
100
AcDbEntity
  8
Layer_1
 62
7
100
AcDbSpline
 70
0
 71
3
 72
10
 73
6
 74
4
 40
0.000000
 40
0.000000
 40
0.000000
 40
0.000000
 40
33.390855
 40
65.049121
 40
94.659629
 40
94.659629
 40
94.659629
 40
94.659629
 10
144.272768
 20
507.984572
 30
0.0
 10
155.078871
 20
510.628952
 30
0.0
 10
176.130370
 20
515.780499
 30
0.0
 10
206.233137
 20
525.747421
 30
0.0
 10
224.041289
 20
535.834568
 30
0.0
 10
232.647768
 20
540.709572
 30
0.0
 11
144.272768
 21
507.984572
 31
0.0
 11
176.594853
 21
516.365025
 31
0.0
 11
206.436878
 21
526.933817
 31
0.0
 11
232.647768
 21
540.709572
 31
0.0
  0
LWPOLYLINE
  5
166
100
AcDbEntity
  8
Layer_1
 62
3
100
AcDbPolyline
 90
15
 70
1
 10
156.784816
 20
519.332740
 30
0.0
 10
162.383584
 20
525.902916
 30
0.0
 10
165.038880
 20
525.949236
 30
0.0
 10
168.113824
 20
529.575940
 30
0.0
 10
168.099584
 20
525.899500
 30
0.0
 10
171.071632
 20
525.963500
 30
0.0
 10
168.032128
 20
522.528900
 30
0.0
 10
168.092768
 20
519.286396
 30
0.0
 10
162.458568
 20
512.548660
 30
0.0
 10
162.436808
 20
515.837484
 30
0.0
 10
165.423176
 20
519.357260
 30
0.0
 10
162.380240
 20
519.272084
 30
0.0
 10
162.440240
 20
522.966236
 30
0.0
 10
159.358464
 20
519.321812
 30
0.0
 10
156.784816
 20
519.332740
 30
0.0
  0
SPLINE
  5
167
100
AcDbEntity
  8
Layer_1
 62
7
100
AcDbSpline
 70
0
 71
3
 72
10
 73
6
 74
4
 40
0.000000
 40
0.000000
 40
0.000000
 40
0.000000
 40
1.842854
 40
3.661652
 40
5.546265
 40
5.546265
 40
5.546265
 40
5.546265
 10
232.647768
 20
540.709572
 30
0.0
 10
232.859156
 20
540.125001
 30
0.0
 10
233.279171
 20
538.963492
 30
0.0
 10
234.802101
 20
537.713732
 30
0.0
 10
236.041868
 20
537.545290
 30
0.0
 10
236.672768
 20
537.459572
 30
0.0
 11
232.647768
 21
540.709572
 31
0.0
 11
233.430216
 21
539.041073
 31
0.0
 11
234.837781
 21
537.889211
 31
0.0
 11
236.672768
 21
537.459572
 31
0.0
  0
SPLINE
  5
168
100
AcDbEntity
  8
Layer_1
 62
7
100
AcDbSpline
 70
0
 71
3
 72
10
 73
6
 74
4
 40
0.000000
 40
0.000000
 40
0.000000
 40
0.000000
 40
1.755755
 40
3.447547
 40
5.148750
 40
5.148750
 40
5.148750
 40
5.148750
 10
297.872768
 20
537.459572
 30
0.0
 10
298.460081
 20
537.533281
 30
0.0
 10
299.613312
 20
537.678014
 30
0.0
 10
301.072078
 20
538.755472
 30
0.0
 10
301.555425
 20
539.790582
 30
0.0
 10
301.797768
 20
540.309572
 30
0.0
 11
297.872768
 21
537.459572
 31
0.0
 11
299.588942
 21
537.830279
 31
0.0
 11
300.950581
 21
538.834320
 31
0.0
 11
301.797768
 21
540.309572
 31
0.0
  0
SPLINE
  5
169
100
AcDbEntity
  8
Layer_1
 62
7
100
AcDbSpline
 70
0
 71
3
 72
10
 73
6
 74
4
 40
0.000000
 40
0.000000
 40
0.000000
 40
0.000000
 40
42.721805
 40
71.668327
 40
97.538405
 40
97.538405
 40
97.538405
 40
97.538405
 10
301.797768
 20
540.309572
 30
0.0
 10
314.016028
 20
532.960317
 30
0.0
 10
334.512874
 20
520.631512
 30
0.0
 10
364.514823
 20
507.869012
 30
0.0
 10
381.946217
 20
502.376637
 30
0.0
 10
390.172768
 20
499.784572
 30
0.0
 11
301.797768
 21
540.309572
 31
0.0
 11
339.002507
 21
519.310523
 31
0.0
 11
365.620135
 21
507.934980
 31
0.0
 11
390.172768
 21
499.784572
 31
0.0
  0
SPLINE
  5
16a
100
AcDbEntity
  8
Layer_1
 62
7
100
AcDbSpline
 70
0
 71
3
 72
10
 73
6
 74
4
 40
0.000000
 40
0.000000
 40
0.000000
 40
0.000000
 40
40.219922
 40
80.523579
 40
122.318395
 40
122.318395
 40
122.318395
 40
122.318395
 10
390.172768
 20
499.784572
 30
0.0
 10
393.114390
 20
512.862730
 30
0.0
 10
399.003759
 20
539.046275
 30
0.0
 10
402.084448
 20
580.096538
 30
0.0
 10
397.106798
 20
607.108355
 30
0.0
 10
394.572768
 20
620.859572
 30
0.0
 11
390.172768
 21
499.784572
 31
0.0
 11
398.034312
 21
539.228687
 31
0.0
 11
400.348952
 21
579.465825
 31
0.0
 11
394.572768
 21
620.859572
 31
0.0
  0
LWPOLYLINE
  5
16b
100
AcDbEntity
  8
Layer_1
 62
7
100
AcDbPolyline
 90
2
 70
1
 10
236.672768
 20
537.459572
 30
0.0
 10
297.872768
 20
537.459572
 30
0.0
  0
SPLINE
  5
16c
100
AcDbEntity
  8
Layer_1
 62
7
100
AcDbSpline
 70
0
 71
3
 72
10
 73
6
 74
4
 40
0.000000
 40
0.000000
 40
0.000000
 40
0.000000
 40
31.289147
 40
63.031332
 40
97.331450
 40
97.331450
 40
97.331450
 40
97.331450
 10
394.572768
 20
620.859572
 30
0.0
 10
384.172020
 20
620.221381
 30
0.0
 10
363.219931
 20
618.935759
 30
0.0
 10
331.067898
 20
611.857775
 30
0.0
 10
312.247461
 20
600.143544
 30
0.0
 10
302.472768
 20
594.059572
 30
0.0
 11
394.572768
 21
620.859572
 31
0.0
 11
363.402708
 21
618.132298
 31
0.0
 11
332.604903
 21
610.447144
 31
0.0
 11
302.472768
 21
594.059572
 31
0.0
  0
LWPOLYLINE
  5
16d
100
AcDbEntity
  8
Layer_1
 62
7
100
AcDbPolyline
 90
2
 70
1
 10
302.472768
 20
594.059572
 30
0.0
 10
301.747768
 20
594.059572
 30
0.0
  0
SPLINE
  5
16e
100
AcDbEntity
  8
Layer_1
 62
7
100
AcDbSpline
 70
0
 71
3
 72
10
 73
6
 74
4
 40
0.000000
 40
0.000000
 40
0.000000
 40
0.000000
 40
1.634077
 40
3.264943
 40
4.962405
 40
4.962405
 40
4.962405
 40
4.962405
 10
301.747768
 20
594.059572
 30
0.0
 10
301.493954
 20
594.547603
 30
0.0
 10
300.986824
 20
595.522708
 30
0.0
 10
299.553039
 20
596.511365
 30
0.0
 10
298.440280
 20
596.642627
 30
0.0
 10
297.872768
 20
596.709572
 30
0.0
 11
301.747768
 21
594.059572
 31
0.0
 11
300.877058
 21
595.442349
 31
0.0
 11
299.536000
 21
596.370405
 31
0.0
 11
297.872768
 21
596.709572
 31
0.0
  0
SPLINE
  5
16f
100
AcDbEntity
  8
Layer_1
 62
7
100
AcDbSpline
 70
0
 71
3
 72
10
 73
6
 74
4
 40
0.000000
 40
0.000000
 40
0.000000
 40
0.000000
 40
1.903610
 40
3.735795
 40
5.592508
 40
5.592508
 40
5.592508
 40
5.592508
 10
236.672768
 20
596.709572
 30
0.0
 10
236.035627
 20
596.624259
 30
0.0
 10
234.785252
 20
596.456834
 30
0.0
 10
233.242363
 20
595.201701
 30
0.0
 10
232.830213
 20
594.026220
 30
0.0
 10
232.622768
 20
593.434572
 30
0.0
 11
236.672768
 21
596.709572
 31
0.0
 11
234.818398
 21
596.279406
 31
0.0
 11
233.398514
 21
595.121463
 31
0.0
 11
232.622768
 21
593.434572
 31
0.0
  0
LWPOLYLINE
  5
170
100
AcDbEntity
  8
Layer_1
 62
7
100
AcDbPolyline
 90
2
 70
1
 10
297.872768
 20
596.709572
 30
0.0
 10
236.672768
 20
596.709572
 30
0.0
  0
LWPOLYLINE
  5
171
100
AcDbEntity
  8
Layer_1
 62
7
100
AcDbPolyline
 90
2
 70
1
 10
141.747768
 20
629.709572
 30
0.0
 10
141.747768
 20
629.709572
 30
0.0
  0
SPLINE
  5
172
100
AcDbEntity
  8
Layer_1
 62
7
100
AcDbSpline
 70
0
 71
3
 72
10
 73
6
 74
4
 40
0.000000
 40
0.000000
 40
0.000000
 40
0.000000
 40
24.986281
 40
56.101206
 40
99.238945
 40
99.238945
 40
99.238945
 40
99.238945
 10
232.622768
 20
593.434572
 30
0.0
 10
225.992648
 20
598.496284
 30
0.0
 10
211.106169
 20
609.861246
 30
0.0
 10
180.569984
 20
623.690953
 30
0.0
 10
156.013863
 20
627.497895
 30
0.0
 10
141.747768
 20
629.709572
 30
0.0
 11
232.622768
 21
593.434572
 31
0.0
 11
212.261086
 21
607.916151
 31
0.0
 11
183.969477
 21
620.866958
 31
0.0
 11
141.747768
 21
629.709572
 31
0.0
  0
LWPOLYLINE
  5
173
100
AcDbEntity
  8
Layer_1
 62
3
100
AcDbPolyline
 90
3
 70
1
 10
88.112416
 20
674.287484
 30
0.0
 10
88.112416
 20
669.162484
 30
0.0
 10
90.887416
 20
669.162484
 30
0.0
  0
SPLINE
  5
174
100
AcDbEntity
  8
Layer_1
 62
3
100
AcDbSpline
 70
0
 71
3
 72
10
 73
6
 74
4
 40
0.000000
 40
0.000000
 40
0.000000
 40
0.000000
 40
3.101997
 40
6.104619
 40
9.206616
 40
9.206616
 40
9.206616
 40
9.206616
 10
90.887416
 20
669.162484
 30
0.0
 10
91.927391
 20
669.000892
 30
0.0
 10
93.974026
 20
668.682886
 30
0.0
 10
96.332819
 20
666.324094
 30
0.0
 10
96.650825
 20
664.277459
 30
0.0
 10
96.812416
 20
663.237484
 30
0.0
 11
90.887416
 21
669.162484
 31
0.0
 11
93.882734
 21
668.355976
 31
0.0
 11
96.005908
 21
666.232802
 31
0.0
 11
96.812416
 21
663.237484
 31
0.0
  0
LWPOLYLINE
  5
175
100
AcDbEntity
  8
Layer_1
 62
3
100
AcDbPolyline
 90
2
 70
1
 10
96.812416
 20
663.237484
 30
0.0
 10
96.812416
 20
636.287484
 30
0.0
  0
SPLINE
  5
176
100
AcDbEntity
  8
Layer_1
 62
3
100
AcDbSpline
 70
0
 71
3
 72
10
 73
6
 74
4
 40
0.000000
 40
0.000000
 40
0.000000
 40
0.000000
 40
3.101997
 40
6.104619
 40
9.206616
 40
9.206616
 40
9.206616
 40
9.206616
 10
96.812416
 20
636.287484
 30
0.0
 10
96.650825
 20
635.247508
 30
0.0
 10
96.332819
 20
633.200874
 30
0.0
 10
93.974026
 20
630.842081
 30
0.0
 10
91.927391
 20
630.524075
 30
0.0
 10
90.887416
 20
630.362484
 30
0.0
 11
96.812416
 21
636.287484
 31
0.0
 11
96.005908
 21
633.292166
 31
0.0
 11
93.882734
 21
631.168991
 31
0.0
 11
90.887416
 21
630.362484
 31
0.0
  0
LWPOLYLINE
  5
177
100
AcDbEntity
  8
Layer_1
 62
3
100
AcDbPolyline
 90
4
 70
1
 10
90.887416
 20
630.362484
 30
0.0
 10
88.112416
 20
630.362484
 30
0.0
 10
88.112416
 20
624.762484
 30
0.0
 10
98.037416
 20
624.762484
 30
0.0
  0
SPLINE
  5
178
100
AcDbEntity
  8
Layer_1
 62
3
100
AcDbSpline
 70
0
 71
3
 72
10
 73
6
 74
4
 40
0.000000
 40
0.000000
 40
0.000000
 40
0.000000
 40
2.579108
 40
5.074406
 40
7.653510
 40
7.653510
 40
7.653510
 40
7.653510
 10
98.037416
 20
624.762484
 30
0.0
 10
98.902152
 20
624.896581
 30
0.0
 10
100.603525
 20
625.160418
 30
0.0
 10
102.564483
 20
627.121378
 30
0.0
 10
102.828319
 20
628.822749
 30
0.0
 10
102.962416
 20
629.687484
 30
0.0
 11
98.037416
 21
624.762484
 31
0.0
 11
100.527978
 21
625.432482
 31
0.0
 11
102.292419
 21
627.196925
 31
0.0
 11
102.962416
 21
629.687484
 31
0.0
  0
LWPOLYLINE
  5
179
100
AcDbEntity
  8
Layer_1
 62
3
100
AcDbPolyline
 90
2
 70
1
 10
102.962416
 20
629.687484
 30
0.0
 10
102.962416
 20
669.362484
 30
0.0
  0
LWPOLYLINE
  5
17a
100
AcDbEntity
  8
Layer_1
 62
3
100
AcDbPolyline
 90
3
 70
1
 10
98.037416
 20
674.287484
 30
0.0
 10
88.112416
 20
674.287484
 30
0.0
 10
88.112416
 20
674.287484
 30
0.0
  0
LWPOLYLINE
  5
17b
100
AcDbEntity
  8
Layer_1
 62
3
100
AcDbPolyline
 90
15
 70
1
 10
494.589592
 20
570.342700
 30
0.0
 10
488.990824
 20
576.912860
 30
0.0
 10
486.335528
 20
576.959180
 30
0.0
 10
483.260584
 20
580.585884
 30
0.0
 10
483.274824
 20
576.909436
 30
0.0
 10
480.302768
 20
576.973436
 30
0.0
 10
483.342272
 20
573.538828
 30
0.0
 10
483.281632
 20
570.296332
 30
0.0
 10
488.915832
 20
563.558604
 30
0.0
 10
488.937592
 20
566.847420
 30
0.0
 10
485.951224
 20
570.367196
 30
0.0
 10
488.994160
 20
570.282020
 30
0.0
 10
488.934160
 20
573.976172
 30
0.0
 10
492.015936
 20
570.331748
 30
0.0
 10
494.589592
 20
570.342700
 30
0.0
  0
LWPOLYLINE
  5
17c
100
AcDbEntity
  8
Layer_1
 62
3
100
AcDbPolyline
 90
15
 70
1
 10
494.579024
 20
556.949340
 30
0.0
 10
488.980272
 20
563.519516
 30
0.0
 10
486.324960
 20
563.565836
 30
0.0
 10
483.250016
 20
567.192548
 30
0.0
 10
483.264336
 20
563.516100
 30
0.0
 10
480.292272
 20
563.580100
 30
0.0
 10
483.331784
 20
560.145492
 30
0.0
 10
483.271144
 20
556.902996
 30
0.0
 10
488.905344
 20
550.165268
 30
0.0
 10
488.927104
 20
553.454084
 30
0.0
 10
485.940752
 20
556.973860
 30
0.0
 10
488.983680
 20
556.888684
 30
0.0
 10
488.923680
 20
560.582852
 30
0.0
 10
492.005464
 20
556.938412
 30
0.0
 10
494.579024
 20
556.949340
 30
0.0
  0
LWPOLYLINE
  5
17d
100
AcDbEntity
  8
Layer_1
 62
3
100
AcDbPolyline
 90
15
 70
1
 10
505.955312
 20
570.533404
 30
0.0
 10
500.356560
 20
577.103564
 30
0.0
 10
497.701248
 20
577.149884
 30
0.0
 10
494.626304
 20
580.776596
 30
0.0
 10
494.640624
 20
577.100148
 30
0.0
 10
491.668560
 20
577.164148
 30
0.0
 10
494.708072
 20
573.729548
 30
0.0
 10
494.647432
 20
570.487044
 30
0.0
 10
500.281624
 20
563.749324
 30
0.0
 10
500.303384
 20
567.038140
 30
0.0
 10
497.317032
 20
570.557916
 30
0.0
 10
500.359960
 20
570.472732
 30
0.0
 10
500.299960
 20
574.166900
 30
0.0
 10
503.381744
 20
570.522476
 30
0.0
 10
505.955312
 20
570.533404
 30
0.0
  0
LWPOLYLINE
  5
17e
100
AcDbEntity
  8
Layer_1
 62
3
100
AcDbPolyline
 90
15
 70
1
 10
506.013696
 20
556.917644
 30
0.0
 10
500.414944
 20
563.487820
 30
0.0
 10
497.759640
 20
563.534140
 30
0.0
 10
494.684688
 20
567.160844
 30
0.0
 10
494.699008
 20
563.484404
 30
0.0
 10
491.726944
 20
563.548404
 30
0.0
 10
494.766456
 20
560.113804
 30
0.0
 10
494.705816
 20
556.871300
 30
0.0
 10
500.340008
 20
550.133564
 30
0.0
 10
500.361768
 20
553.422396
 30
0.0
 10
497.375400
 20
556.942164
 30
0.0
 10
500.418336
 20
556.856988
 30
0.0
 10
500.358336
 20
560.551140
 30
0.0
 10
503.440120
 20
556.906716
 30
0.0
 10
506.013696
 20
556.917644
 30
0.0
  0
LWPOLYLINE
  5
17f
100
AcDbEntity
  8
Layer_1
 62
3
100
AcDbPolyline
 90
15
 70
1
 10
506.024264
 20
543.222396
 30
0.0
 10
500.425504
 20
549.792564
 30
0.0
 10
497.770200
 20
549.838884
 30
0.0
 10
494.695256
 20
553.465588
 30
0.0
 10
494.709576
 20
549.789140
 30
0.0
 10
491.737520
 20
549.853140
 30
0.0
 10
494.777024
 20
546.418532
 30
0.0
 10
494.716384
 20
543.176028
 30
0.0
 10
500.350576
 20
536.438308
 30
0.0
 10
500.372336
 20
539.727124
 30
0.0
 10
497.385968
 20
543.246900
 30
0.0
 10
500.428904
 20
543.161716
 30
0.0
 10
500.368904
 20
546.855876
 30
0.0
 10
503.450688
 20
543.211452
 30
0.0
 10
506.024264
 20
543.222396
 30
0.0
  0
LWPOLYLINE
  5
180
100
AcDbEntity
  8
Layer_1
 62
3
100
AcDbPolyline
 90
15
 70
1
 10
483.244992
 20
570.242068
 30
0.0
 10
477.646224
 20
576.812244
 30
0.0
 10
474.990928
 20
576.858564
 30
0.0
 10
471.915984
 20
580.485268
 30
0.0
 10
471.930224
 20
576.808828
 30
0.0
 10
468.958176
 20
576.872828
 30
0.0
 10
471.997680
 20
573.438220
 30
0.0
 10
471.937040
 20
570.195724
 30
0.0
 10
477.571240
 20
563.457988
 30
0.0
 10
477.593000
 20
566.746812
 30
0.0
 10
474.606632
 20
570.266588
 30
0.0
 10
477.649560
 20
570.181412
 30
0.0
 10
477.589560
 20
573.875564
 30
0.0
 10
480.671336
 20
570.231140
 30
0.0
 10
483.244992
 20
570.242068
 30
0.0
  0
LWPOLYLINE
  5
181
100
AcDbEntity
  8
Layer_1
 62
3
100
AcDbPolyline
 90
15
 70
1
 10
494.467832
 20
543.434220
 30
0.0
 10
488.869072
 20
550.004396
 30
0.0
 10
486.213760
 20
550.050716
 30
0.0
 10
483.138824
 20
553.677428
 30
0.0
 10
483.153144
 20
550.000980
 30
0.0
 10
480.181080
 20
550.064980
 30
0.0
 10
483.220600
 20
546.630372
 30
0.0
 10
483.159960
 20
543.387876
 30
0.0
 10
488.794160
 20
536.650148
 30
0.0
 10
488.815920
 20
539.938964
 30
0.0
 10
485.829560
 20
543.458740
 30
0.0
 10
488.872488
 20
543.373564
 30
0.0
 10
488.812488
 20
547.067732
 30
0.0
 10
491.894272
 20
543.423292
 30
0.0
 10
494.467832
 20
543.434220
 30
0.0
  0
LWPOLYLINE
  5
182
100
AcDbEntity
  8
Layer_1
 62
3
100
AcDbPolyline
 90
15
 70
1
 10
483.154912
 20
556.827588
 30
0.0
 10
477.556152
 20
563.397748
 30
0.0
 10
474.900856
 20
563.444068
 30
0.0
 10
471.825904
 20
567.070780
 30
0.0
 10
471.840224
 20
563.394332
 30
0.0
 10
468.868168
 20
563.458332
 30
0.0
 10
471.907680
 20
560.023724
 30
0.0
 10
471.847040
 20
556.781220
 30
0.0
 10
477.481240
 20
550.043492
 30
0.0
 10
477.503000
 20
553.332316
 30
0.0
 10
474.516632
 20
556.852084
 30
0.0
 10
477.559560
 20
556.766908
 30
0.0
 10
477.499560
 20
560.461060
 30
0.0
 10
480.581336
 20
556.816636
 30
0.0
 10
483.154912
 20
556.827588
 30
0.0
  0
LWPOLYLINE
  5
183
100
AcDbEntity
  8
Layer_1
 62
3
100
AcDbPolyline
 90
15
 70
1
 10
505.902504
 20
529.707276
 30
0.0
 10
500.303744
 20
536.277444
 30
0.0
 10
497.648448
 20
536.323764
 30
0.0
 10
494.573496
 20
539.950468
 30
0.0
 10
494.587816
 20
536.274020
 30
0.0
 10
491.615752
 20
536.338020
 30
0.0
 10
494.655272
 20
532.903404
 30
0.0
 10
494.594632
 20
529.660908
 30
0.0
 10
500.228832
 20
522.923180
 30
0.0
 10
500.250592
 20
526.212004
 30
0.0
 10
497.264232
 20
529.731772
 30
0.0
 10
500.307168
 20
529.646588
 30
0.0
 10
500.247168
 20
533.340748
 30
0.0
 10
503.328944
 20
529.696324
 30
0.0
 10
505.902504
 20
529.707276
 30
0.0
  0
LWPOLYLINE
  5
184
100
AcDbEntity
  8
Layer_1
 62
3
100
AcDbPolyline
 90
15
 70
1
 10
506.518168
 20
597.567948
 30
0.0
 10
500.919400
 20
604.138108
 30
0.0
 10
498.264096
 20
604.184428
 30
0.0
 10
495.189152
 20
607.811132
 30
0.0
 10
495.203472
 20
604.134684
 30
0.0
 10
492.231416
 20
604.198684
 30
0.0
 10
495.270920
 20
600.764076
 30
0.0
 10
495.210280
 20
597.521580
 30
0.0
 10
500.844472
 20
590.783852
 30
0.0
 10
500.866232
 20
594.072668
 30
0.0
 10
497.879872
 20
597.592444
 30
0.0
 10
500.922800
 20
597.507268
 30
0.0
 10
500.862800
 20
601.201420
 30
0.0
 10
503.944576
 20
597.556996
 30
0.0
 10
506.518168
 20
597.567948
 30
0.0
  0
LWPOLYLINE
  5
185
100
AcDbEntity
  8
Layer_1
 62
3
100
AcDbPolyline
 90
15
 70
1
 10
494.961728
 20
597.779764
 30
0.0
 10
489.362968
 20
604.349940
 30
0.0
 10
486.707664
 20
604.396260
 30
0.0
 10
483.632720
 20
608.022980
 30
0.0
 10
483.647040
 20
604.346532
 30
0.0
 10
480.674976
 20
604.410532
 30
0.0
 10
483.714488
 20
600.975932
 30
0.0
 10
483.653848
 20
597.733428
 30
0.0
 10
489.288048
 20
590.995708
 30
0.0
 10
489.309808
 20
594.284524
 30
0.0
 10
486.323448
 20
597.804300
 30
0.0
 10
489.366384
 20
597.719116
 30
0.0
 10
489.306384
 20
601.413284
 30
0.0
 10
492.388176
 20
597.768852
 30
0.0
 10
494.961728
 20
597.779764
 30
0.0
  0
LWPOLYLINE
  5
186
100
AcDbEntity
  8
Layer_1
 62
3
100
AcDbPolyline
 90
15
 70
1
 10
483.648808
 20
611.173132
 30
0.0
 10
478.050056
 20
617.743300
 30
0.0
 10
475.394752
 20
617.789620
 30
0.0
 10
472.319800
 20
621.416324
 30
0.0
 10
472.334120
 20
617.739876
 30
0.0
 10
469.362056
 20
617.803876
 30
0.0
 10
472.401568
 20
614.369260
 30
0.0
 10
472.340928
 20
611.126756
 30
0.0
 10
477.975120
 20
604.389036
 30
0.0
 10
477.996880
 20
607.677852
 30
0.0
 10
475.010512
 20
611.197628
 30
0.0
 10
478.053448
 20
611.112444
 30
0.0
 10
477.993448
 20
614.806604
 30
0.0
 10
481.075232
 20
611.162180
 30
0.0
 10
483.648808
 20
611.173132
 30
0.0
  0
LWPOLYLINE
  5
187
100
AcDbEntity
  8
Layer_1
 62
3
100
AcDbPolyline
 90
15
 70
1
 10
506.396400
 20
584.052828
 30
0.0
 10
500.797648
 20
590.622988
 30
0.0
 10
498.142344
 20
590.669308
 30
0.0
 10
495.067392
 20
594.296012
 30
0.0
 10
495.081712
 20
590.619564
 30
0.0
 10
492.109648
 20
590.683564
 30
0.0
 10
495.149160
 20
587.248948
 30
0.0
 10
495.088520
 20
584.006460
 30
0.0
 10
500.722720
 20
577.268724
 30
0.0
 10
500.744480
 20
580.557556
 30
0.0
 10
497.758128
 20
584.077316
 30
0.0
 10
500.801056
 20
583.992140
 30
0.0
 10
500.741056
 20
587.686292
 30
0.0
 10
503.822832
 20
584.041868
 30
0.0
 10
506.396400
 20
584.052828
 30
0.0
  0
LWPOLYLINE
  5
188
100
AcDbEntity
  8
Layer_1
 62
3
100
AcDbPolyline
 90
15
 70
1
 10
517.496664
 20
570.569028
 30
0.0
 10
511.897904
 20
577.139188
 30
0.0
 10
509.242600
 20
577.185508
 30
0.0
 10
506.167648
 20
580.812212
 30
0.0
 10
506.181968
 20
577.135764
 30
0.0
 10
503.209904
 20
577.199764
 30
0.0
 10
506.249416
 20
573.765164
 30
0.0
 10
506.188776
 20
570.522660
 30
0.0
 10
511.822968
 20
563.784932
 30
0.0
 10
511.844728
 20
567.073748
 30
0.0
 10
508.858360
 20
570.593524
 30
0.0
 10
511.901296
 20
570.508348
 30
0.0
 10
511.841296
 20
574.202516
 30
0.0
 10
514.923072
 20
570.558084
 30
0.0
 10
517.496664
 20
570.569028
 30
0.0
  0
LWPOLYLINE
  5
189
100
AcDbEntity
  8
Layer_1
 62
3
100
AcDbPolyline
 90
15
 70
1
 10
528.971264
 20
570.763612
 30
0.0
 10
523.372496
 20
577.333780
 30
0.0
 10
520.717200
 20
577.380100
 30
0.0
 10
517.642256
 20
581.006812
 30
0.0
 10
517.656496
 20
577.330372
 30
0.0
 10
514.684448
 20
577.394372
 30
0.0
 10
517.723952
 20
573.959764
 30
0.0
 10
517.663312
 20
570.717260
 30
0.0
 10
523.297512
 20
563.979532
 30
0.0
 10
523.319272
 20
567.268356
 30
0.0
 10
520.332904
 20
570.788132
 30
0.0
 10
523.375840
 20
570.702948
 30
0.0
 10
523.315840
 20
574.397108
 30
0.0
 10
526.397616
 20
570.752684
 30
0.0
 10
528.971264
 20
570.763612
 30
0.0
  0
SPLINE
  5
18a
100
AcDbEntity
  8
Layer_1
 62
3
100
AcDbSpline
 70
0
 71
3
 72
10
 73
6
 74
4
 40
0.000000
 40
0.000000
 40
0.000000
 40
0.000000
 40
2.579104
 40
5.074402
 40
7.653510
 40
7.653510
 40
7.653510
 40
7.653510
 10
102.962416
 20
669.362484
 30
0.0
 10
102.828319
 20
670.227219
 30
0.0
 10
102.564483
 20
671.928589
 30
0.0
 10
100.603525
 20
673.889550
 30
0.0
 10
98.902152
 20
674.153387
 30
0.0
 10
98.037416
 20
674.287484
 30
0.0
 11
102.962416
 21
669.362484
 31
0.0
 11
102.292419
 21
671.853042
 31
0.0
 11
100.527978
 21
673.617485
 31
0.0
 11
98.037416
 21
674.287484
 31
0.0
  0
LWPOLYLINE
  5
18b
100
AcDbEntity
  8
Layer_1
 62
3
100
AcDbPolyline
 90
15
 70
1
 10
528.881184
 20
557.349124
 30
0.0
 10
523.282432
 20
563.919292
 30
0.0
 10
520.627128
 20
563.965612
 30
0.0
 10
517.552176
 20
567.592316
 30
0.0
 10
517.566496
 20
563.915868
 30
0.0
 10
514.594432
 20
563.979868
 30
0.0
 10
517.633944
 20
560.545252
 30
0.0
 10
517.573304
 20
557.302748
 30
0.0
 10
523.207504
 20
550.565028
 30
0.0
 10
523.229264
 20
553.853844
 30
0.0
 10
520.242896
 20
557.373620
 30
0.0
 10
523.285832
 20
557.288436
 30
0.0
 10
523.225832
 20
560.982596
 30
0.0
 10
526.307608
 20
557.338172
 30
0.0
 10
528.881184
 20
557.349124
 30
0.0
  0
ENDSEC
  0
SECTION
  2
OBJECTS
  0
DICTIONARY
  5
C
330
0
100
AcDbDictionary
  3
ACAD_GROUP
350
D
  3
ACAD_MLINESTYLE
350
17
  0
DICTIONARY
  5
D
330
C
100
AcDbDictionary
  0
DICTIONARY
  5
1A
330
C
100
AcDbDictionary
  0
DICTIONARY
  5
17
330
C
100
AcDbDictionary
  3
STANDARD
350
18
  0
DICTIONARY
  5
19
330
C
100
AcDbDictionary
  0
ENDSEC
  0
EOF
