0
SECTION
2
HEADER
9
$INSUNITS
70
1
9
$ACADVER
1
AC1014
9
$HANDSEED
5
FFFF
0
ENDSEC
0
SECTION
2
TABLES
0
TABLE
2
VPORT
5
8
100
AcDbSymbolTable
0
ENDTAB
0
TABLE
2
LTYPE
5
5
100
AcDbSymbolTable
0
LTYPE
5
14
100
AcDbSymbolTableRecord
100
AcDbLinetypeTableRecord
2
BYBLOCK
70
0
0
LTYPE
5
15
100
AcDbSymbolTableRecord
100
AcDbLinetypeTableRecord
2
BYLAYER
70
0
0
ENDTAB
0
TABLE
2
LAYER
5
2
100
AcDbSymbolTable
70
2
0
LAYER
5
50
100
AcDbSymbolTableRecord
100
AcDbLayerTableRecord
2
0
70
0
6
CONTINUOUS
0
ENDTAB
0
TABLE
2
STYLE
5
3
100
AcDbSymbolTable
70
1
0
STYLE
5
11
100
AcDbSymbolTableRecord
100
AcDbTextStyleTableRecord
2
STANDARD
70
0
0
ENDTAB
0
TABLE
2
VIEW
5
6
100
AcDbSymbolTable
70
0
0
ENDTAB
0
TABLE
2
UCS
5
7
100
AcDbSymbolTable
70
0
0
ENDTAB
0
TABLE
2
APPID
5
9
100
AcDbSymbolTable
70
2
0
APPID
5
12
100
AcDbSymbolTableRecord
100
AcDbRegAppTableRecord
2
ACAD
70
0
0
ENDTAB
0
TABLE
2
DIMSTYLE
5
A
100
AcDbSymbolTable
70
1
0
ENDTAB
0
TABLE
2
BLOCK_RECORD
5
1
100
AcDbSymbolTable
70
1
0
BLOCK_RECORD
5
1F
100
AcDbSymbolTableRecord
100
AcDbBlockTableRecord
2
*MODEL_SPACE
0
BLOCK_RECORD
5
1B
100
AcDbSymbolTableRecord
100
AcDbBlockTableRecord
2
*PAPER_SPACE
0
ENDTAB
0
ENDSEC
0
SECTION
2
BLOCKS
0
BLOCK
5
20
100
AcDbEntity
100
AcDbBlockBegin
2
*MODEL_SPACE
0
ENDBLK
5
21
100
AcDbEntity
100
AcDbBlockEnd
0
BLOCK
5
1C
100
AcDbEntity
100
AcDbBlockBegin
2
*PAPER_SPACE
0
ENDBLK
5
1D
100
AcDbEntity
100
AcDbBlockEnd
0
ENDSEC
0
SECTION
2
ENTITIES
0
CIRCLE
5
100
100
AcDbEntity
8
0
100
AcDbCircle
10
5.0000000000000044
20
-1.9773611261735509
30
0
40
0.19685039370078755
0
CIRCLE
5
101
100
AcDbEntity
8
0
100
AcDbCircle
10
1.0000000000000038
20
-1.9773611261735509
30
0
40
0.078740157480314973
0
CIRCLE
5
102
100
AcDbEntity
8
0
100
AcDbCircle
10
2.0000000000000036
20
1.0226388738264511
30
0
40
0.08199999999999992
0
CIRCLE
5
103
100
AcDbEntity
8
0
100
AcDbCircle
10
6.0000000000000071
20
1.0226388738264511
30
0
40
0.18750000000000003
0
CIRCLE
5
104
100
AcDbEntity
8
0
100
AcDbCircle
10
4.9999999999999991
20
1.0226388738264507
30
0
40
0.15625000000000003
0
CIRCLE
5
105
100
AcDbEntity
8
0
100
AcDbCircle
10
1.0000000000000038
20
1.0226388738264511
30
0
40
0.069000000000000075
0
CIRCLE
5
106
100
AcDbEntity
8
0
100
AcDbCircle
10
2.000000000000004
20
-1.9773611261735509
30
0
40
0.098425196850393692
0
CIRCLE
5
107
100
AcDbEntity
8
0
100
AcDbCircle
10
6.0000000000000071
20
-1.9773611261735511
30
0
40
0.23622047244094482
0
CIRCLE
5
108
100
AcDbEntity
8
0
100
AcDbCircle
10
4.0000000000000036
20
-1.9773611261735504
30
0
40
0.15748031496062995
0
CIRCLE
5
109
100
AcDbEntity
8
0
100
AcDbCircle
10
4.1961185182683078e-15
20
-1.9773611261735515
30
0
40
0.05905511811023615
0
CIRCLE
5
110
100
AcDbEntity
8
0
100
AcDbCircle
10
2.9999999999999987
20
1.0226388738264507
30
0
40
0.094999999999999932
0
CIRCLE
5
111
100
AcDbEntity
8
0
100
AcDbCircle
10
7.0000000000000044
20
1.0226388738264502
30
0
40
0.25000000000000061
0
CIRCLE
5
112
100
AcDbEntity
8
0
100
AcDbCircle
10
4
20
1.0226388738264507
30
0
40
0.12499999999999994
0
CIRCLE
5
113
100
AcDbEntity
8
0
100
AcDbCircle
10
4.1961185182683078e-15
20
1.0226388738264511
30
0
40
0.05600000000000005
0
CIRCLE
5
114
100
AcDbEntity
8
0
100
AcDbCircle
10
3.0000000000000036
20
-1.9773611261735509
30
0
40
0.11811023622047236
0
CIRCLE
5
115
100
AcDbEntity
8
0
100
AcDbCircle
10
7.0000000000000027
20
-1.9773611261735491
30
0
40
0.27559055118110232
0
CIRCLE
5
116
100
AcDbEntity
8
0
100
AcDbCircle
10
4.0000000000000009
20
0.022638873826450651
30
0
40
0.12499999999999994
0
CIRCLE
5
117
100
AcDbEntity
8
0
100
AcDbCircle
10
3.0000000000000044
20
-0.97736112617354953
30
0
40
0.11811023622047272
0
CIRCLE
5
118
100
AcDbEntity
8
0
100
AcDbCircle
10
3
20
0.022638873826450683
30
0
40
0.095000000000000279
0
CIRCLE
5
119
100
AcDbEntity
8
0
100
AcDbCircle
10
2.0000000000000036
20
0.022638873826450412
30
0
40
0.082000000000000087
0
CIRCLE
5
120
100
AcDbEntity
8
0
100
AcDbCircle
10
1.0000000000000038
20
-0.97736112617354953
30
0
40
0.078740157480314668
0
CIRCLE
5
121
100
AcDbEntity
8
0
100
AcDbCircle
10
4.1961185182683078e-15
20
-0.97736112617354953
30
0
40
0.059055118110235658
0
CIRCLE
5
122
100
AcDbEntity
8
0
100
AcDbCircle
10
6.0000000000000071
20
0.022638873826450585
30
0
40
0.18749999999999992
0
CIRCLE
5
123
100
AcDbEntity
8
0
100
AcDbCircle
10
5.0000000000000009
20
0.022638873826450016
30
0
40
0.15624999999999983
0
CIRCLE
5
124
100
AcDbEntity
8
0
100
AcDbCircle
10
4.0000000000000036
20
-0.97736112617354953
30
0
40
0.1574803149606297
0
CIRCLE
5
125
100
AcDbEntity
8
0
100
AcDbCircle
10
1.0000000000000038
20
0.022638873826450412
30
0
40
0.068999999999999895
0
CIRCLE
5
126
100
AcDbEntity
8
0
100
AcDbCircle
10
2.000000000000004
20
-0.97736112617354953
30
0
40
0.098425196850393692
0
CIRCLE
5
127
100
AcDbEntity
8
0
100
AcDbCircle
10
5.0000000000000044
20
-0.97736112617354953
30
0
40
0.19685039370078738
0
CIRCLE
5
128
100
AcDbEntity
8
0
100
AcDbCircle
10
7.0000000000000044
20
-0.97736112617354953
30
0
40
0.27559055118110243
0
CIRCLE
5
129
100
AcDbEntity
8
0
100
AcDbCircle
10
7.0000000000000044
20
0.022638873826450412
30
0
40
0.24999999999999994
0
CIRCLE
5
130
100
AcDbEntity
8
0
100
AcDbCircle
10
4.1961185182683078e-15
20
0.022638873826450412
30
0
40
0.056000000000000404
0
CIRCLE
5
131
100
AcDbEntity
8
0
100
AcDbCircle
10
6.0000000000000044
20
-0.97736112617354953
30
0
40
0.23622047244094491
0
LWPOLYLINE
5
132
100
AcDbEntity
8
0
100
AcDbPolyline
90
4
70
1
43
0.0
10
-0.99999999999999534
20
-2.9773611261735491
10
-0.99999999999999534
20
2.0226388738264505
10
8.0000000000000036
20
2.02263887382645
10
8.0000000000000036
20
-2.9773611261735495
0
ENDSEC
0
SECTION
2
OBJECTS
0
DICTIONARY
5
C
100
AcDbDictionary
3
ACAD_GROUP
350
D
3
ACAD_MLINESTYLE
350
17
0
DICTIONARY
5
D
100
AcDbDictionary
0
DICTIONARY
5
1A
330
C
100
AcDbDictionary
0
DICTIONARY
5
17
100
AcDbDictionary
0
ENDSEC
0
EOF
