  0
SECTION
  2
HEADER
  9
$ACADVER
  1
AC1014
  9
$HANDSEED
  5
FFFF
  9
$MEASUREMENT
 70
     1
  0
ENDSEC
  0
SECTION
  2
TABLES
  0
TABLE
  2
VPORT
  5
8
330
0
100
AcDbSymbolTable
 70
     4
  0
VPORT
  5
2E
330
8
100
AcDbSymbolTableRecord
100
AcDbViewportTableRecord
  2
*ACTIVE
 70
     0
 10
0.0
 20
0.0
 11
1.0
 21
1.0
 12
210.0
 22
148.5
 13
0.0
 23
0.0
 14
10.0
 24
10.0
 15
10.0
 25
10.0
 16
0.0
 26
0.0
 36
1.0
 17
0.0
 27
0.0
 37
0.0
 40
341.0
 41
1.24
 42
50.0
 43
0.0
 44
0.0
 50
0.0
 51
0.0
 71
     0
 72
   100
 73
     1
 74
     3
 75
     0
 76
     0
 77
     0
 78
     0
  0
ENDTAB
  0
TABLE
  2
LTYPE
  5
5
330
0
100
AcDbSymbolTable
 70
     1
  0
LTYPE
  5
14
330
5
100
AcDbSymbolTableRecord
100
AcDbLinetypeTableRecord
  2
BYBLOCK
 70
     0
  3

 72
    65
 73
     0
 40
0.0
  0
LTYPE
  5
15
330
5
100
AcDbSymbolTableRecord
100
AcDbLinetypeTableRecord
  2
BYLAYER
 70
     0
  3

 72
    65
 73
     0
 40
0.0
  0
LTYPE
  5
16
330
5
100
AcDbSymbolTableRecord
100
AcDbLinetypeTableRecord
  2
CONTINUOUS
 70
     0
  3
Solid line
 72
    65
 73
     0
 40
0.0
  0
ENDTAB
  0
TABLE
  2
LAYER
  5
2
100
AcDbSymbolTable
 70
2
  0
LAYER
  5
50
100
AcDbSymbolTableRecord
100
AcDbLayerTableRecord
  2
0
 70
0
  6
CONTINUOUS
  0
LAYER
  5
51
100
AcDbSymbolTableRecord
100
AcDbLayerTableRecord
  2
Layer_1
 70
0
  6
CONTINUOUS
  0
ENDTAB
  0
TABLE
  2
STYLE
  5
3
330
0
100
AcDbSymbolTable
 70
     1
  0
STYLE
  5
11
330
3
100
AcDbSymbolTableRecord
100
AcDbTextStyleTableRecord
  2
STANDARD
 70
     0
 40
0.0
 41
1.0
 50
0.0
 71
     0
 42
2.5
  3
txt
  4

  0
ENDTAB
  0
TABLE
  2
VIEW
  5
6
330
0
100
AcDbSymbolTable
 70
     0
  0
ENDTAB
  0
TABLE
  2
UCS
  5
7
330
0
100
AcDbSymbolTable
 70
     0
  0
ENDTAB
  0
TABLE
  2
APPID
  5
9
330
0
100
AcDbSymbolTable
 70
     2
  0
APPID
  5
12
330
9
100
AcDbSymbolTableRecord
100
AcDbRegAppTableRecord
  2
ACAD
 70
     0
  0
ENDTAB
  0
TABLE
  2
DIMSTYLE
  5
A
330
0
100
AcDbSymbolTable
 70
     1
  0
DIMSTYLE
105
27
330
A
100
AcDbSymbolTableRecord
100
AcDbDimStyleTableRecord
  2
ISO-25
 70
     0
  3

  4

  5

  6

  7

 40
1.0
 41
2.5
 42
0.625
 43
3.75
 44
1.25
 45
0.0
 46
0.0
 47
0.0
 48
0.0
140
2.5
141
2.5
142
0.0
143
0.03937007874016
144
1.0
145
0.0
146
1.0
147
0.625
 71
     0
 72
     0
 73
     0
 74
     0
 75
     0
 76
     0
 77
     1
 78
     8
170
     0
171
     3
172
     1
173
     0
174
     0
175
     0
176
     0
177
     0
178
     0
270
     2
271
     2
272
     2
273
     2
274
     3
340
11
275
     0
280
     0
281
     0
282
     0
283
     0
284
     8
285
     0
286
     0
287
     3
288
     0
  0
ENDTAB
  0
TABLE
  2
BLOCK_RECORD
  5
1
330
0
100
AcDbSymbolTable
 70
     1
  0
BLOCK_RECORD
  5
1F
330
1
100
AcDbSymbolTableRecord
100
AcDbBlockTableRecord
  2
*MODEL_SPACE
  0
BLOCK_RECORD
  5
1B
330
1
100
AcDbSymbolTableRecord
100
AcDbBlockTableRecord
  2
*PAPER_SPACE
  0
ENDTAB
  0
ENDSEC
  0
SECTION
  2
BLOCKS
  0
BLOCK
  5
20
330
1F
100
AcDbEntity
  8
0
100
AcDbBlockBegin
  2
*MODEL_SPACE
 70
     0
 10
0.0
 20
0.0
 30
0.0
  3
*MODEL_SPACE
  1

  0
ENDBLK
  5
21
330
1F
100
AcDbEntity
  8
0
100
AcDbBlockEnd
  0
BLOCK
  5
1C
330
1B
100
AcDbEntity
 67
     1
  8
0
100
AcDbBlockBegin
  2
*PAPER_SPACE
  1

  0
ENDBLK
  5
1D
330
1B
100
AcDbEntity
 67
     1
  8
0
100
AcDbBlockEnd
  0
ENDSEC
  0
SECTION
  2
ENTITIES
  0
SPLINE
  5
100
100
AcDbEntity
  8
Layer_1
 62
1
100
AcDbSpline
 70
0
 71
3
 72
25
 73
21
 74
19
 40
0.000000
 40
0.000000
 40
0.000000
 40
0.000000
 40
25.516949
 40
50.668711
 40
76.185659
 40
101.702607
 40
126.854367
 40
152.371315
 40
177.888263
 40
203.040025
 40
228.556974
 40
254.073923
 40
279.225683
 40
304.742631
 40
330.259578
 40
355.411338
 40
380.928285
 40
406.445233
 40
431.596993
 40
457.113942
 40
457.113942
 40
457.113942
 40
457.113942
 10
17.065214
 20
332.573422
 30
0.0
 10
17.938872
 20
324.024391
 30
0.0
 10
19.673685
 20
307.048680
 30
0.0
 10
33.133004
 20
284.615017
 30
0.0
 10
52.839727
 20
267.936176
 30
0.0
 10
77.242792
 20
259.090274
 30
0.0
 10
103.137197
 20
259.090274
 30
0.0
 10
127.506084
 20
267.936176
 30
0.0
 10
147.349272
 20
284.615017
 30
0.0
 10
160.301544
 20
307.048680
 30
0.0
 10
164.823827
 20
332.573422
 30
0.0
 10
160.301543
 20
358.098163
 30
0.0
 10
147.349271
 20
380.531826
 30
0.0
 10
127.506083
 20
397.210666
 30
0.0
 10
103.137196
 20
406.056567
 30
0.0
 10
77.242793
 20
406.056567
 30
0.0
 10
52.839728
 20
397.210666
 30
0.0
 10
33.133006
 20
380.531826
 30
0.0
 10
19.673686
 20
358.098163
 30
0.0
 10
17.938872
 20
341.122452
 30
0.0
 10
17.065214
 20
332.573422
 30
0.0
 11
17.065214
 21
332.573422
 31
0.0
 11
21.516429
 21
307.447710
 31
0.0
 11
34.092308
 21
285.665645
 31
0.0
 11
53.626203
 21
269.247923
 31
0.0
 11
77.611314
 21
260.539933
 31
0.0
 11
102.763074
 21
260.539933
 31
0.0
 11
126.748185
 21
269.247923
 31
0.0
 11
146.282080
 21
285.665645
 31
0.0
 11
158.857959
 21
307.447710
 31
0.0
 11
163.309174
 21
332.573422
 31
0.0
 11
158.857958
 21
357.699133
 31
0.0
 11
146.282079
 21
379.481197
 31
0.0
 11
126.748184
 21
395.898918
 31
0.0
 11
102.763074
 21
404.606908
 31
0.0
 11
77.611314
 21
404.606908
 31
0.0
 11
53.626204
 21
395.898918
 31
0.0
 11
34.092309
 21
379.481197
 31
0.0
 11
21.516429
 21
357.699133
 31
0.0
 11
17.065214
 21
332.573422
 31
0.0
  0
LWPOLYLINE
  5
101
100
AcDbEntity
  8
Layer_1
 62
1
100
AcDbPolyline
 90
2
 70
1
 10
17.065214
 20
332.573422
 30
0.0
 10
17.065214
 20
332.573422
 30
0.0
  0
LWPOLYLINE
  5
102
100
AcDbEntity
  8
Layer_1
 62
7
100
AcDbPolyline
 90
2
 70
1
 10
468.997187
 20
334.908223
 30
0.0
 10
468.997187
 20
334.908223
 30
0.0
  0
SPLINE
  5
103
100
AcDbEntity
  8
Layer_1
 62
7
100
AcDbSpline
 70
0
 71
3
 72
25
 73
21
 74
19
 40
0.000000
 40
0.000000
 40
0.000000
 40
0.000000
 40
2.061252
 40
4.093004
 40
6.154255
 40
8.215507
 40
10.247259
 40
12.308510
 40
14.369762
 40
16.401514
 40
18.462765
 40
20.524017
 40
22.555769
 40
24.617020
 40
26.678272
 40
28.710024
 40
30.771275
 40
32.832527
 40
34.864279
 40
36.925530
 40
36.925530
 40
36.925530
 40
36.925530
 10
468.997187
 20
334.908223
 30
0.0
 10
469.067761
 20
334.217635
 30
0.0
 10
469.207899
 20
332.846342
 30
0.0
 10
470.295139
 20
331.034157
 30
0.0
 10
471.887042
 20
329.686846
 30
0.0
 10
473.858315
 20
328.972276
 30
0.0
 10
475.950057
 20
328.972276
 30
0.0
 10
477.918568
 20
329.686846
 30
0.0
 10
479.521495
 20
331.034157
 30
0.0
 10
480.567776
 20
332.846342
 30
0.0
 10
480.933085
 20
334.908223
 30
0.0
 10
480.567776
 20
336.970104
 30
0.0
 10
479.521495
 20
338.782289
 30
0.0
 10
477.918568
 20
340.129601
 30
0.0
 10
475.950057
 20
340.844170
 30
0.0
 10
473.858315
 20
340.844170
 30
0.0
 10
471.887042
 20
340.129601
 30
0.0
 10
470.295139
 20
338.782289
 30
0.0
 10
469.207899
 20
336.970104
 30
0.0
 10
469.067761
 20
335.598812
 30
0.0
 10
468.997187
 20
334.908223
 30
0.0
 11
468.997187
 21
334.908223
 31
0.0
 11
469.356755
 21
332.878576
 31
0.0
 11
470.372631
 21
331.119027
 31
0.0
 11
471.950573
 21
329.792808
 31
0.0
 11
473.888084
 21
329.089379
 31
0.0
 11
475.919835
 21
329.089379
 31
0.0
 11
477.857346
 21
329.792808
 31
0.0
 11
479.435288
 21
331.119027
 31
0.0
 11
480.451164
 21
332.878576
 31
0.0
 11
480.810732
 21
334.908223
 31
0.0
 11
480.451164
 21
336.937871
 31
0.0
 11
479.435288
 21
338.697420
 31
0.0
 11
477.857346
 21
340.023638
 31
0.0
 11
475.919835
 21
340.727067
 31
0.0
 11
473.888084
 21
340.727067
 31
0.0
 11
471.950573
 21
340.023638
 31
0.0
 11
470.372631
 21
338.697420
 31
0.0
 11
469.356755
 21
336.937871
 31
0.0
 11
468.997187
 21
334.908223
 31
0.0
  0
LWPOLYLINE
  5
104
100
AcDbEntity
  8
Layer_1
 62
7
100
AcDbPolyline
 90
2
 70
1
 10
424.125752
 20
207.701956
 30
0.0
 10
386.423488
 20
315.939716
 30
0.0
  0
SPLINE
  5
105
100
AcDbEntity
  8
Layer_1
 62
7
100
AcDbSpline
 70
0
 71
3
 72
13
 73
9
 74
7
 40
0.000000
 40
0.000000
 40
0.000000
 40
0.000000
 40
48.825189
 40
100.252301
 40
152.371324
 40
203.725192
 40
254.617978
 40
314.584451
 40
314.584451
 40
314.584451
 40
314.584451
 10
386.423488
 20
315.939716
 30
0.0
 10
385.732192
 20
332.565422
 30
0.0
 10
384.312759
 20
366.702828
 30
0.0
 10
416.572520
 20
411.132757
 30
0.0
 10
468.063054
 20
429.882990
 30
0.0
 10
520.100541
 20
416.496037
 30
0.0
 10
562.409430
 20
375.508059
 30
0.0
 10
560.905529
 20
336.850520
 30
0.0
 10
560.092032
 20
315.939716
 30
0.0
 11
386.423488
 21
315.939716
 31
0.0
 11
389.720719
 21
364.653444
 31
0.0
 11
419.508748
 21
406.575051
 31
0.0
 11
468.440624
 21
424.521196
 31
0.0
 11
518.288441
 21
412.175556
 31
0.0
 11
553.632087
 21
375.557222
 31
0.0
 11
560.092032
 21
315.939716
 31
0.0
  0
LWPOLYLINE
  5
106
100
AcDbEntity
  8
Layer_1
 62
7
100
AcDbPolyline
 90
2
 70
1
 10
560.092032
 20
315.939716
 30
0.0
 10
522.082624
 20
211.106724
 30
0.0
  0
SPLINE
  5
107
100
AcDbEntity
  8
Layer_1
 62
7
100
AcDbSpline
 70
0
 71
3
 72
10
 73
6
 74
4
 40
0.000000
 40
0.000000
 40
0.000000
 40
0.000000
 40
8.345378
 40
14.411984
 40
19.627617
 40
19.627617
 40
19.627617
 40
19.627617
 10
522.082624
 20
211.106724
 30
0.0
 10
521.251846
 20
208.421435
 30
0.0
 10
519.817142
 20
203.784098
 30
0.0
 10
514.637957
 20
199.031557
 30
0.0
 10
510.817746
 20
198.672644
 30
0.0
 10
509.051712
 20
198.506724
 30
0.0
 11
522.082624
 21
211.106724
 31
0.0
 11
518.796207
 21
203.435687
 31
0.0
 11
514.169627
 21
199.511600
 31
0.0
 11
509.051712
 21
198.506724
 31
0.0
  0
LWPOLYLINE
  5
108
100
AcDbEntity
  8
Layer_1
 62
7
100
AcDbPolyline
 90
2
 70
1
 10
509.051712
 20
198.506724
 30
0.0
 10
443.649512
 20
198.501924
 30
0.0
  0
SPLINE
  5
109
100
AcDbEntity
  8
Layer_1
 62
7
100
AcDbSpline
 70
0
 71
3
 72
10
 73
6
 74
4
 40
0.000000
 40
0.000000
 40
0.000000
 40
0.000000
 40
7.752504
 40
14.041913
 40
23.138969
 40
23.138969
 40
23.138969
 40
23.138969
 10
443.649512
 20
198.501924
 30
0.0
 10
441.061547
 20
198.321017
 30
0.0
 10
436.374031
 20
197.993345
 30
0.0
 10
428.712045
 20
200.638633
 30
0.0
 10
425.829827
 20
205.077499
 30
0.0
 10
424.125752
 20
207.701924
 30
0.0
 11
443.649512
 21
198.501924
 31
0.0
 11
435.897148
 21
198.548394
 31
0.0
 11
430.011450
 21
200.765427
 31
0.0
 11
424.125752
 21
207.701924
 31
0.0
  0
LWPOLYLINE
  5
10a
100
AcDbEntity
  8
Layer_1
 62
7
100
AcDbPolyline
 90
2
 70
1
 10
424.125752
 20
207.701924
 30
0.0
 10
424.125752
 20
207.701956
 30
0.0
  0
LWPOLYLINE
  5
10b
100
AcDbEntity
  8
Layer_1
 62
7
100
AcDbPolyline
 90
2
 70
1
 10
264.685718
 20
580.571452
 30
0.0
 10
264.685720
 20
580.571452
 30
0.0
  0
LWPOLYLINE
  5
10c
100
AcDbEntity
  8
Layer_1
 62
7
100
AcDbPolyline
 90
5
 70
1
 10
127.736112
 20
491.200020
 30
0.0
 10
222.663904
 20
491.200020
 30
0.0
 10
222.663904
 20
443.004524
 30
0.0
 10
127.736112
 20
443.004524
 30
0.0
 10
127.736112
 20
491.200020
 30
0.0
  0
SPLINE
  5
10d
100
AcDbEntity
  8
Layer_1
 62
7
100
AcDbSpline
 70
0
 71
3
 72
25
 73
21
 74
19
 40
0.000000
 40
0.000000
 40
0.000000
 40
0.000000
 40
31.107658
 40
61.770116
 40
92.877774
 40
123.985432
 40
154.647891
 40
185.755549
 40
216.863206
 40
247.525665
 40
278.633322
 40
309.740980
 40
340.403439
 40
371.511097
 40
402.618754
 40
433.281213
 40
464.388871
 40
495.496529
 40
526.158987
 40
557.266645
 40
557.266645
 40
557.266645
 40
557.266645
 10
264.685716
 20
580.571452
 30
0.0
 10
263.620641
 20
570.149347
 30
0.0
 10
261.505734
 20
549.454294
 30
0.0
 10
245.097504
 20
522.105464
 30
0.0
 10
221.073079
 20
501.772325
 30
0.0
 10
191.323353
 20
490.988306
 30
0.0
 10
159.755539
 20
490.988306
 30
0.0
 10
130.047480
 20
501.772325
 30
0.0
 10
105.856689
 20
522.105464
 30
0.0
 10
90.066601
 20
549.454294
 30
0.0
 10
84.553495
 20
580.571452
 30
0.0
 10
90.066602
 20
611.688609
 30
0.0
 10
105.856691
 20
639.037440
 30
0.0
 10
130.047481
 20
659.370578
 30
0.0
 10
159.755541
 20
670.154597
 30
0.0
 10
191.323355
 20
670.154597
 30
0.0
 10
221.073081
 20
659.370578
 30
0.0
 10
245.097506
 20
639.037440
 30
0.0
 10
261.505736
 20
611.688609
 30
0.0
 10
263.620643
 20
590.993556
 30
0.0
 10
264.685718
 20
580.571452
 30
0.0
 11
264.685716
 21
580.571452
 31
0.0
 11
259.259249
 21
549.940751
 31
0.0
 11
243.928019
 21
523.386283
 31
0.0
 11
220.114288
 21
503.371474
 31
0.0
 11
190.874089
 21
492.755582
 31
0.0
 11
160.211631
 21
492.755582
 31
0.0
 11
130.971432
 21
503.371474
 31
0.0
 11
107.157701
 21
523.386283
 31
0.0
 11
91.826472
 21
549.940751
 31
0.0
 11
86.400006
 21
580.571452
 31
0.0
 11
91.826473
 21
611.202153
 31
0.0
 11
107.157703
 21
637.756621
 31
0.0
 11
130.971434
 21
657.771430
 31
0.0
 11
160.211633
 21
668.387321
 31
0.0
 11
190.874091
 21
668.387321
 31
0.0
 11
220.114290
 21
657.771430
 31
0.0
 11
243.928021
 21
637.756621
 31
0.0
 11
259.259251
 21
611.202153
 31
0.0
 11
264.685718
 21
580.571452
 31
0.0
  0
LWPOLYLINE
  5
10e
100
AcDbEntity
  8
Layer_1
 62
7
100
AcDbPolyline
 90
5
 70
1
 10
88.873592
 20
559.872260
 30
0.0
 10
129.318256
 20
443.139292
 30
0.0
 10
221.615080
 20
442.666684
 30
0.0
 10
262.059744
 20
558.927060
 30
0.0
 10
88.873592
 20
559.872260
 30
0.0
  0
LWPOLYLINE
  5
10f
100
AcDbEntity
  8
Layer_1
 62
7
100
AcDbPolyline
 90
2
 70
1
 10
492.342854
 20
566.824878
 30
0.0
 10
492.342856
 20
566.824878
 30
0.0
  0
SPLINE
  5
110
100
AcDbEntity
  8
Layer_1
 62
7
100
AcDbSpline
 70
0
 71
3
 72
25
 73
21
 74
19
 40
0.000000
 40
0.000000
 40
0.000000
 40
0.000000
 40
31.107658
 40
61.770116
 40
92.877774
 40
123.985432
 40
154.647891
 40
185.755549
 40
216.863206
 40
247.525665
 40
278.633322
 40
309.740980
 40
340.403439
 40
371.511097
 40
402.618754
 40
433.281213
 40
464.388871
 40
495.496529
 40
526.158987
 40
557.266645
 40
557.266645
 40
557.266645
 40
557.266645
 10
492.342852
 20
566.824878
 30
0.0
 10
491.277777
 20
556.402773
 30
0.0
 10
489.162870
 20
535.707721
 30
0.0
 10
472.754640
 20
508.358890
 30
0.0
 10
448.730215
 20
488.025752
 30
0.0
 10
418.980489
 20
477.241733
 30
0.0
 10
387.412675
 20
477.241733
 30
0.0
 10
357.704616
 20
488.025752
 30
0.0
 10
333.513825
 20
508.358890
 30
0.0
 10
317.723737
 20
535.707721
 30
0.0
 10
312.210631
 20
566.824878
 30
0.0
 10
317.723738
 20
597.942035
 30
0.0
 10
333.513827
 20
625.290866
 30
0.0
 10
357.704617
 20
645.624005
 30
0.0
 10
387.412677
 20
656.408024
 30
0.0
 10
418.980491
 20
656.408024
 30
0.0
 10
448.730217
 20
645.624005
 30
0.0
 10
472.754642
 20
625.290866
 30
0.0
 10
489.162872
 20
597.942036
 30
0.0
 10
491.277779
 20
577.246983
 30
0.0
 10
492.342854
 20
566.824878
 30
0.0
 11
492.342852
 21
566.824878
 31
0.0
 11
486.916385
 21
536.194177
 31
0.0
 11
471.585155
 21
509.639709
 31
0.0
 11
447.771424
 21
489.624900
 31
0.0
 11
418.531225
 21
479.009009
 31
0.0
 11
387.868767
 21
479.009009
 31
0.0
 11
358.628568
 21
489.624900
 31
0.0
 11
334.814837
 21
509.639709
 31
0.0
 11
319.483608
 21
536.194177
 31
0.0
 11
314.057142
 21
566.824878
 31
0.0
 11
319.483609
 21
597.455579
 31
0.0
 11
334.814839
 21
624.010047
 31
0.0
 11
358.628570
 21
644.024856
 31
0.0
 11
387.868769
 21
654.640748
 31
0.0
 11
418.531227
 21
654.640748
 31
0.0
 11
447.771426
 21
644.024856
 31
0.0
 11
471.585157
 21
624.010047
 31
0.0
 11
486.916387
 21
597.455579
 31
0.0
 11
492.342854
 21
566.824878
 31
0.0
  0
LWPOLYLINE
  5
111
100
AcDbEntity
  8
Layer_1
 62
7
100
AcDbPolyline
 90
4
 70
0
 10
316.530728
 20
546.125684
 30
0.0
 10
356.975400
 20
429.392716
 30
0.0
 10
449.272224
 20
428.920108
 30
0.0
 10
489.716880
 20
545.180484
 30
0.0
  0
LWPOLYLINE
  5
112
100
AcDbEntity
  8
Layer_1
 62
7
100
AcDbPolyline
 90
2
 70
1
 10
479.585122
 20
566.933350
 30
0.0
 10
479.585124
 20
566.933350
 30
0.0
  0
LWPOLYLINE
  5
113
100
AcDbEntity
  8
Layer_1
 62
7
100
AcDbPolyline
 90
2
 70
0
 10
372.800000
 20
429.019644
 30
0.0
 10
331.200000
 20
545.600020
 30
0.0
  0
SPLINE
  5
114
100
AcDbEntity
  8
Layer_1
 62
7
100
AcDbSpline
 70
0
 71
3
 72
25
 73
21
 74
19
 40
0.000000
 40
0.000000
 40
0.000000
 40
0.000000
 40
26.469552
 40
52.560283
 40
79.029835
 40
105.499386
 40
131.590118
 40
158.059669
 40
184.529221
 40
210.619952
 40
237.089503
 40
263.559055
 40
289.649786
 40
316.119338
 40
342.588890
 40
368.679621
 40
395.149173
 40
421.618725
 40
447.709456
 40
474.179007
 40
474.179007
 40
474.179007
 40
474.179007
 10
479.585120
 20
566.933350
 30
0.0
 10
478.678846
 20
558.065165
 30
0.0
 10
476.879269
 20
540.455715
 30
0.0
 10
462.917482
 20
517.184554
 30
0.0
 10
442.475063
 20
499.883057
 30
0.0
 10
417.160978
 20
490.706919
 30
0.0
 10
390.299878
 20
490.706919
 30
0.0
 10
365.021247
 20
499.883057
 30
0.0
 10
344.437268
 20
517.184554
 30
0.0
 10
331.001459
 20
540.455715
 30
0.0
 10
326.310349
 20
566.933350
 30
0.0
 10
331.001460
 20
593.410984
 30
0.0
 10
344.437269
 20
616.682145
 30
0.0
 10
365.021249
 20
633.983642
 30
0.0
 10
390.299880
 20
643.159780
 30
0.0
 10
417.160979
 20
643.159780
 30
0.0
 10
442.475065
 20
633.983642
 30
0.0
 10
462.917484
 20
616.682145
 30
0.0
 10
476.879270
 20
593.410984
 30
0.0
 10
478.678848
 20
575.801534
 30
0.0
 10
479.585122
 20
566.933350
 30
0.0
 11
479.585120
 21
566.933350
 31
0.0
 11
474.967731
 21
540.869641
 31
0.0
 11
461.922366
 21
518.274405
 31
0.0
 11
441.659227
 21
501.243775
 31
0.0
 11
416.778699
 21
492.210697
 31
0.0
 11
390.687968
 21
492.210697
 31
0.0
 11
365.807440
 21
501.243775
 31
0.0
 11
345.544301
 21
518.274405
 31
0.0
 11
332.498936
 21
540.869641
 31
0.0
 11
327.881548
 21
566.933350
 31
0.0
 11
332.498937
 21
592.997058
 31
0.0
 11
345.544302
 21
615.592294
 31
0.0
 11
365.807441
 21
632.622924
 31
0.0
 11
390.687969
 21
641.656002
 31
0.0
 11
416.778700
 21
641.656002
 31
0.0
 11
441.659228
 21
632.622924
 31
0.0
 11
461.922367
 21
615.592294
 31
0.0
 11
474.967733
 21
592.997058
 31
0.0
 11
479.585122
 21
566.933350
 31
0.0
  0
LWPOLYLINE
  5
115
100
AcDbEntity
  8
Layer_1
 62
7
100
AcDbPolyline
 90
2
 70
0
 10
435.200000
 20
429.866684
 30
0.0
 10
358.599344
 20
505.600020
 30
0.0
  0
LWPOLYLINE
  5
116
100
AcDbEntity
  8
Layer_1
 62
7
100
AcDbPolyline
 90
2
 70
1
 10
82.444199
 20
332.413239
 30
0.0
 10
82.444199
 20
332.413239
 30
0.0
  0
SPLINE
  5
117
100
AcDbEntity
  8
Layer_1
 62
7
100
AcDbSpline
 70
0
 71
3
 72
25
 73
21
 74
19
 40
0.000000
 40
0.000000
 40
0.000000
 40
0.000000
 40
2.742938
 40
5.446620
 40
8.189558
 40
10.932496
 40
13.636178
 40
16.379116
 40
19.122054
 40
21.825736
 40
24.568674
 40
27.311612
 40
30.015294
 40
32.758232
 40
35.501170
 40
38.204852
 40
40.947789
 40
43.690727
 40
46.394409
 40
49.137347
 40
49.137347
 40
49.137347
 40
49.137347
 10
82.444199
 20
332.413239
 30
0.0
 10
82.538113
 20
331.494263
 30
0.0
 10
82.724596
 20
329.669463
 30
0.0
 10
84.171402
 20
327.257962
 30
0.0
 10
86.289771
 20
325.465074
 30
0.0
 10
88.912973
 20
324.514186
 30
0.0
 10
91.696485
 20
324.514186
 30
0.0
 10
94.316012
 20
325.465074
 30
0.0
 10
96.449051
 20
327.257962
 30
0.0
 10
97.841352
 20
329.669463
 30
0.0
 10
98.327474
 20
332.413239
 30
0.0
 10
97.841352
 20
335.157014
 30
0.0
 10
96.449051
 20
337.568515
 30
0.0
 10
94.316012
 20
339.361403
 30
0.0
 10
91.696485
 20
340.312291
 30
0.0
 10
88.912973
 20
340.312291
 30
0.0
 10
86.289771
 20
339.361403
 30
0.0
 10
84.171402
 20
337.568515
 30
0.0
 10
82.724596
 20
335.157014
 30
0.0
 10
82.538113
 20
333.332215
 30
0.0
 10
82.444199
 20
332.413239
 30
0.0
 11
82.444199
 21
332.413239
 31
0.0
 11
82.922681
 21
329.712357
 31
0.0
 11
84.274522
 21
327.370899
 31
0.0
 11
86.374313
 21
325.606080
 31
0.0
 11
88.952587
 21
324.670017
 31
0.0
 11
91.656269
 21
324.670017
 31
0.0
 11
94.234542
 21
325.606080
 31
0.0
 11
96.334333
 21
327.370899
 31
0.0
 11
97.686174
 21
329.712357
 31
0.0
 11
98.164656
 21
332.413239
 31
0.0
 11
97.686174
 21
335.114121
 31
0.0
 11
96.334333
 21
337.455578
 31
0.0
 11
94.234542
 21
339.220397
 31
0.0
 11
91.656269
 21
340.156460
 31
0.0
 11
88.952587
 21
340.156460
 31
0.0
 11
86.374314
 21
339.220397
 31
0.0
 11
84.274522
 21
337.455578
 31
0.0
 11
82.922681
 21
335.114121
 31
0.0
 11
82.444199
 21
332.413239
 31
0.0
  0
SPLINE
  5
118
100
AcDbEntity
  8
Layer_1
 62
7
100
AcDbSpline
 70
0
 71
3
 72
10
 73
6
 74
4
 40
0.000000
 40
0.000000
 40
0.000000
 40
0.000000
 40
24.628588
 40
43.806880
 40
63.737244
 40
63.737244
 40
63.737244
 40
63.737244
 10
70.133555
 20
401.399220
 30
0.0
 10
76.774806
 20
396.568812
 30
0.0
 10
88.587603
 20
387.976963
 30
0.0
 10
99.881857
 20
368.102943
 30
0.0
 10
96.586982
 20
355.007036
 30
0.0
 10
94.907864
 20
348.333164
 30
0.0
 11
70.133555
 21
401.399220
 31
0.0
 11
88.777127
 21
385.306223
 31
0.0
 11
97.289725
 21
368.120689
 31
0.0
 11
94.907864
 21
348.333164
 31
0.0
  0
LWPOLYLINE
  5
119
100
AcDbEntity
  8
Layer_1
 62
7
100
AcDbPolyline
 90
2
 70
1
 10
91.972272
 20
404.279516
 30
0.0
 10
70.133555
 20
401.399220
 30
0.0
  0
SPLINE
  5
11a
100
AcDbEntity
  8
Layer_1
 62
7
100
AcDbSpline
 70
0
 71
3
 72
10
 73
6
 74
4
 40
0.000000
 40
0.000000
 40
0.000000
 40
0.000000
 40
21.096401
 40
43.699778
 40
67.874137
 40
67.874137
 40
67.874137
 40
67.874137
 10
94.907864
 20
348.333164
 30
0.0
 10
91.882020
 20
354.906139
 30
0.0
 10
85.614188
 20
368.521617
 30
0.0
 10
64.017028
 20
378.799574
 30
0.0
 10
48.932815
 20
382.252423
 30
0.0
 10
41.137414
 20
384.036828
 30
0.0
 11
94.907864
 21
348.333164
 31
0.0
 11
84.050449
 21
366.421134
 31
0.0
 11
64.470253
 21
377.713988
 31
0.0
 11
41.137414
 21
384.036828
 31
0.0
  0
SPLINE
  5
11b
100
AcDbEntity
  8
Layer_1
 62
7
100
AcDbSpline
 70
0
 71
3
 72
10
 73
6
 74
4
 40
0.000000
 40
0.000000
 40
0.000000
 40
0.000000
 40
24.599822
 40
43.963356
 40
64.135921
 40
64.135921
 40
64.135921
 40
64.135921
 10
27.998827
 20
368.408468
 30
0.0
 10
36.135086
 20
369.627638
 30
0.0
 10
50.675728
 20
371.806468
 30
0.0
 10
72.568638
 20
364.876179
 30
0.0
 10
79.487753
 20
353.167527
 30
0.0
 10
83.018104
 20
347.193404
 30
0.0
 11
27.998827
 21
368.408468
 31
0.0
 11
52.553609
 21
369.896405
 31
0.0
 11
70.714924
 21
363.179776
 31
0.0
 11
83.018104
 21
347.193404
 31
0.0
  0
LWPOLYLINE
  5
11c
100
AcDbEntity
  8
Layer_1
 62
7
100
AcDbPolyline
 90
2
 70
1
 10
41.137414
 20
384.036828
 30
0.0
 10
27.998827
 20
368.408468
 30
0.0
  0
SPLINE
  5
11d
100
AcDbEntity
  8
Layer_1
 62
7
100
AcDbSpline
 70
0
 71
3
 72
10
 73
6
 74
4
 40
0.000000
 40
0.000000
 40
0.000000
 40
0.000000
 40
23.354768
 40
45.398661
 40
68.466373
 40
68.466373
 40
68.466373
 40
68.466373
 10
83.018104
 20
347.193404
 30
0.0
 10
75.331435
 20
349.140333
 30
0.0
 10
60.389539
 20
352.924912
 30
0.0
 10
37.750413
 20
345.760564
 30
0.0
 10
25.232118
 20
337.470474
 30
0.0
 10
18.830918
 20
333.231356
 30
0.0
 11
83.018104
 21
347.193404
 31
0.0
 11
59.939664
 21
350.775409
 31
0.0
 11
38.661626
 21
345.015345
 31
0.0
 11
18.830918
 21
333.231356
 31
0.0
  0
SPLINE
  5
11e
100
AcDbEntity
  8
Layer_1
 62
7
100
AcDbSpline
 70
0
 71
3
 72
10
 73
6
 74
4
 40
0.000000
 40
0.000000
 40
0.000000
 40
0.000000
 40
24.522229
 40
43.838138
 40
63.892532
 40
63.892532
 40
63.892532
 40
63.892532
 10
21.134369
 20
313.700036
 30
0.0
 10
26.010829
 20
320.291589
 30
0.0
 10
34.728427
 20
332.075240
 30
0.0
 10
54.983555
 20
342.683193
 30
0.0
 10
68.116842
 20
339.390110
 30
0.0
 10
74.806658
 20
337.712684
 30
0.0
 11
21.134369
 21
313.700036
 31
0.0
 11
37.384581
 21
332.064956
 31
0.0
 11
54.906424
 21
340.194494
 31
0.0
 11
74.806658
 21
337.712684
 31
0.0
  0
LWPOLYLINE
  5
11f
100
AcDbEntity
  8
Layer_1
 62
7
100
AcDbPolyline
 90
2
 70
1
 10
18.830918
 20
333.231356
 30
0.0
 10
21.134369
 20
313.700036
 30
0.0
  0
SPLINE
  5
120
100
AcDbEntity
  8
Layer_1
 62
7
100
AcDbSpline
 70
0
 71
3
 72
10
 73
6
 74
4
 40
0.000000
 40
0.000000
 40
0.000000
 40
0.000000
 40
24.352434
 40
45.753026
 40
68.533742
 40
68.533742
 40
68.533742
 40
68.533742
 10
74.806658
 20
337.712684
 30
0.0
 10
67.708949
 20
333.448159
 30
0.0
 10
54.373867
 20
325.436026
 30
0.0
 10
43.680517
 20
304.217724
 30
0.0
 10
41.036288
 20
289.746196
 30
0.0
 10
39.672874
 20
282.284404
 30
0.0
 11
74.806658
 21
337.712684
 31
0.0
 11
55.268911
 21
323.175920
 31
0.0
 11
44.892874
 21
304.458997
 31
0.0
 11
39.672874
 21
282.284404
 31
0.0
  0
SPLINE
  5
121
100
AcDbEntity
  8
Layer_1
 62
7
100
AcDbSpline
 70
0
 71
3
 72
10
 73
6
 74
4
 40
0.000000
 40
0.000000
 40
0.000000
 40
0.000000
 40
24.129250
 40
42.938613
 40
62.936267
 40
62.936267
 40
62.936267
 40
62.936267
 10
54.435965
 20
270.562036
 30
0.0
 10
53.238300
 20
278.573866
 30
0.0
 10
51.107025
 20
292.831120
 30
0.0
 10
58.754433
 20
314.007735
 30
0.0
 10
70.305089
 20
320.625419
 30
0.0
 10
76.257261
 20
324.035580
 30
0.0
 11
54.435965
 21
270.562036
 31
0.0
 11
53.163599
 21
294.657716
 31
0.0
 11
60.215797
 21
312.094993
 31
0.0
 11
76.257261
 21
324.035580
 31
0.0
  0
LWPOLYLINE
  5
122
100
AcDbEntity
  8
Layer_1
 62
7
100
AcDbPolyline
 90
2
 70
1
 10
39.672874
 20
282.284404
 30
0.0
 10
54.435965
 20
270.562036
 30
0.0
  0
SPLINE
  5
123
100
AcDbEntity
  8
Layer_1
 62
7
100
AcDbSpline
 70
0
 71
3
 72
10
 73
6
 74
4
 40
0.000000
 40
0.000000
 40
0.000000
 40
0.000000
 40
23.081038
 40
44.478765
 40
66.990572
 40
66.990572
 40
66.990572
 40
66.990572
 10
76.257261
 20
324.035580
 30
0.0
 10
74.589386
 20
316.393251
 30
0.0
 10
71.375275
 20
301.665951
 30
0.0
 10
78.472685
 20
279.624494
 30
0.0
 10
86.597704
 20
267.465491
 30
0.0
 10
90.763288
 20
261.231740
 30
0.0
 11
76.257261
 21
324.035580
 31
0.0
 11
73.388083
 21
301.133569
 31
0.0
 11
79.179393
 21
280.534455
 31
0.0
 11
90.763288
 21
261.231740
 31
0.0
  0
SPLINE
  5
124
100
AcDbEntity
  8
Layer_1
 62
7
100
AcDbSpline
 70
0
 71
3
 72
10
 73
6
 74
4
 40
0.000000
 40
0.000000
 40
0.000000
 40
0.000000
 40
24.047979
 40
42.482641
 40
62.293841
 40
62.293841
 40
62.293841
 40
62.293841
 10
108.852488
 20
264.086132
 30
0.0
 10
102.330077
 20
268.827149
 30
0.0
 10
90.807726
 20
277.202527
 30
0.0
 10
80.961163
 20
297.233620
 30
0.0
 10
84.500438
 20
309.906977
 30
0.0
 10
86.333768
 20
316.471724
 30
0.0
 11
108.852488
 21
264.086132
 31
0.0
 11
90.825653
 21
280.002742
 31
0.0
 11
83.405532
 21
296.878126
 31
0.0
 11
86.333768
 21
316.471724
 31
0.0
  0
LWPOLYLINE
  5
125
100
AcDbEntity
  8
Layer_1
 62
7
100
AcDbPolyline
 90
2
 70
1
 10
90.763288
 20
261.231740
 30
0.0
 10
108.852488
 20
264.086132
 30
0.0
  0
SPLINE
  5
126
100
AcDbEntity
  8
Layer_1
 62
7
100
AcDbSpline
 70
0
 71
3
 72
10
 73
6
 74
4
 40
0.000000
 40
0.000000
 40
0.000000
 40
0.000000
 40
21.951841
 40
43.723188
 40
67.090425
 40
67.090425
 40
67.090425
 40
67.090425
 10
86.333768
 20
316.471724
 30
0.0
 10
89.687407
 20
309.768637
 30
0.0
 10
96.367110
 20
296.417578
 30
0.0
 10
117.260747
 20
285.699460
 30
0.0
 10
131.940141
 20
282.674333
 30
0.0
 10
139.539336
 20
281.108292
 30
0.0
 11
86.333768
 21
316.471724
 31
0.0
 11
98.143230
 21
297.967131
 31
0.0
 11
116.908471
 21
286.928233
 31
0.0
 11
139.539336
 21
281.108292
 31
0.0
  0
SPLINE
  5
127
100
AcDbEntity
  8
Layer_1
 62
7
100
AcDbSpline
 70
0
 71
3
 72
10
 73
6
 74
4
 40
0.000000
 40
0.000000
 40
0.000000
 40
0.000000
 40
24.162319
 40
42.709072
 40
63.040963
 40
63.040963
 40
63.040963
 40
63.040963
 10
151.812648
 20
295.557052
 30
0.0
 10
143.772724
 20
294.311506
 30
0.0
 10
129.561436
 20
292.109892
 30
0.0
 10
108.533439
 20
300.412325
 30
0.0
 10
102.308054
 20
312.215845
 30
0.0
 10
99.052440
 20
318.388588
 30
0.0
 11
151.812648
 21
295.557052
 31
0.0
 11
127.681743
 21
294.325350
 31
0.0
 11
110.663393
 21
301.698124
 31
0.0
 11
99.052440
 21
318.388588
 31
0.0
  0
LWPOLYLINE
  5
128
100
AcDbEntity
  8
Layer_1
 62
7
100
AcDbPolyline
 90
2
 70
1
 10
139.539336
 20
281.108292
 30
0.0
 10
151.812648
 20
295.557052
 30
0.0
  0
SPLINE
  5
129
100
AcDbEntity
  8
Layer_1
 62
7
100
AcDbSpline
 70
0
 71
3
 72
10
 73
6
 74
4
 40
0.000000
 40
0.000000
 40
0.000000
 40
0.000000
 40
24.078086
 40
44.944496
 40
66.868969
 40
66.868969
 40
66.868969
 40
66.868969
 10
99.052440
 20
318.388588
 30
0.0
 10
106.984626
 20
316.515553
 30
0.0
 10
121.790957
 20
313.019319
 30
0.0
 10
144.026293
 20
319.304110
 30
0.0
 10
155.867165
 20
327.290047
 30
0.0
 10
161.933992
 20
331.381748
 30
0.0
 11
99.052440
 21
318.388588
 31
0.0
 11
122.888794
 21
314.985288
 31
0.0
 11
143.106624
 21
320.147304
 31
0.0
 11
161.933992
 21
331.381748
 31
0.0
  0
SPLINE
  5
12a
100
AcDbEntity
  8
Layer_1
 62
7
100
AcDbSpline
 70
0
 71
3
 72
10
 73
6
 74
4
 40
0.000000
 40
0.000000
 40
0.000000
 40
0.000000
 40
24.312045
 40
43.213282
 40
63.425291
 40
63.425291
 40
63.425291
 40
63.425291
 10
159.918968
 20
350.336228
 30
0.0
 10
155.077510
 20
343.766380
 30
0.0
 10
146.472093
 20
332.088847
 30
0.0
 10
125.910507
 20
322.426043
 30
0.0
 10
112.984862
 20
326.083111
 30
0.0
 10
106.305456
 20
327.972924
 30
0.0
 11
159.918968
 21
350.336228
 31
0.0
 11
143.684180
 21
332.239068
 31
0.0
 11
126.278068
 21
324.871299
 31
0.0
 11
106.305456
 21
327.972924
 31
0.0
  0
LWPOLYLINE
  5
12b
100
AcDbEntity
  8
Layer_1
 62
7
100
AcDbPolyline
 90
2
 70
1
 10
161.933992
 20
331.381748
 30
0.0
 10
159.918968
 20
350.336228
 30
0.0
  0
SPLINE
  5
12c
100
AcDbEntity
  8
Layer_1
 62
7
100
AcDbSpline
 70
0
 71
3
 72
10
 73
6
 74
4
 40
0.000000
 40
0.000000
 40
0.000000
 40
0.000000
 40
19.055205
 40
42.497957
 40
67.101514
 40
67.101514
 40
67.101514
 40
67.101514
 10
106.305456
 20
327.972924
 30
0.0
 10
112.013863
 20
331.008185
 30
0.0
 10
124.745063
 20
337.777590
 30
0.0
 10
135.904448
 20
358.391960
 30
0.0
 10
139.892628
 20
373.825981
 30
0.0
 10
141.934896
 20
381.729436
 30
0.0
 11
106.305456
 21
327.972924
 31
0.0
 11
122.292057
 21
338.342563
 31
0.0
 11
134.758610
 21
358.195716
 31
0.0
 11
141.934896
 21
381.729436
 31
0.0
  0
SPLINE
  5
12d
100
AcDbEntity
  8
Layer_1
 62
7
100
AcDbSpline
 70
0
 71
3
 72
10
 73
6
 74
4
 40
0.000000
 40
0.000000
 40
0.000000
 40
0.000000
 40
24.298476
 40
43.067809
 40
63.120095
 40
63.120095
 40
63.120095
 40
63.120095
 10
126.018104
 20
394.579596
 30
0.0
 10
127.271812
 20
386.533538
 30
0.0
 10
129.493945
 20
372.272310
 30
0.0
 10
122.247666
 20
350.840725
 30
0.0
 10
110.607986
 20
344.285010
 30
0.0
 10
104.595816
 20
340.898828
 30
0.0
 11
126.018104
 21
394.579596
 31
0.0
 11
127.498085
 21
370.326233
 31
0.0
 11
120.715952
 21
352.825075
 31
0.0
 11
104.595816
 21
340.898828
 31
0.0
  0
LWPOLYLINE
  5
12e
100
AcDbEntity
  8
Layer_1
 62
7
100
AcDbPolyline
 90
2
 70
1
 10
141.934896
 20
381.729436
 30
0.0
 10
126.018104
 20
394.579596
 30
0.0
  0
SPLINE
  5
12f
100
AcDbEntity
  8
Layer_1
 62
7
100
AcDbSpline
 70
0
 71
3
 72
10
 73
6
 74
4
 40
0.000000
 40
0.000000
 40
0.000000
 40
0.000000
 40
21.427784
 40
43.994117
 40
67.456963
 40
67.456963
 40
67.456963
 40
67.456963
 10
104.595816
 20
340.898828
 30
0.0
 10
106.692133
 20
347.872130
 30
0.0
 10
110.996154
 20
362.189255
 30
0.0
 10
104.233292
 20
384.710113
 30
0.0
 10
96.112005
 20
397.672227
 30
0.0
 10
91.972272
 20
404.279516
 30
0.0
 11
104.595816
 21
340.898828
 31
0.0
 11
108.817417
 21
361.906636
 31
0.0
 11
103.480324
 21
383.832758
 31
0.0
 11
91.972272
 21
404.279516
 31
0.0
  0
LWPOLYLINE
  5
130
100
AcDbEntity
  8
Layer_1
 62
7
100
AcDbPolyline
 90
2
 70
1
 10
91.972272
 20
404.279516
 30
0.0
 10
91.972272
 20
404.279516
 30
0.0
  0
SPLINE
  5
131
100
AcDbEntity
  8
Layer_1
 62
7
100
AcDbSpline
 70
0
 71
3
 72
19
 73
15
 74
13
 40
0.000000
 40
0.000000
 40
0.000000
 40
0.000000
 40
3.605735
 40
7.104525
 40
10.710260
 40
14.316001
 40
17.814793
 40
21.420528
 40
25.026269
 40
28.525063
 40
32.130804
 40
35.736539
 40
39.235331
 40
42.841072
 40
42.841072
 40
42.841072
 40
42.841072
 10
241.105787
 20
376.771606
 30
0.0
 10
240.916247
 20
375.555922
 30
0.0
 10
240.542787
 20
373.160610
 30
0.0
 10
237.797299
 20
370.523568
 30
0.0
 10
234.215926
 20
369.546464
 30
0.0
 10
230.596952
 20
370.523567
 30
0.0
 10
227.962031
 20
373.160609
 30
0.0
 10
226.984205
 20
376.771608
 30
0.0
 10
227.962030
 20
380.382607
 30
0.0
 10
230.596951
 20
383.019654
 30
0.0
 10
234.215926
 20
383.996757
 30
0.0
 10
237.797300
 20
383.019653
 30
0.0
 10
240.542788
 20
380.382607
 30
0.0
 10
240.916247
 20
377.987292
 30
0.0
 10
241.105787
 20
376.771606
 30
0.0
 11
241.105787
 21
376.771606
 31
0.0
 11
240.164255
 21
373.290968
 31
0.0
 11
237.690237
 21
370.816949
 31
0.0
 11
234.209599
 21
369.875417
 31
0.0
 11
230.728954
 21
370.816949
 31
0.0
 11
228.254934
 21
373.290968
 31
0.0
 11
227.313401
 21
376.771606
 31
0.0
 11
228.254934
 21
380.252250
 31
0.0
 11
230.728954
 21
382.726271
 31
0.0
 11
234.209599
 21
383.667803
 31
0.0
 11
237.690237
 21
382.726271
 31
0.0
 11
240.164255
 21
380.252250
 31
0.0
 11
241.105787
 21
376.771606
 31
0.0
  0
LWPOLYLINE
  5
132
100
AcDbEntity
  8
Layer_1
 62
7
100
AcDbPolyline
 90
2
 70
1
 10
241.105787
 20
376.771606
 30
0.0
 10
241.105787
 20
376.771606
 30
0.0
  0
SPLINE
  5
133
100
AcDbEntity
  8
Layer_1
 62
7
100
AcDbSpline
 70
0
 71
3
 72
19
 73
15
 74
13
 40
0.000000
 40
0.000000
 40
0.000000
 40
0.000000
 40
1.743797
 40
3.435874
 40
5.179671
 40
6.923470
 40
8.615548
 40
10.359345
 40
12.103145
 40
13.795223
 40
15.539023
 40
17.282820
 40
18.974897
 40
20.718697
 40
20.718697
 40
20.718697
 40
20.718697
 10
265.546762
 20
367.200257
 30
0.0
 10
265.455097
 20
366.612331
 30
0.0
 10
265.274486
 20
365.453916
 30
0.0
 10
263.946719
 20
364.178596
 30
0.0
 10
262.214704
 20
363.706051
 30
0.0
 10
260.464504
 20
364.178595
 30
0.0
 10
259.190210
 20
365.453915
 30
0.0
 10
258.717316
 20
367.200258
 30
0.0
 10
259.190210
 20
368.946601
 30
0.0
 10
260.464504
 20
370.221923
 30
0.0
 10
262.214704
 20
370.694467
 30
0.0
 10
263.946719
 20
370.221923
 30
0.0
 10
265.274486
 20
368.946600
 30
0.0
 10
265.455097
 20
367.788184
 30
0.0
 10
265.546762
 20
367.200257
 30
0.0
 11
265.546762
 21
367.200257
 31
0.0
 11
265.091421
 21
365.516959
 31
0.0
 11
263.894942
 21
364.320480
 31
0.0
 11
262.211644
 21
363.865139
 31
0.0
 11
260.528343
 21
364.320480
 31
0.0
 11
259.331863
 21
365.516959
 31
0.0
 11
258.876522
 21
367.200257
 31
0.0
 11
259.331863
 21
368.883558
 31
0.0
 11
260.528343
 21
370.080038
 31
0.0
 11
262.211644
 21
370.535380
 31
0.0
 11
263.894942
 21
370.080038
 31
0.0
 11
265.091421
 21
368.883558
 31
0.0
 11
265.546762
 21
367.200257
 31
0.0
  0
LWPOLYLINE
  5
134
100
AcDbEntity
  8
Layer_1
 62
7
100
AcDbPolyline
 90
2
 70
1
 10
265.546762
 20
367.200257
 30
0.0
 10
265.546762
 20
367.200257
 30
0.0
  0
SPLINE
  5
135
100
AcDbEntity
  8
Layer_1
 62
7
100
AcDbSpline
 70
0
 71
3
 72
19
 73
15
 74
13
 40
0.000000
 40
0.000000
 40
0.000000
 40
0.000000
 40
2.397721
 40
4.724326
 40
7.122047
 40
9.519772
 40
11.846378
 40
14.244099
 40
16.641824
 40
18.968432
 40
21.366156
 40
23.763877
 40
26.090484
 40
28.488209
 40
28.488209
 40
28.488209
 40
28.488209
 10
256.037732
 20
373.563976
 30
0.0
 10
255.911693
 20
372.755577
 30
0.0
 10
255.663352
 20
371.162756
 30
0.0
 10
253.837673
 20
369.409191
 30
0.0
 10
251.456152
 20
368.759442
 30
0.0
 10
249.049628
 20
369.409190
 30
0.0
 10
247.297473
 20
371.162756
 30
0.0
 10
246.647244
 20
373.563977
 30
0.0
 10
247.297473
 20
375.965198
 30
0.0
 10
249.049627
 20
377.718766
 30
0.0
 10
251.456152
 20
378.368514
 30
0.0
 10
253.837673
 20
377.718766
 30
0.0
 10
255.663353
 20
375.965198
 30
0.0
 10
255.911693
 20
374.372376
 30
0.0
 10
256.037732
 20
373.563976
 30
0.0
 11
256.037732
 21
373.563976
 31
0.0
 11
255.411638
 21
371.249441
 31
0.0
 11
253.766479
 21
369.604282
 31
0.0
 11
251.451945
 21
368.978188
 31
0.0
 11
249.137406
 21
369.604282
 31
0.0
 11
247.492246
 21
371.249441
 31
0.0
 11
246.866151
 21
373.563976
 31
0.0
 11
247.492246
 21
375.878514
 31
0.0
 11
249.137406
 21
377.523674
 31
0.0
 11
251.451945
 21
378.149769
 31
0.0
 11
253.766479
 21
377.523674
 31
0.0
 11
255.411638
 21
375.878514
 31
0.0
 11
256.037732
 21
373.563976
 31
0.0
  0
LWPOLYLINE
  5
136
100
AcDbEntity
  8
Layer_1
 62
7
100
AcDbPolyline
 90
2
 70
1
 10
256.037732
 20
373.563976
 30
0.0
 10
256.037732
 20
373.563976
 30
0.0
  0
SPLINE
  5
137
100
AcDbEntity
  8
Layer_1
 62
7
100
AcDbSpline
 70
0
 71
3
 72
19
 73
15
 74
13
 40
0.000000
 40
0.000000
 40
0.000000
 40
0.000000
 40
3.605735
 40
7.104525
 40
10.710260
 40
14.316001
 40
17.814793
 40
21.420528
 40
25.026269
 40
28.525063
 40
32.130804
 40
35.736539
 40
39.235331
 40
42.841072
 40
42.841072
 40
42.841072
 40
42.841072
 10
237.570583
 20
293.897619
 30
0.0
 10
238.786267
 20
293.708079
 30
0.0
 10
241.181579
 20
293.334619
 30
0.0
 10
243.818621
 20
290.589131
 30
0.0
 10
244.795725
 20
287.007758
 30
0.0
 10
243.818622
 20
283.388784
 30
0.0
 10
241.181580
 20
280.753863
 30
0.0
 10
237.570581
 20
279.776037
 30
0.0
 10
233.959582
 20
280.753862
 30
0.0
 10
231.322535
 20
283.388783
 30
0.0
 10
230.345432
 20
287.007758
 30
0.0
 10
231.322536
 20
290.589131
 30
0.0
 10
233.959583
 20
293.334620
 30
0.0
 10
236.354897
 20
293.708079
 30
0.0
 10
237.570583
 20
293.897619
 30
0.0
 11
237.570583
 21
293.897619
 31
0.0
 11
241.051221
 21
292.956087
 31
0.0
 11
243.525240
 21
290.482069
 31
0.0
 11
244.466772
 21
287.001431
 31
0.0
 11
243.525240
 21
283.520786
 31
0.0
 11
241.051221
 21
281.046766
 31
0.0
 11
237.570583
 21
280.105233
 31
0.0
 11
234.089939
 21
281.046766
 31
0.0
 11
231.615918
 21
283.520786
 31
0.0
 11
230.674386
 21
287.001431
 31
0.0
 11
231.615918
 21
290.482069
 31
0.0
 11
234.089939
 21
292.956087
 31
0.0
 11
237.570583
 21
293.897619
 31
0.0
  0
LWPOLYLINE
  5
138
100
AcDbEntity
  8
Layer_1
 62
7
100
AcDbPolyline
 90
2
 70
1
 10
237.570583
 20
293.897619
 30
0.0
 10
237.570583
 20
293.897619
 30
0.0
  0
SPLINE
  5
139
100
AcDbEntity
  8
Layer_1
 62
7
100
AcDbSpline
 70
0
 71
3
 72
19
 73
15
 74
13
 40
0.000000
 40
0.000000
 40
0.000000
 40
0.000000
 40
1.743797
 40
3.435874
 40
5.179671
 40
6.923470
 40
8.615548
 40
10.359345
 40
12.103145
 40
13.795223
 40
15.539023
 40
17.282820
 40
18.974897
 40
20.718697
 40
20.718697
 40
20.718697
 40
20.718697
 10
247.141932
 20
318.338594
 30
0.0
 10
247.729858
 20
318.246929
 30
0.0
 10
248.888273
 20
318.066318
 30
0.0
 10
250.163594
 20
316.738551
 30
0.0
 10
250.636138
 20
315.006536
 30
0.0
 10
250.163594
 20
313.256336
 30
0.0
 10
248.888274
 20
311.982042
 30
0.0
 10
247.141931
 20
311.509148
 30
0.0
 10
245.395588
 20
311.982042
 30
0.0
 10
244.120266
 20
313.256336
 30
0.0
 10
243.647722
 20
315.006536
 30
0.0
 10
244.120266
 20
316.738551
 30
0.0
 10
245.395589
 20
318.066318
 30
0.0
 10
246.554005
 20
318.246929
 30
0.0
 10
247.141932
 20
318.338594
 30
0.0
 11
247.141932
 21
318.338594
 31
0.0
 11
248.825230
 21
317.883253
 31
0.0
 11
250.021709
 21
316.686774
 31
0.0
 11
250.477050
 21
315.003476
 31
0.0
 11
250.021709
 21
313.320175
 31
0.0
 11
248.825230
 21
312.123695
 31
0.0
 11
247.141932
 21
311.668353
 31
0.0
 11
245.458631
 21
312.123695
 31
0.0
 11
244.262151
 21
313.320175
 31
0.0
 11
243.806810
 21
315.003476
 31
0.0
 11
244.262151
 21
316.686774
 31
0.0
 11
245.458631
 21
317.883253
 31
0.0
 11
247.141932
 21
318.338594
 31
0.0
  0
LWPOLYLINE
  5
13a
100
AcDbEntity
  8
Layer_1
 62
7
100
AcDbPolyline
 90
2
 70
1
 10
247.141932
 20
318.338594
 30
0.0
 10
247.141932
 20
318.338594
 30
0.0
  0
SPLINE
  5
13b
100
AcDbEntity
  8
Layer_1
 62
7
100
AcDbSpline
 70
0
 71
3
 72
19
 73
15
 74
13
 40
0.000000
 40
0.000000
 40
0.000000
 40
0.000000
 40
2.397721
 40
4.724326
 40
7.122047
 40
9.519772
 40
11.846378
 40
14.244099
 40
16.641824
 40
18.968432
 40
21.366156
 40
23.763877
 40
26.090484
 40
28.488209
 40
28.488209
 40
28.488209
 40
28.488209
 10
240.778214
 20
308.829564
 30
0.0
 10
241.586612
 20
308.703525
 30
0.0
 10
243.179433
 20
308.455184
 30
0.0
 10
244.932998
 20
306.629505
 30
0.0
 10
245.582747
 20
304.247984
 30
0.0
 10
244.932999
 20
301.841459
 30
0.0
 10
243.179433
 20
300.089305
 30
0.0
 10
240.778212
 20
299.439076
 30
0.0
 10
238.376991
 20
300.089305
 30
0.0
 10
236.623423
 20
301.841459
 30
0.0
 10
235.973675
 20
304.247984
 30
0.0
 10
236.623423
 20
306.629505
 30
0.0
 10
238.376991
 20
308.455185
 30
0.0
 10
239.969814
 20
308.703525
 30
0.0
 10
240.778214
 20
308.829564
 30
0.0
 11
240.778214
 21
308.829564
 31
0.0
 11
243.092748
 21
308.203470
 31
0.0
 11
244.737907
 21
306.558311
 31
0.0
 11
245.364001
 21
304.243777
 31
0.0
 11
244.737907
 21
301.929238
 31
0.0
 11
243.092748
 21
300.284078
 31
0.0
 11
240.778214
 21
299.657983
 31
0.0
 11
238.463675
 21
300.284078
 31
0.0
 11
236.818515
 21
301.929238
 31
0.0
 11
236.192420
 21
304.243777
 31
0.0
 11
236.818515
 21
306.558311
 31
0.0
 11
238.463675
 21
308.203470
 31
0.0
 11
240.778214
 21
308.829564
 31
0.0
  0
LWPOLYLINE
  5
13c
100
AcDbEntity
  8
Layer_1
 62
7
100
AcDbPolyline
 90
2
 70
1
 10
240.778214
 20
308.829564
 30
0.0
 10
240.778214
 20
308.829564
 30
0.0
  0
SPLINE
  5
13d
100
AcDbEntity
  8
Layer_1
 62
7
100
AcDbSpline
 70
0
 71
3
 72
19
 73
15
 74
13
 40
0.000000
 40
0.000000
 40
0.000000
 40
0.000000
 40
3.605735
 40
7.104525
 40
10.710260
 40
14.316001
 40
17.814793
 40
21.420528
 40
25.026269
 40
28.525063
 40
32.130804
 40
35.736539
 40
39.235331
 40
42.841072
 40
42.841072
 40
42.841072
 40
42.841072
 10
319.958201
 20
289.944889
 30
0.0
 10
320.147741
 20
291.160573
 30
0.0
 10
320.521201
 20
293.555885
 30
0.0
 10
323.266689
 20
296.192927
 30
0.0
 10
326.848062
 20
297.170031
 30
0.0
 10
330.467036
 20
296.192928
 30
0.0
 10
333.101957
 20
293.555885
 30
0.0
 10
334.079784
 20
289.944887
 30
0.0
 10
333.101958
 20
286.333888
 30
0.0
 10
330.467037
 20
283.696841
 30
0.0
 10
326.848062
 20
282.719738
 30
0.0
 10
323.266689
 20
283.696842
 30
0.0
 10
320.521200
 20
286.333888
 30
0.0
 10
320.147741
 20
288.729203
 30
0.0
 10
319.958201
 20
289.944889
 30
0.0
 11
319.958201
 21
289.944889
 31
0.0
 11
320.899733
 21
293.425527
 31
0.0
 11
323.373751
 21
295.899545
 31
0.0
 11
326.854390
 21
296.841077
 31
0.0
 11
330.335034
 21
295.899545
 31
0.0
 11
332.809054
 21
293.425527
 31
0.0
 11
333.750587
 21
289.944889
 31
0.0
 11
332.809054
 21
286.464245
 31
0.0
 11
330.335034
 21
283.990224
 31
0.0
 11
326.854390
 21
283.048692
 31
0.0
 11
323.373751
 21
283.990224
 31
0.0
 11
320.899733
 21
286.464245
 31
0.0
 11
319.958201
 21
289.944889
 31
0.0
  0
LWPOLYLINE
  5
13e
100
AcDbEntity
  8
Layer_1
 62
7
100
AcDbPolyline
 90
2
 70
1
 10
319.958201
 20
289.944889
 30
0.0
 10
319.958201
 20
289.944889
 30
0.0
  0
SPLINE
  5
13f
100
AcDbEntity
  8
Layer_1
 62
7
100
AcDbSpline
 70
0
 71
3
 72
19
 73
15
 74
13
 40
0.000000
 40
0.000000
 40
0.000000
 40
0.000000
 40
1.743797
 40
3.435874
 40
5.179671
 40
6.923470
 40
8.615548
 40
10.359345
 40
12.103145
 40
13.795223
 40
15.539023
 40
17.282820
 40
18.974897
 40
20.718697
 40
20.718697
 40
20.718697
 40
20.718697
 10
295.517226
 20
299.516238
 30
0.0
 10
295.608891
 20
300.104164
 30
0.0
 10
295.789502
 20
301.262579
 30
0.0
 10
297.117269
 20
302.537899
 30
0.0
 10
298.849284
 20
303.010444
 30
0.0
 10
300.599484
 20
302.537900
 30
0.0
 10
301.873778
 20
301.262579
 30
0.0
 10
302.346672
 20
299.516237
 30
0.0
 10
301.873778
 20
297.769894
 30
0.0
 10
300.599484
 20
296.494572
 30
0.0
 10
298.849284
 20
296.022028
 30
0.0
 10
297.117269
 20
296.494572
 30
0.0
 10
295.789502
 20
297.769894
 30
0.0
 10
295.608891
 20
298.928311
 30
0.0
 10
295.517226
 20
299.516238
 30
0.0
 11
295.517226
 21
299.516238
 31
0.0
 11
295.972567
 21
301.199536
 31
0.0
 11
297.169046
 21
302.396015
 31
0.0
 11
298.852344
 21
302.851356
 31
0.0
 11
300.535645
 21
302.396015
 31
0.0
 11
301.732125
 21
301.199536
 31
0.0
 11
302.187467
 21
299.516238
 31
0.0
 11
301.732125
 21
297.832937
 31
0.0
 11
300.535645
 21
296.636457
 31
0.0
 11
298.852344
 21
296.181115
 31
0.0
 11
297.169046
 21
296.636457
 31
0.0
 11
295.972567
 21
297.832937
 31
0.0
 11
295.517226
 21
299.516238
 31
0.0
  0
LWPOLYLINE
  5
140
100
AcDbEntity
  8
Layer_1
 62
7
100
AcDbPolyline
 90
2
 70
1
 10
295.517226
 20
299.516238
 30
0.0
 10
295.517226
 20
299.516238
 30
0.0
  0
SPLINE
  5
141
100
AcDbEntity
  8
Layer_1
 62
7
100
AcDbSpline
 70
0
 71
3
 72
19
 73
15
 74
13
 40
0.000000
 40
0.000000
 40
0.000000
 40
0.000000
 40
2.397721
 40
4.724326
 40
7.122047
 40
9.519772
 40
11.846378
 40
14.244099
 40
16.641824
 40
18.968432
 40
21.366156
 40
23.763877
 40
26.090484
 40
28.488209
 40
28.488209
 40
28.488209
 40
28.488209
 10
305.026256
 20
293.152519
 30
0.0
 10
305.152295
 20
293.960918
 30
0.0
 10
305.400636
 20
295.553738
 30
0.0
 10
307.226315
 20
297.307304
 30
0.0
 10
309.607836
 20
297.957053
 30
0.0
 10
312.014361
 20
297.307304
 30
0.0
 10
313.766515
 20
295.553739
 30
0.0
 10
314.416744
 20
293.152518
 30
0.0
 10
313.766515
 20
290.751296
 30
0.0
 10
312.014361
 20
288.997729
 30
0.0
 10
309.607836
 20
288.347980
 30
0.0
 10
307.226315
 20
288.997729
 30
0.0
 10
305.400635
 20
290.751297
 30
0.0
 10
305.152295
 20
292.344119
 30
0.0
 10
305.026256
 20
293.152519
 30
0.0
 11
305.026256
 21
293.152519
 31
0.0
 11
305.652350
 21
295.467054
 31
0.0
 11
307.297509
 21
297.112213
 31
0.0
 11
309.612043
 21
297.738307
 31
0.0
 11
311.926582
 21
297.112213
 31
0.0
 11
313.571742
 21
295.467054
 31
0.0
 11
314.197837
 21
293.152519
 31
0.0
 11
313.571742
 21
290.837981
 31
0.0
 11
311.926582
 21
289.192821
 31
0.0
 11
309.612043
 21
288.566726
 31
0.0
 11
307.297509
 21
289.192821
 31
0.0
 11
305.652350
 21
290.837981
 31
0.0
 11
305.026256
 21
293.152519
 31
0.0
  0
LWPOLYLINE
  5
142
100
AcDbEntity
  8
Layer_1
 62
7
100
AcDbPolyline
 90
2
 70
1
 10
305.026256
 20
293.152519
 30
0.0
 10
305.026256
 20
293.152519
 30
0.0
  0
SPLINE
  5
143
100
AcDbEntity
  8
Layer_1
 62
7
100
AcDbSpline
 70
0
 71
3
 72
19
 73
15
 74
13
 40
0.000000
 40
0.000000
 40
0.000000
 40
0.000000
 40
3.605735
 40
7.104525
 40
10.710260
 40
14.316001
 40
17.814793
 40
21.420528
 40
25.026269
 40
28.525063
 40
32.130804
 40
35.736539
 40
39.235331
 40
42.841072
 40
42.841072
 40
42.841072
 40
42.841072
 10
323.562509
 20
373.029385
 30
0.0
 10
322.346825
 20
373.218926
 30
0.0
 10
319.951514
 20
373.592385
 30
0.0
 10
317.314471
 20
376.337874
 30
0.0
 10
316.337367
 20
379.919246
 30
0.0
 10
317.314470
 20
383.538221
 30
0.0
 10
319.951513
 20
386.173141
 30
0.0
 10
323.562511
 20
387.150968
 30
0.0
 10
327.173511
 20
386.173142
 30
0.0
 10
329.810557
 20
383.538222
 30
0.0
 10
330.787660
 20
379.919246
 30
0.0
 10
329.810556
 20
376.337873
 30
0.0
 10
327.173510
 20
373.592384
 30
0.0
 10
324.778196
 20
373.218926
 30
0.0
 10
323.562509
 20
373.029385
 30
0.0
 11
323.562509
 21
373.029385
 31
0.0
 11
320.081871
 21
373.970917
 31
0.0
 11
317.607853
 21
376.444936
 31
0.0
 11
316.666321
 21
379.925574
 31
0.0
 11
317.607853
 21
383.406218
 31
0.0
 11
320.081871
 21
385.880239
 31
0.0
 11
323.562509
 21
386.821771
 31
0.0
 11
327.043154
 21
385.880239
 31
0.0
 11
329.517174
 21
383.406218
 31
0.0
 11
330.458707
 21
379.925574
 31
0.0
 11
329.517174
 21
376.444936
 31
0.0
 11
327.043154
 21
373.970917
 31
0.0
 11
323.562509
 21
373.029385
 31
0.0
  0
LWPOLYLINE
  5
144
100
AcDbEntity
  8
Layer_1
 62
7
100
AcDbPolyline
 90
2
 70
1
 10
323.562509
 20
373.029385
 30
0.0
 10
323.562509
 20
373.029385
 30
0.0
  0
SPLINE
  5
145
100
AcDbEntity
  8
Layer_1
 62
7
100
AcDbSpline
 70
0
 71
3
 72
19
 73
15
 74
13
 40
0.000000
 40
0.000000
 40
0.000000
 40
0.000000
 40
1.743797
 40
3.435874
 40
5.179671
 40
6.923470
 40
8.615548
 40
10.359345
 40
12.103145
 40
13.795223
 40
15.539023
 40
17.282820
 40
18.974897
 40
20.718697
 40
20.718697
 40
20.718697
 40
20.718697
 10
313.991160
 20
348.588410
 30
0.0
 10
313.403234
 20
348.680075
 30
0.0
 10
312.244819
 20
348.860687
 30
0.0
 10
310.969499
 20
350.188453
 30
0.0
 10
310.496954
 20
351.920468
 30
0.0
 10
310.969498
 20
353.670668
 30
0.0
 10
312.244819
 20
354.944962
 30
0.0
 10
313.991161
 20
355.417856
 30
0.0
 10
315.737504
 20
354.944963
 30
0.0
 10
317.012826
 20
353.670669
 30
0.0
 10
317.485370
 20
351.920468
 30
0.0
 10
317.012826
 20
350.188453
 30
0.0
 10
315.737504
 20
348.860686
 30
0.0
 10
314.579088
 20
348.680075
 30
0.0
 10
313.991160
 20
348.588410
 30
0.0
 11
313.991160
 21
348.588410
 31
0.0
 11
312.307862
 21
349.043752
 31
0.0
 11
311.111383
 21
350.240230
 31
0.0
 11
310.656042
 21
351.923528
 31
0.0
 11
311.111383
 21
353.606829
 31
0.0
 11
312.307862
 21
354.803309
 31
0.0
 11
313.991160
 21
355.258651
 31
0.0
 11
315.674461
 21
354.803309
 31
0.0
 11
316.870941
 21
353.606829
 31
0.0
 11
317.326283
 21
351.923528
 31
0.0
 11
316.870941
 21
350.240230
 31
0.0
 11
315.674461
 21
349.043752
 31
0.0
 11
313.991160
 21
348.588410
 31
0.0
  0
LWPOLYLINE
  5
146
100
AcDbEntity
  8
Layer_1
 62
7
100
AcDbPolyline
 90
2
 70
1
 10
313.991160
 20
348.588410
 30
0.0
 10
313.991160
 20
348.588410
 30
0.0
  0
SPLINE
  5
147
100
AcDbEntity
  8
Layer_1
 62
7
100
AcDbSpline
 70
0
 71
3
 72
19
 73
15
 74
13
 40
0.000000
 40
0.000000
 40
0.000000
 40
0.000000
 40
2.397721
 40
4.724326
 40
7.122047
 40
9.519772
 40
11.846378
 40
14.244099
 40
16.641824
 40
18.968432
 40
21.366156
 40
23.763877
 40
26.090484
 40
28.488209
 40
28.488209
 40
28.488209
 40
28.488209
 10
320.354879
 20
358.097440
 30
0.0
 10
319.546480
 20
358.223480
 30
0.0
 10
317.953660
 20
358.471821
 30
0.0
 10
316.200094
 20
360.297500
 30
0.0
 10
315.550346
 20
362.679020
 30
0.0
 10
316.200094
 20
365.085545
 30
0.0
 10
317.953659
 20
366.837699
 30
0.0
 10
320.354880
 20
367.487929
 30
0.0
 10
322.756102
 20
366.837700
 30
0.0
 10
324.509670
 20
365.085546
 30
0.0
 10
325.159418
 20
362.679020
 30
0.0
 10
324.509669
 20
360.297499
 30
0.0
 10
322.756101
 20
358.471820
 30
0.0
 10
321.163279
 20
358.223480
 30
0.0
 10
320.354879
 20
358.097440
 30
0.0
 11
320.354879
 21
358.097440
 31
0.0
 11
318.040344
 21
358.723535
 31
0.0
 11
316.395186
 21
360.368693
 31
0.0
 11
315.769091
 21
362.683228
 31
0.0
 11
316.395186
 21
364.997767
 31
0.0
 11
318.040344
 21
366.642927
 31
0.0
 11
320.354879
 21
367.269021
 31
0.0
 11
322.669418
 21
366.642927
 31
0.0
 11
324.314578
 21
364.997767
 31
0.0
 11
324.940672
 21
362.683228
 31
0.0
 11
324.314578
 21
360.368693
 31
0.0
 11
322.669418
 21
358.723535
 31
0.0
 11
320.354879
 21
358.097440
 31
0.0
  0
LWPOLYLINE
  5
148
100
AcDbEntity
  8
Layer_1
 62
7
100
AcDbPolyline
 90
2
 70
1
 10
320.354879
 20
358.097440
 30
0.0
 10
320.354879
 20
358.097440
 30
0.0
  0
SPLINE
  5
149
100
AcDbEntity
  8
Layer_1
 62
7
100
AcDbSpline
 70
0
 71
3
 72
19
 73
15
 74
13
 40
0.000000
 40
0.000000
 40
0.000000
 40
0.000000
 40
3.605735
 40
7.104525
 40
10.710260
 40
14.316001
 40
17.814793
 40
21.420528
 40
25.026269
 40
28.525062
 40
32.130803
 40
35.736538
 40
39.235330
 40
42.841071
 40
42.841071
 40
42.841071
 40
42.841071
 10
222.064559
 20
336.034206
 30
0.0
 10
222.790152
 20
335.040562
 30
0.0
 10
224.219817
 20
333.082746
 30
0.0
 10
224.143134
 20
329.276721
 30
0.0
 10
222.301638
 20
326.053392
 30
0.0
 10
219.051721
 20
324.185307
 30
0.0
 10
215.323880
 20
324.186807
 30
0.0
 10
212.079091
 20
326.048741
 30
0.0
 10
210.217156
 20
329.293530
 30
0.0
 10
210.215653
 20
333.021374
 30
0.0
 10
212.083738
 20
336.271292
 30
0.0
 10
215.307068
 20
338.112788
 30
0.0
 10
219.113095
 20
338.189469
 30
0.0
 10
221.070913
 20
336.759801
 30
0.0
 10
222.064559
 20
336.034206
 30
0.0
 11
222.064559
 21
336.034206
 31
0.0
 11
223.859978
 21
332.907260
 31
0.0
 11
223.859978
 21
329.408470
 31
0.0
 11
222.064559
 21
326.281523
 31
0.0
 11
218.937608
 21
324.486100
 31
0.0
 11
215.438816
 21
324.486098
 31
0.0
 11
212.311869
 21
326.281517
 31
0.0
 11
210.516446
 21
329.408468
 31
0.0
 11
210.516446
 21
332.907261
 31
0.0
 11
212.311869
 21
336.034212
 31
0.0
 11
215.438816
 21
337.829631
 31
0.0
 11
218.937608
 21
337.829630
 31
0.0
 11
222.064559
 21
336.034206
 31
0.0
  0
LWPOLYLINE
  5
14a
100
AcDbEntity
  8
Layer_1
 62
7
100
AcDbPolyline
 90
2
 70
1
 10
222.064559
 20
336.034206
 30
0.0
 10
222.064559
 20
336.034206
 30
0.0
  0
SPLINE
  5
14b
100
AcDbEntity
  8
Layer_1
 62
7
100
AcDbSpline
 70
0
 71
3
 72
19
 73
15
 74
13
 40
0.000000
 40
0.000000
 40
0.000000
 40
0.000000
 40
1.743797
 40
3.435874
 40
5.179670
 40
6.923470
 40
8.615548
 40
10.359345
 40
12.103144
 40
13.795223
 40
15.539022
 40
17.282819
 40
18.974897
 40
20.718697
 40
20.718697
 40
20.718697
 40
20.718697
 10
246.114903
 20
346.548619
 30
0.0
 10
246.465813
 20
346.068076
 30
0.0
 10
247.157224
 20
345.121241
 30
0.0
 10
247.120139
 20
343.280581
 30
0.0
 10
246.229559
 20
341.721722
 30
0.0
 10
244.657842
 20
340.818283
 30
0.0
 10
242.854992
 20
340.819009
 30
0.0
 10
241.285755
 20
341.719473
 30
0.0
 10
240.385290
 20
343.288710
 30
0.0
 10
240.384563
 20
345.091561
 30
0.0
 10
241.288003
 20
346.663278
 30
0.0
 10
242.846862
 20
347.553858
 30
0.0
 10
244.687523
 20
347.590942
 30
0.0
 10
245.634359
 20
346.899530
 30
0.0
 10
246.114903
 20
346.548619
 30
0.0
 11
246.114903
 21
346.548619
 31
0.0
 11
246.983199
 21
345.036373
 31
0.0
 11
246.983199
 21
343.344296
 31
0.0
 11
246.114903
 21
341.832050
 31
0.0
 11
244.602655
 21
340.963752
 31
0.0
 11
242.910577
 21
340.963751
 31
0.0
 11
241.398331
 21
341.832047
 31
0.0
 11
240.530032
 21
343.344296
 31
0.0
 11
240.530032
 21
345.036374
 31
0.0
 11
241.398331
 21
346.548622
 31
0.0
 11
242.910577
 21
347.416919
 31
0.0
 11
244.602655
 21
347.416918
 31
0.0
 11
246.114903
 21
346.548619
 31
0.0
  0
LWPOLYLINE
  5
14c
100
AcDbEntity
  8
Layer_1
 62
7
100
AcDbPolyline
 90
2
 70
1
 10
246.114903
 20
346.548619
 30
0.0
 10
246.114903
 20
346.548619
 30
0.0
  0
SPLINE
  5
14d
100
AcDbEntity
  8
Layer_1
 62
7
100
AcDbSpline
 70
0
 71
3
 72
19
 73
15
 74
13
 40
0.000000
 40
0.000000
 40
0.000000
 40
0.000000
 40
2.397721
 40
4.724326
 40
7.122047
 40
9.519772
 40
11.846378
 40
14.244099
 40
16.641824
 40
18.968431
 40
21.366156
 40
23.763877
 40
26.090483
 40
28.488208
 40
28.488208
 40
28.488208
 40
28.488208
 10
234.891175
 20
344.324548
 30
0.0
 10
235.373676
 20
343.663801
 30
0.0
 10
236.324367
 20
342.361903
 30
0.0
 10
236.273374
 20
339.830995
 30
0.0
 10
235.048827
 20
337.687564
 30
0.0
 10
232.887716
 20
336.445336
 30
0.0
 10
230.408798
 20
336.446334
 30
0.0
 10
228.251096
 20
337.684471
 30
0.0
 10
227.012958
 20
339.842173
 30
0.0
 10
227.011958
 20
342.321093
 30
0.0
 10
228.254187
 20
344.482204
 30
0.0
 10
230.397618
 20
345.706752
 30
0.0
 10
232.928528
 20
345.757743
 30
0.0
 10
234.230427
 20
344.807050
 30
0.0
 10
234.891175
 20
344.324548
 30
0.0
 11
234.891175
 21
344.324548
 31
0.0
 11
236.085083
 21
342.245210
 31
0.0
 11
236.085083
 21
339.918604
 31
0.0
 11
234.891175
 21
337.839265
 31
0.0
 11
232.811833
 21
336.645355
 31
0.0
 11
230.485227
 21
336.645354
 31
0.0
 11
228.405888
 21
337.839261
 31
0.0
 11
227.211978
 21
339.918603
 31
0.0
 11
227.211978
 21
342.245211
 31
0.0
 11
228.405888
 21
344.324553
 31
0.0
 11
230.485227
 21
345.518460
 31
0.0
 11
232.811833
 21
345.518459
 31
0.0
 11
234.891175
 21
344.324548
 31
0.0
  0
LWPOLYLINE
  5
14e
100
AcDbEntity
  8
Layer_1
 62
7
100
AcDbPolyline
 90
2
 70
1
 10
234.891175
 20
344.324548
 30
0.0
 10
234.891175
 20
344.324548
 30
0.0
  0
SPLINE
  5
14f
100
AcDbEntity
  8
Layer_1
 62
7
100
AcDbSpline
 70
0
 71
3
 72
19
 73
15
 74
13
 40
0.000000
 40
0.000000
 40
0.000000
 40
0.000000
 40
3.605735
 40
7.104525
 40
10.710260
 40
14.316001
 40
17.814793
 40
21.420528
 40
25.026269
 40
28.525062
 40
32.130803
 40
35.736538
 40
39.235330
 40
42.841071
 40
42.841071
 40
42.841071
 40
42.841071
 10
278.165548
 20
274.933683
 30
0.0
 10
279.159192
 20
275.659276
 30
0.0
 10
281.117009
 20
277.088941
 30
0.0
 10
284.923033
 20
277.012259
 30
0.0
 10
288.146362
 20
275.170762
 30
0.0
 10
290.014448
 20
271.920845
 30
0.0
 10
290.012947
 20
268.193004
 30
0.0
 10
288.151014
 20
264.948215
 30
0.0
 10
284.906224
 20
263.086280
 30
0.0
 10
281.178381
 20
263.084777
 30
0.0
 10
277.928463
 20
264.952863
 30
0.0
 10
276.086966
 20
268.176193
 30
0.0
 10
276.010286
 20
271.982220
 30
0.0
 10
277.439954
 20
273.940038
 30
0.0
 10
278.165548
 20
274.933683
 30
0.0
 11
278.165548
 21
274.933683
 31
0.0
 11
281.292495
 21
276.729102
 31
0.0
 11
284.791285
 21
276.729102
 31
0.0
 11
287.918232
 21
274.933683
 31
0.0
 11
289.713655
 21
271.806732
 31
0.0
 11
289.713657
 21
268.307940
 31
0.0
 11
287.918238
 21
265.180994
 31
0.0
 11
284.791287
 21
263.385570
 31
0.0
 11
281.292493
 21
263.385570
 31
0.0
 11
278.165542
 21
265.180994
 31
0.0
 11
276.370123
 21
268.307940
 31
0.0
 11
276.370125
 21
271.806732
 31
0.0
 11
278.165548
 21
274.933683
 31
0.0
  0
LWPOLYLINE
  5
150
100
AcDbEntity
  8
Layer_1
 62
7
100
AcDbPolyline
 90
2
 70
1
 10
278.165548
 20
274.933683
 30
0.0
 10
278.165548
 20
274.933683
 30
0.0
  0
SPLINE
  5
151
100
AcDbEntity
  8
Layer_1
 62
7
100
AcDbSpline
 70
0
 71
3
 72
19
 73
15
 74
13
 40
0.000000
 40
0.000000
 40
0.000000
 40
0.000000
 40
1.743797
 40
3.435874
 40
5.179670
 40
6.923470
 40
8.615548
 40
10.359345
 40
12.103144
 40
13.795223
 40
15.539022
 40
17.282819
 40
18.974897
 40
20.718697
 40
20.718697
 40
20.718697
 40
20.718697
 10
267.651135
 20
298.984027
 30
0.0
 10
268.131679
 20
299.334937
 30
0.0
 10
269.078513
 20
300.026348
 30
0.0
 10
270.919174
 20
299.989263
 30
0.0
 10
272.478033
 20
299.098683
 30
0.0
 10
273.381472
 20
297.526966
 30
0.0
 10
273.380746
 20
295.724116
 30
0.0
 10
272.480282
 20
294.154879
 30
0.0
 10
270.911045
 20
293.254415
 30
0.0
 10
269.108194
 20
293.253688
 30
0.0
 10
267.536476
 20
294.157127
 30
0.0
 10
266.645896
 20
295.715986
 30
0.0
 10
266.608812
 20
297.556648
 30
0.0
 10
267.300225
 20
298.503483
 30
0.0
 10
267.651135
 20
298.984027
 30
0.0
 11
267.651135
 21
298.984027
 31
0.0
 11
269.163382
 21
299.852324
 31
0.0
 11
270.855458
 21
299.852324
 31
0.0
 11
272.367705
 21
298.984027
 31
0.0
 11
273.236003
 21
297.471779
 31
0.0
 11
273.236004
 21
295.779702
 31
0.0
 11
272.367708
 21
294.267455
 31
0.0
 11
270.855459
 21
293.399157
 31
0.0
 11
269.163381
 21
293.399157
 31
0.0
 11
267.651132
 21
294.267455
 31
0.0
 11
266.782836
 21
295.779702
 31
0.0
 11
266.782837
 21
297.471779
 31
0.0
 11
267.651135
 21
298.984027
 31
0.0
  0
LWPOLYLINE
  5
152
100
AcDbEntity
  8
Layer_1
 62
7
100
AcDbPolyline
 90
2
 70
1
 10
267.651135
 20
298.984027
 30
0.0
 10
267.651135
 20
298.984027
 30
0.0
  0
SPLINE
  5
153
100
AcDbEntity
  8
Layer_1
 62
7
100
AcDbSpline
 70
0
 71
3
 72
19
 73
15
 74
13
 40
0.000000
 40
0.000000
 40
0.000000
 40
0.000000
 40
2.397721
 40
4.724326
 40
7.122047
 40
9.519772
 40
11.846378
 40
14.244099
 40
16.641824
 40
18.968431
 40
21.366156
 40
23.763877
 40
26.090483
 40
28.488208
 40
28.488208
 40
28.488208
 40
28.488208
 10
269.875206
 20
287.760300
 30
0.0
 10
270.535954
 20
288.242800
 30
0.0
 10
271.837851
 20
289.193491
 30
0.0
 10
274.368759
 20
289.142499
 30
0.0
 10
276.512190
 20
287.917951
 30
0.0
 10
277.754419
 20
285.756840
 30
0.0
 10
277.753421
 20
283.277922
 30
0.0
 10
276.515283
 20
281.120221
 30
0.0
 10
274.357582
 20
279.882082
 30
0.0
 10
271.878662
 20
279.881082
 30
0.0
 10
269.717550
 20
281.123311
 30
0.0
 10
268.493003
 20
283.266743
 30
0.0
 10
268.442012
 20
285.797653
 30
0.0
 10
269.392704
 20
287.099551
 30
0.0
 10
269.875206
 20
287.760300
 30
0.0
 11
269.875206
 21
287.760300
 31
0.0
 11
271.954545
 21
288.954207
 31
0.0
 11
274.281150
 21
288.954207
 31
0.0
 11
276.360489
 21
287.760300
 31
0.0
 11
277.554399
 21
285.680958
 31
0.0
 11
277.554401
 21
283.354351
 31
0.0
 11
276.360493
 21
281.275012
 31
0.0
 11
274.281151
 21
280.081102
 31
0.0
 11
271.954544
 21
280.081102
 31
0.0
 11
269.875202
 21
281.275012
 31
0.0
 11
268.681295
 21
283.354351
 31
0.0
 11
268.681296
 21
285.680958
 31
0.0
 11
269.875206
 21
287.760300
 31
0.0
  0
LWPOLYLINE
  5
154
100
AcDbEntity
  8
Layer_1
 62
7
100
AcDbPolyline
 90
2
 70
1
 10
269.875206
 20
287.760300
 30
0.0
 10
269.875206
 20
287.760300
 30
0.0
  0
SPLINE
  5
155
100
AcDbEntity
  8
Layer_1
 62
7
100
AcDbSpline
 70
0
 71
3
 72
19
 73
15
 74
13
 40
0.000000
 40
0.000000
 40
0.000000
 40
0.000000
 40
3.605735
 40
7.104525
 40
10.710260
 40
14.316001
 40
17.814793
 40
21.420528
 40
25.026269
 40
28.525062
 40
32.130803
 40
35.736538
 40
39.235330
 40
42.841071
 40
42.841071
 40
42.841071
 40
42.841071
 10
339.217392
 20
330.395522
 30
0.0
 10
338.491799
 20
331.389166
 30
0.0
 10
337.062134
 20
333.346983
 30
0.0
 10
337.138817
 20
337.153007
 30
0.0
 10
338.980313
 20
340.376337
 30
0.0
 10
342.230230
 20
342.244422
 30
0.0
 10
345.958071
 20
342.242921
 30
0.0
 10
349.202860
 20
340.380988
 30
0.0
 10
351.064795
 20
337.136198
 30
0.0
 10
351.066298
 20
333.408355
 30
0.0
 10
349.198213
 20
330.158437
 30
0.0
 10
345.974883
 20
328.316940
 30
0.0
 10
342.168856
 20
328.240260
 30
0.0
 10
340.211038
 20
329.669928
 30
0.0
 10
339.217392
 20
330.395522
 30
0.0
 11
339.217392
 21
330.395522
 31
0.0
 11
337.421973
 21
333.522469
 31
0.0
 11
337.421973
 21
337.021259
 31
0.0
 11
339.217392
 21
340.148206
 31
0.0
 11
342.344343
 21
341.943629
 31
0.0
 11
345.843135
 21
341.943631
 31
0.0
 11
348.970082
 21
340.148212
 31
0.0
 11
350.765505
 21
337.021261
 31
0.0
 11
350.765505
 21
333.522467
 31
0.0
 11
348.970082
 21
330.395516
 31
0.0
 11
345.843135
 21
328.600097
 31
0.0
 11
342.344343
 21
328.600099
 31
0.0
 11
339.217392
 21
330.395522
 31
0.0
  0
LWPOLYLINE
  5
156
100
AcDbEntity
  8
Layer_1
 62
7
100
AcDbPolyline
 90
2
 70
1
 10
339.217392
 20
330.395522
 30
0.0
 10
339.217392
 20
330.395522
 30
0.0
  0
SPLINE
  5
157
100
AcDbEntity
  8
Layer_1
 62
7
100
AcDbSpline
 70
0
 71
3
 72
19
 73
15
 74
13
 40
0.000000
 40
0.000000
 40
0.000000
 40
0.000000
 40
1.743797
 40
3.435874
 40
5.179670
 40
6.923470
 40
8.615548
 40
10.359345
 40
12.103144
 40
13.795223
 40
15.539022
 40
17.282819
 40
18.974897
 40
20.718697
 40
20.718697
 40
20.718697
 40
20.718697
 10
315.167048
 20
319.881109
 30
0.0
 10
314.816138
 20
320.361653
 30
0.0
 10
314.124727
 20
321.308488
 30
0.0
 10
314.161812
 20
323.149148
 30
0.0
 10
315.052392
 20
324.708007
 30
0.0
 10
316.624109
 20
325.611446
 30
0.0
 10
318.426959
 20
325.610720
 30
0.0
 10
319.996196
 20
324.710256
 30
0.0
 10
320.896661
 20
323.141019
 30
0.0
 10
320.897388
 20
321.338168
 30
0.0
 10
319.993948
 20
319.766450
 30
0.0
 10
318.435089
 20
318.875870
 30
0.0
 10
316.594428
 20
318.838786
 30
0.0
 10
315.647592
 20
319.530199
 30
0.0
 10
315.167048
 20
319.881109
 30
0.0
 11
315.167048
 21
319.881109
 31
0.0
 11
314.298752
 21
321.393356
 31
0.0
 11
314.298752
 21
323.085432
 31
0.0
 11
315.167048
 21
324.597679
 31
0.0
 11
316.679296
 21
325.465977
 31
0.0
 11
318.371374
 21
325.465978
 31
0.0
 11
319.883620
 21
324.597682
 31
0.0
 11
320.751919
 21
323.085433
 31
0.0
 11
320.751919
 21
321.393355
 31
0.0
 11
319.883620
 21
319.881106
 31
0.0
 11
318.371374
 21
319.012810
 31
0.0
 11
316.679296
 21
319.012811
 31
0.0
 11
315.167048
 21
319.881109
 31
0.0
  0
LWPOLYLINE
  5
158
100
AcDbEntity
  8
Layer_1
 62
7
100
AcDbPolyline
 90
2
 70
1
 10
315.167048
 20
319.881109
 30
0.0
 10
315.167048
 20
319.881109
 30
0.0
  0
SPLINE
  5
159
100
AcDbEntity
  8
Layer_1
 62
7
100
AcDbSpline
 70
0
 71
3
 72
19
 73
15
 74
13
 40
0.000000
 40
0.000000
 40
0.000000
 40
0.000000
 40
2.397721
 40
4.724326
 40
7.122047
 40
9.519772
 40
11.846378
 40
14.244099
 40
16.641824
 40
18.968431
 40
21.366156
 40
23.763877
 40
26.090483
 40
28.488208
 40
28.488208
 40
28.488208
 40
28.488208
 10
326.390776
 20
322.105180
 30
0.0
 10
325.908275
 20
322.765928
 30
0.0
 10
324.957584
 20
324.067825
 30
0.0
 10
325.008577
 20
326.598733
 30
0.0
 10
326.233124
 20
328.742164
 30
0.0
 10
328.394235
 20
329.984393
 30
0.0
 10
330.873153
 20
329.983395
 30
0.0
 10
333.030855
 20
328.745257
 30
0.0
 10
334.268993
 20
326.587556
 30
0.0
 10
334.269993
 20
324.108636
 30
0.0
 10
333.027764
 20
321.947524
 30
0.0
 10
330.884333
 20
320.722977
 30
0.0
 10
328.353423
 20
320.671986
 30
0.0
 10
327.051524
 20
321.622678
 30
0.0
 10
326.390776
 20
322.105180
 30
0.0
 11
326.390776
 21
322.105180
 31
0.0
 11
325.196868
 21
324.184519
 31
0.0
 11
325.196868
 21
326.511124
 31
0.0
 11
326.390776
 21
328.590463
 31
0.0
 11
328.470117
 21
329.784374
 31
0.0
 11
330.796724
 21
329.784375
 31
0.0
 11
332.876063
 21
328.590467
 31
0.0
 11
334.069973
 21
326.511125
 31
0.0
 11
334.069973
 21
324.184518
 31
0.0
 11
332.876063
 21
322.105176
 31
0.0
 11
330.796724
 21
320.911269
 31
0.0
 11
328.470117
 21
320.911270
 31
0.0
 11
326.390776
 21
322.105180
 31
0.0
  0
LWPOLYLINE
  5
15a
100
AcDbEntity
  8
Layer_1
 62
7
100
AcDbPolyline
 90
2
 70
1
 10
326.390776
 20
322.105180
 30
0.0
 10
326.390776
 20
322.105180
 30
0.0
  0
SPLINE
  5
15b
100
AcDbEntity
  8
Layer_1
 62
7
100
AcDbSpline
 70
0
 71
3
 72
19
 73
15
 74
13
 40
0.000000
 40
0.000000
 40
0.000000
 40
0.000000
 40
3.605735
 40
7.104525
 40
10.710260
 40
14.316001
 40
17.814793
 40
21.420528
 40
25.026269
 40
28.525062
 40
32.130803
 40
35.736538
 40
39.235330
 40
42.841071
 40
42.841071
 40
42.841071
 40
42.841071
 10
283.016414
 20
391.693763
 30
0.0
 10
282.022770
 20
390.968169
 30
0.0
 10
280.064953
 20
389.538504
 30
0.0
 10
276.258929
 20
389.615187
 30
0.0
 10
273.035600
 20
391.456683
 30
0.0
 10
271.167514
 20
394.706600
 30
0.0
 10
271.169015
 20
398.434441
 30
0.0
 10
273.030949
 20
401.679230
 30
0.0
 10
276.275738
 20
403.541165
 30
0.0
 10
280.003581
 20
403.542669
 30
0.0
 10
283.253499
 20
401.674583
 30
0.0
 10
285.094996
 20
398.451253
 30
0.0
 10
285.171676
 20
394.645226
 30
0.0
 10
283.742009
 20
392.687408
 30
0.0
 10
283.016414
 20
391.693763
 30
0.0
 11
283.016414
 21
391.693763
 31
0.0
 11
279.889467
 21
389.898343
 31
0.0
 11
276.390677
 21
389.898343
 31
0.0
 11
273.263731
 21
391.693763
 31
0.0
 11
271.468307
 21
394.820713
 31
0.0
 11
271.468306
 21
398.319505
 31
0.0
 11
273.263725
 21
401.446452
 31
0.0
 11
276.390676
 21
403.241875
 31
0.0
 11
279.889469
 21
403.241875
 31
0.0
 11
283.016420
 21
401.446452
 31
0.0
 11
284.811839
 21
398.319505
 31
0.0
 11
284.811837
 21
394.820713
 31
0.0
 11
283.016414
 21
391.693763
 31
0.0
  0
LWPOLYLINE
  5
15c
100
AcDbEntity
  8
Layer_1
 62
7
100
AcDbPolyline
 90
2
 70
1
 10
283.016414
 20
391.693763
 30
0.0
 10
283.016414
 20
391.693763
 30
0.0
  0
SPLINE
  5
15d
100
AcDbEntity
  8
Layer_1
 62
7
100
AcDbSpline
 70
0
 71
3
 72
19
 73
15
 74
13
 40
0.000000
 40
0.000000
 40
0.000000
 40
0.000000
 40
1.743797
 40
3.435874
 40
5.179670
 40
6.923470
 40
8.615548
 40
10.359345
 40
12.103144
 40
13.795223
 40
15.539022
 40
17.282819
 40
18.974897
 40
20.718697
 40
20.718697
 40
20.718697
 40
20.718697
 10
293.530827
 20
367.643418
 30
0.0
 10
293.050283
 20
367.292508
 30
0.0
 10
292.103449
 20
366.601097
 30
0.0
 10
290.262788
 20
366.638182
 30
0.0
 10
288.703930
 20
367.528762
 30
0.0
 10
287.800491
 20
369.100480
 30
0.0
 10
287.801216
 20
370.903329
 30
0.0
 10
288.701680
 20
372.472566
 30
0.0
 10
290.270918
 20
373.373031
 30
0.0
 10
292.073768
 20
373.373758
 30
0.0
 10
293.645486
 20
372.470319
 30
0.0
 10
294.536066
 20
370.911459
 30
0.0
 10
294.573150
 20
369.070798
 30
0.0
 10
293.881738
 20
368.123962
 30
0.0
 10
293.530827
 20
367.643418
 30
0.0
 11
293.530827
 21
367.643418
 31
0.0
 11
292.018581
 21
366.775122
 31
0.0
 11
290.326504
 21
366.775122
 31
0.0
 11
288.814258
 21
367.643418
 31
0.0
 11
287.945959
 21
369.155667
 31
0.0
 11
287.945958
 21
370.847744
 31
0.0
 11
288.814255
 21
372.359990
 31
0.0
 11
290.326503
 21
373.228289
 31
0.0
 11
292.018581
 21
373.228289
 31
0.0
 11
293.530830
 21
372.359990
 31
0.0
 11
294.399126
 21
370.847744
 31
0.0
 11
294.399126
 21
369.155667
 31
0.0
 11
293.530827
 21
367.643418
 31
0.0
  0
LWPOLYLINE
  5
15e
100
AcDbEntity
  8
Layer_1
 62
7
100
AcDbPolyline
 90
2
 70
1
 10
293.530827
 20
367.643418
 30
0.0
 10
293.530827
 20
367.643418
 30
0.0
  0
LWPOLYLINE
  5
15f
100
AcDbEntity
  8
Layer_1
 62
7
100
AcDbPolyline
 90
2
 70
1
 10
291.306756
 20
378.867146
 30
0.0
 10
291.306756
 20
378.867146
 30
0.0
  0
SPLINE
  5
160
100
AcDbEntity
  8
Layer_1
 62
7
100
AcDbSpline
 70
0
 71
3
 72
19
 73
15
 74
13
 40
0.000000
 40
0.000000
 40
0.000000
 40
0.000000
 40
2.397721
 40
4.724326
 40
7.122047
 40
9.519772
 40
11.846378
 40
14.244099
 40
16.641824
 40
18.968431
 40
21.366156
 40
23.763877
 40
26.090483
 40
28.488208
 40
28.488208
 40
28.488208
 40
28.488208
 10
291.306756
 20
378.867146
 30
0.0
 10
290.646009
 20
378.384645
 30
0.0
 10
289.344111
 20
377.433955
 30
0.0
 10
286.813203
 20
377.484947
 30
0.0
 10
284.669772
 20
378.709494
 30
0.0
 10
283.427543
 20
380.870605
 30
0.0
 10
283.428541
 20
383.349523
 30
0.0
 10
284.666679
 20
385.507225
 30
0.0
 10
286.824380
 20
386.745363
 30
0.0
 10
289.303300
 20
386.746363
 30
0.0
 10
291.464412
 20
385.504134
 30
0.0
 10
292.688960
 20
383.360703
 30
0.0
 10
292.739950
 20
380.829793
 30
0.0
 10
291.789258
 20
379.527894
 30
0.0
 10
291.306756
 20
378.867146
 30
0.0
 11
291.306756
 21
378.867146
 31
0.0
 11
289.227417
 21
377.673238
 31
0.0
 11
286.900812
 21
377.673238
 31
0.0
 11
284.821473
 21
378.867146
 31
0.0
 11
283.627563
 21
380.946488
 31
0.0
 11
283.627562
 21
383.273094
 31
0.0
 11
284.821469
 21
385.352433
 31
0.0
 11
286.900811
 21
386.546343
 31
0.0
 11
289.227418
 21
386.546343
 31
0.0
 11
291.306760
 21
385.352433
 31
0.0
 11
292.500668
 21
383.273094
 31
0.0
 11
292.500666
 21
380.946488
 31
0.0
 11
291.306756
 21
378.867146
 31
0.0
  0
LWPOLYLINE
  5
161
100
AcDbEntity
  8
Layer_1
 62
7
100
AcDbPolyline
 90
2
 70
1
 10
229.711704
 20
205.526540
 30
0.0
 10
192.009440
 20
313.764300
 30
0.0
  0
SPLINE
  5
162
100
AcDbEntity
  8
Layer_1
 62
7
100
AcDbSpline
 70
0
 71
3
 72
13
 73
9
 74
7
 40
0.000000
 40
0.000000
 40
0.000000
 40
0.000000
 40
48.825189
 40
100.252301
 40
152.371324
 40
203.725192
 40
254.617978
 40
314.584451
 40
314.584451
 40
314.584451
 40
314.584451
 10
192.009440
 20
313.764300
 30
0.0
 10
191.318144
 20
330.390006
 30
0.0
 10
189.898711
 20
364.527412
 30
0.0
 10
222.158472
 20
408.957341
 30
0.0
 10
273.649006
 20
427.707574
 30
0.0
 10
325.686493
 20
414.320621
 30
0.0
 10
367.995382
 20
373.332643
 30
0.0
 10
366.491481
 20
334.675104
 30
0.0
 10
365.677984
 20
313.764300
 30
0.0
 11
192.009440
 21
313.764300
 31
0.0
 11
195.306671
 21
362.478028
 31
0.0
 11
225.094700
 21
404.399635
 31
0.0
 11
274.026576
 21
422.345780
 31
0.0
 11
323.874393
 21
410.000140
 31
0.0
 11
359.218039
 21
373.381806
 31
0.0
 11
365.677984
 21
313.764300
 31
0.0
  0
LWPOLYLINE
  5
163
100
AcDbEntity
  8
Layer_1
 62
7
100
AcDbPolyline
 90
2
 70
1
 10
365.677984
 20
313.764300
 30
0.0
 10
327.668576
 20
208.931308
 30
0.0
  0
SPLINE
  5
164
100
AcDbEntity
  8
Layer_1
 62
7
100
AcDbSpline
 70
0
 71
3
 72
10
 73
6
 74
4
 40
0.000000
 40
0.000000
 40
0.000000
 40
0.000000
 40
8.345378
 40
14.411984
 40
19.627617
 40
19.627617
 40
19.627617
 40
19.627617
 10
327.668576
 20
208.931308
 30
0.0
 10
326.837798
 20
206.246019
 30
0.0
 10
325.403094
 20
201.608682
 30
0.0
 10
320.223909
 20
196.856141
 30
0.0
 10
316.403698
 20
196.497228
 30
0.0
 10
314.637664
 20
196.331308
 30
0.0
 11
327.668576
 21
208.931308
 31
0.0
 11
324.382159
 21
201.260271
 31
0.0
 11
319.755579
 21
197.336184
 31
0.0
 11
314.637664
 21
196.331308
 31
0.0
  0
LWPOLYLINE
  5
165
100
AcDbEntity
  8
Layer_1
 62
7
100
AcDbPolyline
 90
2
 70
1
 10
314.637664
 20
196.331308
 30
0.0
 10
249.235464
 20
196.326508
 30
0.0
  0
SPLINE
  5
166
100
AcDbEntity
  8
Layer_1
 62
7
100
AcDbSpline
 70
0
 71
3
 72
10
 73
6
 74
4
 40
0.000000
 40
0.000000
 40
0.000000
 40
0.000000
 40
7.752504
 40
14.041913
 40
23.138969
 40
23.138969
 40
23.138969
 40
23.138969
 10
249.235464
 20
196.326508
 30
0.0
 10
246.647499
 20
196.145601
 30
0.0
 10
241.959983
 20
195.817929
 30
0.0
 10
234.297997
 20
198.463217
 30
0.0
 10
231.415779
 20
202.902083
 30
0.0
 10
229.711704
 20
205.526508
 30
0.0
 11
249.235464
 21
196.326508
 31
0.0
 11
241.483100
 21
196.372978
 31
0.0
 11
235.597402
 21
198.590011
 31
0.0
 11
229.711704
 21
205.526508
 31
0.0
  0
SPLINE
  5
167
100
AcDbEntity
  8
Layer_1
 62
7
100
AcDbSpline
 70
0
 71
3
 72
13
 73
9
 74
7
 40
0.000000
 40
0.000000
 40
0.000000
 40
0.000000
 40
14.245781
 40
27.222971
 40
39.663936
 40
45.649213
 40
51.565551
 40
57.603882
 40
57.603882
 40
57.603882
 40
57.603882
 10
90.925000
 20
459.989764
 30
0.0
 10
86.132685
 20
459.378652
 30
0.0
 10
76.974812
 20
458.210847
 30
0.0
 10
66.276994
 20
449.193009
 30
0.0
 10
62.770590
 20
438.638540
 30
0.0
 10
64.037968
 20
430.517840
 30
0.0
 10
66.568220
 20
424.982112
 30
0.0
 10
69.313402
 20
422.063807
 30
0.0
 10
70.700000
 20
420.589764
 30
0.0
 11
90.925000
 21
459.989764
 31
0.0
 11
77.045224
 21
456.781324
 31
0.0
 11
67.179556
 21
448.350662
 31
0.0
 11
63.425000
 21
436.489764
 31
0.0
 11
64.309372
 21
430.570183
 31
0.0
 11
66.810411
 21
425.208480
 31
0.0
 11
70.700000
 21
420.589764
 31
0.0
  0
LWPOLYLINE
  5
168
100
AcDbEntity
  8
Layer_1
 62
7
100
AcDbPolyline
 90
2
 70
1
 10
229.711704
 20
205.526508
 30
0.0
 10
229.711704
 20
205.526540
 30
0.0
  0
SPLINE
  5
169
100
AcDbEntity
  8
Layer_1
 62
7
100
AcDbSpline
 70
0
 71
3
 72
10
 73
6
 74
4
 40
0.000000
 40
0.000000
 40
0.000000
 40
0.000000
 40
47.550762
 40
94.811607
 40
139.632151
 40
139.632151
 40
139.632151
 40
139.632151
 10
70.700000
 20
420.589764
 30
0.0
 10
55.714515
 20
414.598752
 30
0.0
 10
25.834911
 20
402.653256
 30
0.0
 10
-0.702264
 20
359.458502
 30
0.0
 10
1.098486
 20
328.371391
 30
0.0
 10
1.975000
 20
313.239764
 30
0.0
 11
70.700000
 21
420.589764
 31
0.0
 11
28.726856
 21
398.244067
 31
0.0
 11
3.918314
 21
358.018159
 31
0.0
 11
1.975000
 21
313.239764
 31
0.0
  0
LWPOLYLINE
  5
16a
100
AcDbEntity
  8
Layer_1
 62
7
100
AcDbPolyline
 90
2
 70
0
 10
1.975000
 20
313.239764
 30
0.0
 10
39.675000
 20
205.014764
 30
0.0
  0
SPLINE
  5
16b
100
AcDbEntity
  8
Layer_1
 62
7
100
AcDbSpline
 70
0
 71
3
 72
10
 73
6
 74
4
 40
0.000000
 40
0.000000
 40
0.000000
 40
0.000000
 40
9.097264
 40
15.387232
 40
23.140058
 40
23.140058
 40
23.140058
 40
23.140058
 10
39.675000
 20
205.014764
 30
0.0
 10
41.379189
 20
202.390322
 30
0.0
 10
44.261676
 20
197.951307
 30
0.0
 10
51.924144
 20
195.306243
 30
0.0
 10
56.611937
 20
195.633880
 30
0.0
 10
59.200000
 20
195.814764
 30
0.0
 11
39.675000
 21
205.014764
 31
0.0
 11
45.561019
 21
198.078267
 31
0.0
 11
51.447314
 21
195.861234
 31
0.0
 11
59.200000
 21
195.814764
 31
0.0
  0
SPLINE
  5
16c
100
AcDbEntity
  8
Layer_1
 62
7
100
AcDbSpline
 70
0
 71
3
 72
10
 73
6
 74
4
 40
0.000000
 40
0.000000
 40
0.000000
 40
0.000000
 40
71.330071
 40
139.163866
 40
216.526820
 40
216.526820
 40
216.526820
 40
216.526820
 10
22.875000
 20
298.814764
 30
0.0
 10
18.379922
 20
323.988670
 30
0.0
 10
9.610093
 20
373.102572
 30
0.0
 10
86.107321
 20
424.570123
 30
0.0
 10
128.932251
 20
393.496334
 30
0.0
 10
151.750000
 20
376.939764
 30
0.0
 11
22.875000
 21
298.814764
 31
0.0
 11
24.610507
 21
370.123719
 31
0.0
 11
80.891639
 21
407.990035
 31
0.0
 11
151.750000
 21
376.939764
 31
0.0
  0
LWPOLYLINE
  5
16d
100
AcDbEntity
  8
Layer_1
 62
7
100
AcDbPolyline
 90
2
 70
0
 10
59.200000
 20
195.814764
 30
0.0
 10
22.875000
 20
298.814764
 30
0.0
  0
SPLINE
  5
16e
100
AcDbEntity
  8
Layer_1
 62
7
100
AcDbSpline
 70
0
 71
3
 72
10
 73
6
 74
4
 40
0.000000
 40
0.000000
 40
0.000000
 40
0.000000
 40
69.740114
 40
133.713301
 40
205.163300
 40
205.163300
 40
205.163300
 40
205.163300
 10
151.750000
 20
376.939764
 30
0.0
 10
159.994754
 20
353.404291
 30
0.0
 10
175.802491
 20
308.279532
 30
0.0
 10
116.038481
 20
247.862419
 30
0.0
 10
70.042648
 20
262.641985
 30
0.0
 10
45.775000
 20
270.439764
 30
0.0
 11
151.750000
 21
376.939764
 31
0.0
 11
161.588365
 21
307.897095
 31
0.0
 11
116.755445
 21
262.261824
 31
0.0
 11
45.775000
 21
270.439764
 31
0.0
  0
LWPOLYLINE
  5
16f
100
AcDbEntity
  8
Layer_1
 62
7
100
AcDbPolyline
 90
2
 70
0
 10
45.775000
 20
270.439764
 30
0.0
 10
124.600000
 20
195.814764
 30
0.0
  0
SPLINE
  5
170
100
AcDbEntity
  8
Layer_1
 62
7
100
AcDbSpline
 70
0
 71
3
 72
10
 73
6
 74
4
 40
0.000000
 40
0.000000
 40
0.000000
 40
0.000000
 40
5.214130
 40
11.278565
 40
19.623339
 40
19.623339
 40
19.623339
 40
19.623339
 10
124.600000
 20
195.814764
 30
0.0
 10
126.365595
 20
195.980635
 30
0.0
 10
130.184715
 20
196.339427
 30
0.0
 10
135.360902
 20
201.093168
 30
0.0
 10
136.794667
 20
205.729649
 30
0.0
 10
137.625000
 20
208.414764
 30
0.0
 11
124.600000
 21
195.814764
 31
0.0
 11
129.716383
 21
196.819640
 31
0.0
 11
134.340116
 21
200.743727
 31
0.0
 11
137.625000
 21
208.414764
 31
0.0
  0
SPLINE
  5
171
100
AcDbEntity
  8
Layer_1
 62
7
100
AcDbSpline
 70
0
 71
3
 72
10
 73
6
 74
4
 40
0.000000
 40
0.000000
 40
0.000000
 40
0.000000
 40
51.559439
 40
94.943777
 40
137.695166
 40
137.695166
 40
137.695166
 40
137.695166
 10
175.650000
 20
313.239764
 30
0.0
 10
176.779372
 20
330.816643
 30
0.0
 10
178.859046
 20
363.183466
 30
0.0
 10
150.114887
 20
403.914854
 30
0.0
 10
122.754612
 20
413.939348
 30
0.0
 10
109.175000
 20
418.914764
 30
0.0
 11
175.650000
 21
313.239764
 31
0.0
 11
172.579858
 21
364.707715
 31
0.0
 11
147.603355
 21
400.181298
 31
0.0
 11
109.175000
 21
418.914764
 31
0.0
  0
LWPOLYLINE
  5
172
100
AcDbEntity
  8
Layer_1
 62
7
100
AcDbPolyline
 90
2
 70
0
 10
137.625000
 20
208.414764
 30
0.0
 10
175.650000
 20
313.239764
 30
0.0
  0
SPLINE
  5
173
100
AcDbEntity
  8
Layer_1
 62
7
100
AcDbSpline
 70
0
 71
3
 72
13
 73
9
 74
7
 40
0.000000
 40
0.000000
 40
0.000000
 40
0.000000
 40
6.952747
 40
13.708638
 40
20.510171
 40
32.951136
 40
45.928325
 40
60.174107
 40
60.174107
 40
60.174107
 40
60.174107
 10
109.175000
 20
418.914764
 30
0.0
 10
110.921993
 20
420.461026
 30
0.0
 10
114.366516
 20
423.509769
 30
0.0
 10
117.628813
 20
429.688444
 30
0.0
 10
119.170338
 20
438.367110
 30
0.0
 10
115.573080
 20
449.192008
 30
0.0
 10
104.875168
 20
458.211131
 30
0.0
 10
95.717308
 20
459.378749
 30
0.0
 10
90.925000
 20
459.989764
 30
0.0
 11
109.175000
 21
418.914764
 31
0.0
 11
114.090823
 21
423.831610
 31
0.0
 11
117.285689
 21
429.784331
 31
0.0
 11
118.425000
 21
436.489764
 31
0.0
 11
114.670444
 21
448.350662
 31
0.0
 11
104.804777
 21
456.781324
 31
0.0
 11
90.925000
 21
459.989764
 31
0.0
  0
SPLINE
  5
174
100
AcDbEntity
  8
Layer_1
 62
7
100
AcDbSpline
 70
0
 71
3
 72
16
 73
12
 74
10
 40
0.000000
 40
0.000000
 40
0.000000
 40
0.000000
 40
4.407978
 40
8.752854
 40
13.160832
 40
17.568810
 40
21.913685
 40
26.321663
 40
30.729641
 40
35.074517
 40
39.482495
 40
39.482495
 40
39.482495
 40
39.482495
 10
103.869437
 20
436.363633
 30
0.0
 10
103.718833
 20
434.886777
 30
0.0
 10
103.419781
 20
431.954205
 30
0.0
 10
101.095261
 20
428.078477
 30
0.0
 10
97.691387
 20
425.196897
 30
0.0
 10
93.475429
 20
423.668572
 30
0.0
 10
89.003913
 20
423.668572
 30
0.0
 10
84.787956
 20
425.196897
 30
0.0
 10
81.384081
 20
428.078477
 30
0.0
 10
79.059561
 20
431.954205
 30
0.0
 10
78.760509
 20
434.886777
 30
0.0
 10
78.609905
 20
436.363633
 30
0.0
 11
103.869437
 21
436.363633
 31
0.0
 11
103.101386
 21
432.023084
 31
0.0
 11
100.929524
 21
428.259979
 31
0.0
 11
97.555390
 21
425.423521
 31
0.0
 11
93.412109
 21
423.919031
 31
0.0
 11
89.067233
 21
423.919031
 31
0.0
 11
84.923952
 21
425.423521
 31
0.0
 11
81.549819
 21
428.259979
 31
0.0
 11
79.377956
 21
432.023084
 31
0.0
 11
78.609905
 21
436.363633
 31
0.0
  0
LWPOLYLINE
  5
175
100
AcDbEntity
  8
Layer_1
 62
7
100
AcDbPolyline
 90
2
 70
0
 10
90.925000
 20
459.989764
 30
0.0
 10
90.925000
 20
459.989764
 30
0.0
  0
SPLINE
  5
176
100
AcDbEntity
  8
Layer_1
 62
7
100
AcDbSpline
 70
0
 71
3
 72
16
 73
12
 74
10
 40
0.000000
 40
0.000000
 40
0.000000
 40
0.000000
 40
4.407978
 40
8.752854
 40
13.160832
 40
17.568810
 40
21.913685
 40
26.321663
 40
30.729641
 40
35.074517
 40
39.482495
 40
39.482495
 40
39.482495
 40
39.482495
 10
78.609905
 20
436.363633
 30
0.0
 10
78.760509
 20
437.840490
 30
0.0
 10
79.059561
 20
440.773061
 30
0.0
 10
81.384081
 20
444.648790
 30
0.0
 10
84.787956
 20
447.530369
 30
0.0
 10
89.003913
 20
449.058694
 30
0.0
 10
93.475429
 20
449.058694
 30
0.0
 10
97.691387
 20
447.530369
 30
0.0
 10
101.095261
 20
444.648790
 30
0.0
 10
103.419781
 20
440.773061
 30
0.0
 10
103.718833
 20
437.840490
 30
0.0
 10
103.869437
 20
436.363633
 30
0.0
 11
78.609905
 21
436.363633
 31
0.0
 11
79.377956
 21
440.704182
 31
0.0
 11
81.549819
 21
444.467287
 31
0.0
 11
84.923952
 21
447.303745
 31
0.0
 11
89.067233
 21
448.808235
 31
0.0
 11
93.412109
 21
448.808235
 31
0.0
 11
97.555390
 21
447.303745
 31
0.0
 11
100.929524
 21
444.467287
 31
0.0
 11
103.101386
 21
440.704182
 31
0.0
 11
103.869437
 21
436.363633
 31
0.0
  0
LWPOLYLINE
  5
177
100
AcDbEntity
  8
Layer_1
 62
7
100
AcDbPolyline
 90
2
 70
1
 10
103.869437
 20
436.363633
 30
0.0
 10
103.869437
 20
436.363633
 30
0.0
  0
ENDSEC
  0
SECTION
  2
OBJECTS
  0
DICTIONARY
  5
C
330
0
100
AcDbDictionary
  3
ACAD_GROUP
350
D
  3
ACAD_MLINESTYLE
350
17
  0
DICTIONARY
  5
D
330
C
100
AcDbDictionary
  0
DICTIONARY
  5
1A
330
C
100
AcDbDictionary
  0
DICTIONARY
  5
17
330
C
100
AcDbDictionary
  3
STANDARD
350
18
  0
DICTIONARY
  5
19
330
C
100
AcDbDictionary
  0
ENDSEC
  0
EOF
