  0
SECTION
  2
HEADER
  9
$ACADVER
  1
AC1021
  9
$ACADMAINTVER
 70
    25
  9
$DWGCODEPAGE
  3
ANSI_1252
  9
$INSBASE
 10
0.0
 20
0.0
 30
0.0
  9
$EXTMIN
 10
-17.83942125984252
 20
9.877633858267716
 30
0.0
  9
$EXTMAX
 10
-15.79592125984252
 20
11.74513385826772
 30
0.0
  9
$LIMMIN
 10
0.0
 20
0.0
  9
$LIMMAX
 10
12.0
 20
9.0
  9
$ORTHOMODE
 70
     0
  9
$REGENMODE
 70
     1
  9
$FILLMODE
 70
     1
  9
$QTEXTMODE
 70
     0
  9
$MIRRTEXT
 70
     1
  9
$LTSCALE
 40
1.0
  9
$ATTMODE
 70
     1
  9
$TEXTSIZE
 40
0.2
  9
$TRACEWID
 40
0.05
  9
$TEXTSTYLE
  7
Standard
  9
$CLAYER
  8
0
  9
$CELTYPE
  6
ByLayer
  9
$CECOLOR
 62
   256
  9
$CELTSCALE
 40
1.0
  9
$DISPSILH
 70
     0
  9
$DIMSCALE
 40
1.0
  9
$DIMASZ
 40
0.18
  9
$DIMEXO
 40
0.0625
  9
$DIMDLI
 40
0.38
  9
$DIMRND
 40
0.0
  9
$DIMDLE
 40
0.0
  9
$DIMEXE
 40
0.18
  9
$DIMTP
 40
0.0
  9
$DIMTM
 40
0.0
  9
$DIMTXT
 40
0.18
  9
$DIMCEN
 40
0.09
  9
$DIMTSZ
 40
0.0
  9
$DIMTOL
 70
     0
  9
$DIMLIM
 70
     0
  9
$DIMTIH
 70
     1
  9
$DIMTOH
 70
     1
  9
$DIMSE1
 70
     0
  9
$DIMSE2
 70
     0
  9
$DIMTAD
 70
     0
  9
$DIMZIN
 70
     0
  9
$DIMBLK
  1

  9
$DIMASO
 70
     1
  9
$DIMSHO
 70
     1
  9
$DIMPOST
  1

  9
$DIMAPOST
  1

  9
$DIMALT
 70
     0
  9
$DIMALTD
 70
     2
  9
$DIMALTF
 40
25.4
  9
$DIMLFAC
 40
1.0
  9
$DIMTOFL
 70
     0
  9
$DIMTVP
 40
0.0
  9
$DIMTIX
 70
     0
  9
$DIMSOXD
 70
     0
  9
$DIMSAH
 70
     0
  9
$DIMBLK1
  1

  9
$DIMBLK2
  1

  9
$DIMSTYLE
  2
Standard
  9
$DIMCLRD
 70
     0
  9
$DIMCLRE
 70
     0
  9
$DIMCLRT
 70
     0
  9
$DIMTFAC
 40
1.0
  9
$DIMGAP
 40
0.09
  9
$DIMJUST
 70
     0
  9
$DIMSD1
 70
     0
  9
$DIMSD2
 70
     0
  9
$DIMTOLJ
 70
     1
  9
$DIMTZIN
 70
     0
  9
$DIMALTZ
 70
     0
  9
$DIMALTTZ
 70
     0
  9
$DIMUPT
 70
     0
  9
$DIMDEC
 70
     4
  9
$DIMTDEC
 70
     4
  9
$DIMALTU
 70
     2
  9
$DIMALTTD
 70
     2
  9
$DIMTXSTY
  7
Standard
  9
$DIMAUNIT
 70
     0
  9
$DIMADEC
 70
     0
  9
$DIMALTRND
 40
0.0
  9
$DIMAZIN
 70
     0
  9
$DIMDSEP
 70
    46
  9
$DIMATFIT
 70
     3
  9
$DIMFRAC
 70
     0
  9
$DIMLDRBLK
  1

  9
$DIMLUNIT
 70
     2
  9
$DIMLWD
 70
    -2
  9
$DIMLWE
 70
    -2
  9
$DIMTMOVE
 70
     0
  9
$DIMFXL
 40
1.0
  9
$DIMFXLON
 70
     0
  9
$DIMJOGANG
 40
0.7853981633974483
  9
$DIMTFILL
 70
     0
  9
$DIMTFILLCLR
 70
     0
  9
$DIMARCSYM
 70
     0
  9
$DIMLTYPE
  6

  9
$DIMLTEX1
  6

  9
$DIMLTEX2
  6

  9
$LUNITS
 70
     2
  9
$LUPREC
 70
     4
  9
$SKETCHINC
 40
0.1
  9
$FILLETRAD
 40
0.5
  9
$AUNITS
 70
     0
  9
$AUPREC
 70
     0
  9
$MENU
  1
.
  9
$ELEVATION
 40
0.0
  9
$PELEVATION
 40
0.0
  9
$THICKNESS
 40
0.0
  9
$LIMCHECK
 70
     0
  9
$CHAMFERA
 40
0.5
  9
$CHAMFERB
 40
0.5
  9
$CHAMFERC
 40
1.0
  9
$CHAMFERD
 40
0.0
  9
$SKPOLY
 70
     0
  9
$TDCREATE
 40
2455005.755096979
  9
$TDUCREATE
 40
2455006.046763646
  9
$TDUPDATE
 40
2455005.755096991
  9
$TDUUPDATE
 40
2455006.046763658
  9
$TDINDWG
 40
0.0000000116
  9
$TDUSRTIMER
 40
0.0000000116
  9
$USRTIMER
 70
     1
  9
$ANGBASE
 50
0.0
  9
$ANGDIR
 70
     0
  9
$PDMODE
 70
     0
  9
$PDSIZE
 40
0.0
  9
$PLINEWID
 40
0.0
  9
$SPLFRAME
 70
     0
  9
$SPLINETYPE
 70
     6
  9
$SPLINESEGS
 70
     8
  9
$HANDSEED
  5
D6
  9
$SURFTAB1
 70
     6
  9
$SURFTAB2
 70
     6
  9
$SURFTYPE
 70
     6
  9
$SURFU
 70
     6
  9
$SURFV
 70
     6
  9
$UCSBASE
  2

  9
$UCSNAME
  2

  9
$UCSORG
 10
0.0
 20
0.0
 30
0.0
  9
$UCSXDIR
 10
1.0
 20
0.0
 30
0.0
  9
$UCSYDIR
 10
0.0
 20
1.0
 30
0.0
  9
$UCSORTHOREF
  2

  9
$UCSORTHOVIEW
 70
     0
  9
$UCSORGTOP
 10
0.0
 20
0.0
 30
0.0
  9
$UCSORGBOTTOM
 10
0.0
 20
0.0
 30
0.0
  9
$UCSORGLEFT
 10
0.0
 20
0.0
 30
0.0
  9
$UCSORGRIGHT
 10
0.0
 20
0.0
 30
0.0
  9
$UCSORGFRONT
 10
0.0
 20
0.0
 30
0.0
  9
$UCSORGBACK
 10
0.0
 20
0.0
 30
0.0
  9
$PUCSBASE
  2

  9
$PUCSNAME
  2

  9
$PUCSORG
 10
0.0
 20
0.0
 30
0.0
  9
$PUCSXDIR
 10
1.0
 20
0.0
 30
0.0
  9
$PUCSYDIR
 10
0.0
 20
1.0
 30
0.0
  9
$PUCSORTHOREF
  2

  9
$PUCSORTHOVIEW
 70
     0
  9
$PUCSORGTOP
 10
0.0
 20
0.0
 30
0.0
  9
$PUCSORGBOTTOM
 10
0.0
 20
0.0
 30
0.0
  9
$PUCSORGLEFT
 10
0.0
 20
0.0
 30
0.0
  9
$PUCSORGRIGHT
 10
0.0
 20
0.0
 30
0.0
  9
$PUCSORGFRONT
 10
0.0
 20
0.0
 30
0.0
  9
$PUCSORGBACK
 10
0.0
 20
0.0
 30
0.0
  9
$USERI1
 70
     0
  9
$USERI2
 70
     0
  9
$USERI3
 70
     0
  9
$USERI4
 70
     0
  9
$USERI5
 70
     0
  9
$USERR1
 40
0.0
  9
$USERR2
 40
0.0
  9
$USERR3
 40
0.0
  9
$USERR4
 40
0.0
  9
$USERR5
 40
0.0
  9
$WORLDVIEW
 70
     1
  9
$SHADEDGE
 70
     3
  9
$SHADEDIF
 70
    70
  9
$TILEMODE
 70
     1
  9
$MAXACTVP
 70
    64
  9
$PINSBASE
 10
0.0
 20
0.0
 30
0.0
  9
$PLIMCHECK
 70
     0
  9
$PEXTMIN
 10
1.000000000000000E+20
 20
1.000000000000000E+20
 30
1.000000000000000E+20
  9
$PEXTMAX
 10
-1.000000000000000E+20
 20
-1.000000000000000E+20
 30
-1.000000000000000E+20
  9
$PLIMMIN
 10
0.0
 20
0.0
  9
$PLIMMAX
 10
12.0
 20
9.0
  9
$UNITMODE
 70
     0
  9
$VISRETAIN
 70
     1
  9
$PLINEGEN
 70
     0
  9
$PSLTSCALE
 70
     1
  9
$TREEDEPTH
 70
  3020
  9
$CMLSTYLE
  2
Standard
  9
$CMLJUST
 70
     0
  9
$CMLSCALE
 40
1.0
  9
$PROXYGRAPHICS
 70
     1
  9
$MEASUREMENT
 70
     0
  9
$CELWEIGHT
370
    -1
  9
$ENDCAPS
280
     0
  9
$JOINSTYLE
280
     0
  9
$LWDISPLAY
290
     0
  9
$INSUNITS
 70
     1
  9
$HYPERLINKBASE
  1

  9
$STYLESHEET
  1

  9
$XEDIT
290
     1
  9
$CEPSNTYPE
380
     0
  9
$PSTYLEMODE
290
     1
  9
$FINGERPRINTGUID
  2
{54FA5CAF-0AAD-4E96-BC28-CC9F0F6FCD0D}
  9
$VERSIONGUID
  2
{FAEB1C32-E019-11D5-929B-00C0DF256EC4}
  9
$EXTNAMES
290
     1
  9
$PSVPSCALE
 40
0.0
  9
$OLESTARTUP
290
     0
  9
$SORTENTS
280
   127
  9
$INDEXCTL
280
     0
  9
$HIDETEXT
280
     1
  9
$XCLIPFRAME
290
     0
  9
$HALOGAP
280
     0
  9
$OBSCOLOR
 70
   257
  9
$OBSLTYPE
280
     0
  9
$INTERSECTIONDISPLAY
280
     0
  9
$INTERSECTIONCOLOR
 70
   257
  9
$DIMASSOC
280
     2
  9
$PROJECTNAME
  1

  9
$CAMERADISPLAY
290
     0
  9
$LENSLENGTH
 40
50.0
  9
$CAMERAHEIGHT
 40
0.0
  9
$STEPSPERSEC
 40
2.0
  9
$STEPSIZE
 40
6.0
  9
$3DDWFPREC
 40
2.0
  9
$PSOLWIDTH
 40
0.25
  9
$PSOLHEIGHT
 40
4.0
  9
$LOFTANG1
 40
1.570796326794897
  9
$LOFTANG2
 40
1.570796326794897
  9
$LOFTMAG1
 40
0.0
  9
$LOFTMAG2
 40
0.0
  9
$LOFTPARAM
 70
     7
  9
$LOFTNORMALS
280
     1
  9
$LATITUDE
 40
37.795
  9
$LONGITUDE
 40
-122.394
  9
$NORTHDIRECTION
 40
0.0
  9
$TIMEZONE
 70
 -8000
  9
$LIGHTGLYPHDISPLAY
280
     1
  9
$TILEMODELIGHTSYNCH
280
     1
  9
$SOLIDHIST
280
     1
  9
$SHOWHIST
280
     1
  9
$DWFFRAME
280
     2
  9
$DGNFRAME
280
     2
  9
$REALWORLDSCALE
290
     1
  9
$INTERFERECOLOR
 62
   256
  9
$CSHADOW
280
     0
  9
$SHADOWPLANELOCATION
 40
0.0
  0
ENDSEC
  0
SECTION
  2
CLASSES
  0
CLASS
  1
ACDBDICTIONARYWDFLT
  2
AcDbDictionaryWithDefault
  3
ObjectDBX Classes
 90
        0
 91
        3
280
     0
281
     0
  0
CLASS
  1
VISUALSTYLE
  2
AcDbVisualStyle
  3
ObjectDBX Classes
 90
     4095
 91
        3
280
     0
281
     0
  0
CLASS
  1
SCALE
  2
AcDbScale
  3
ObjectDBX Classes
 90
     1153
 91
        3
280
     0
281
     0
  0
ENDSEC
  0
SECTION
  2
TABLES
  0
TABLE
  2
VPORT
  5
8
330
0
100
AcDbSymbolTable
 70
     1
  0
VPORT
  5
29
330
8
100
AcDbSymbolTableRecord
100
AcDbViewportTableRecord
  2
*Active
 70
     0
 10
0.0
 20
0.0
 11
1.0
 21
1.0
 12
10.42990654205607
 22
4.5
 13
0.0
 23
0.0
 14
0.5
 24
0.5
 15
0.5
 25
0.5
 16
0.0
 26
0.0
 36
1.0
 17
0.0
 27
0.0
 37
0.0
 40
9.0
 41
1.972972972850329
 42
50.0
 43
0.0
 44
0.0
 50
0.0
 51
0.0
 71
     0
 72
   100
 73
     1
 74
     3
 75
     0
 76
     0
 77
     0
 78
     0
281
     0
 65
     1
110
0.0
120
0.0
130
0.0
111
1.0
121
0.0
131
0.0
112
0.0
122
1.0
132
0.0
 79
     0
146
0.0
 60
     3
 61
     5
292
     1
282
     1
141
0.0
142
0.0
 63
   256
  0
ENDTAB
  0
TABLE
  2
LTYPE
  5
5
330
0
100
AcDbSymbolTable
 70
     1
  0
LTYPE
  5
14
330
5
100
AcDbSymbolTableRecord
100
AcDbLinetypeTableRecord
  2
ByBlock
 70
     0
  3

 72
    65
 73
     0
 40
0.0
  0
LTYPE
  5
15
330
5
100
AcDbSymbolTableRecord
100
AcDbLinetypeTableRecord
  2
ByLayer
 70
     0
  3

 72
    65
 73
     0
 40
0.0
  0
LTYPE
  5
16
330
5
100
AcDbSymbolTableRecord
100
AcDbLinetypeTableRecord
  2
Continuous
 70
     0
  3
Solid line
 72
    65
 73
     0
 40
0.0
  0
ENDTAB
  0
TABLE
  2
LAYER
  5
2
330
0
100
AcDbSymbolTable
 70
     2
  0
LAYER
  5
10
330
2
100
AcDbSymbolTableRecord
100
AcDbLayerTableRecord
  2
0
 70
     0
 62
     7
  6
Continuous
370
    -3
390
F
347
0
  0
LAYER
  5
5E
330
2
100
AcDbSymbolTableRecord
100
AcDbLayerTableRecord
  2
Layer 1
 70
     0
 62
     7
  6
Continuous
370
    -3
390
F
347
0
  0
ENDTAB
  0
TABLE
  2
STYLE
  5
3
330
0
100
AcDbSymbolTable
 70
     1
  0
STYLE
  5
11
330
3
100
AcDbSymbolTableRecord
100
AcDbTextStyleTableRecord
  2
Standard
 70
     0
 40
0.0
 41
1.0
 50
0.0
 71
     0
 42
0.2
  3
txt
  4

  0
ENDTAB
  0
TABLE
  2
VIEW
  5
6
330
0
100
AcDbSymbolTable
 70
     0
  0
ENDTAB
  0
TABLE
  2
UCS
  5
7
330
0
100
AcDbSymbolTable
 70
     0
  0
ENDTAB
  0
TABLE
  2
APPID
  5
9
330
0
100
AcDbSymbolTable
 70
     2
  0
APPID
  5
12
330
9
100
AcDbSymbolTableRecord
100
AcDbRegAppTableRecord
  2
ACAD
 70
     0
  0
APPID
  5
5D
330
9
100
AcDbSymbolTableRecord
100
AcDbRegAppTableRecord
  2
ODA
 70
     0
  0
ENDTAB
  0
TABLE
  2
DIMSTYLE
  5
A
330
0
100
AcDbSymbolTable
 70
     1
100
AcDbDimStyleTable
  0
DIMSTYLE
105
27
330
A
100
AcDbSymbolTableRecord
100
AcDbDimStyleTableRecord
  2
Standard
 70
     0
340
11
  0
ENDTAB
  0
TABLE
  2
BLOCK_RECORD
  5
1
330
0
100
AcDbSymbolTable
 70
     1
  0
BLOCK_RECORD
  5
1F
330
1
100
AcDbSymbolTableRecord
100
AcDbBlockTableRecord
  2
*Model_Space
340
22
 70
     0
280
     1
281
     0
  0
BLOCK_RECORD
  5
1B
330
1
100
AcDbSymbolTableRecord
100
AcDbBlockTableRecord
  2
*Paper_Space
340
1E
 70
     0
280
     1
281
     0
  0
BLOCK_RECORD
  5
23
330
1
100
AcDbSymbolTableRecord
100
AcDbBlockTableRecord
  2
*Paper_Space0
340
26
 70
     0
280
     1
281
     0
  0
ENDTAB
  0
ENDSEC
  0
SECTION
  2
BLOCKS
  0
BLOCK
  5
20
330
1F
100
AcDbEntity
  8
0
100
AcDbBlockBegin
  2
*Model_Space
 70
     0
 10
0.0
 20
0.0
 30
0.0
  3
*Model_Space
  1

  0
ENDBLK
  5
21
330
1F
100
AcDbEntity
  8
0
100
AcDbBlockEnd
  0
BLOCK
  5
1C
330
1B
100
AcDbEntity
 67
     1
  8
0
100
AcDbBlockBegin
  2
*Paper_Space
 70
     0
 10
0.0
 20
0.0
 30
0.0
  3
*Paper_Space
  1

  0
ENDBLK
  5
1D
330
1B
100
AcDbEntity
 67
     1
  8
0
100
AcDbBlockEnd
  0
BLOCK
  5
24
330
23
100
AcDbEntity
  8
0
100
AcDbBlockBegin
  2
*Paper_Space0
 70
     0
 10
0.0
 20
0.0
 30
0.0
  3
*Paper_Space0
  1

  0
ENDBLK
  5
25
330
23
100
AcDbEntity
  8
0
100
AcDbBlockEnd
  0
ENDSEC
  0
SECTION
  2
ENTITIES
  0
SPLINE
  5
5F
330
1F
100
AcDbEntity
  8
Layer 1
 62
   250
370
     9
100
AcDbSpline
210
0.0
220
0.0
230
1.0
 70
    11
 71
     3
 72
    20
 73
    16
 74
     0
 42
0.0000000001
 43
0.0000000001
 40
0.0
 40
0.0
 40
0.0
 40
0.0
 40
0.25
 40
0.25
 40
0.25
 40
0.25
 40
0.5
 40
0.5
 40
0.5
 40
0.5
 40
0.75
 40
0.75
 40
0.75
 40
0.75
 40
1.0
 40
1.0
 40
1.0
 40
1.0
 10
-16.62245275590551
 20
11.16704724409449
 30
0.0
 10
-16.61757086614173
 20
11.16216535433071
 30
0.0
 10
-16.61757086614173
 20
11.15424803149606
 30
0.0
 10
-16.62245275590551
 20
11.14936614173228
 30
0.0
 10
-16.62245275590551
 20
11.14936614173228
 30
0.0
 10
-16.62733070866142
 20
11.14448818897638
 30
0.0
 10
-16.63524803149606
 20
11.14448818897638
 30
0.0
 10
-16.64012992125984
 20
11.14936614173228
 30
0.0
 10
-16.64012992125984
 20
11.14936614173228
 30
0.0
 10
-16.64501181102362
 20
11.15424803149606
 30
0.0
 10
-16.64501181102362
 20
11.16216535433071
 30
0.0
 10
-16.64012992125984
 20
11.16704724409449
 30
0.0
 10
-16.64012992125984
 20
11.16704724409449
 30
0.0
 10
-16.63524803149606
 20
11.17192519685039
 30
0.0
 10
-16.62733070866142
 20
11.17192519685039
 30
0.0
 10
-16.62245275590551
 20
11.16704724409449
 30
0.0
  0
ELLIPSE
  5
60
330
1F
100
AcDbEntity
  8
Layer 1
 62
   250
370
     9
100
AcDbEllipse
 10
-16.76962598425197
 20
11.04135039370079
 30
0.0
 11
0.0
 21
0.0125
 31
0.0
210
0.0
220
0.0
230
1.0
 40
1.0
 41
0.0
 42
6.283185307179586
  0
ELLIPSE
  5
61
330
1F
100
AcDbEntity
  8
Layer 1
 62
   250
370
     9
100
AcDbEllipse
 10
-16.64012204724409
 20
10.87516929133858
 30
0.0
 11
0.0
 21
0.0125
 31
0.0
210
0.0
220
0.0
230
1.0
 40
1.0
 41
0.0
 42
6.283185307179586
  0
ELLIPSE
  5
62
330
1F
100
AcDbEntity
  8
Layer 1
 62
   250
370
     9
100
AcDbEllipse
 10
-16.76962598425197
 20
10.97135039370079
 30
0.0
 11
0.0
 21
0.0125
 31
0.0
210
0.0
220
0.0
230
1.0
 40
1.0
 41
0.0
 42
6.283185307179586
  0
ELLIPSE
  5
63
330
1F
100
AcDbEntity
  8
Layer 1
 62
   250
370
     9
100
AcDbEllipse
 10
-16.76962598425197
 20
10.90135039370079
 30
0.0
 11
0.0
 21
0.0125
 31
0.0
210
0.0
220
0.0
230
1.0
 40
1.0
 41
0.0
 42
6.283185307179586
  0
SPLINE
  5
64
330
1F
100
AcDbEntity
  8
Layer 1
 62
   250
370
     9
100
AcDbSpline
210
0.0
220
0.0
230
1.0
 70
    11
 71
     3
 72
    20
 73
    16
 74
     0
 42
0.0000000001
 43
0.0000000001
 40
0.0
 40
0.0
 40
0.0
 40
0.0
 40
0.25
 40
0.25
 40
0.25
 40
0.25
 40
0.5
 40
0.5
 40
0.5
 40
0.5
 40
0.75
 40
0.75
 40
0.75
 40
0.75
 40
1.0
 40
1.0
 40
1.0
 40
1.0
 10
-17.02943700787402
 20
11.25029921259843
 30
0.0
 10
-17.02943700787402
 20
11.25720078740157
 30
0.0
 10
-17.02383858267716
 20
11.26279921259843
 30
0.0
 10
-17.01693700787402
 20
11.26279921259843
 30
0.0
 10
-17.01693700787402
 20
11.26279921259843
 30
0.0
 10
-17.01003543307086
 20
11.26279921259843
 30
0.0
 10
-17.00443700787402
 20
11.25720078740157
 30
0.0
 10
-17.00443700787402
 20
11.25029921259843
 30
0.0
 10
-17.00443700787402
 20
11.25029921259843
 30
0.0
 10
-17.00443700787402
 20
11.24339763779528
 30
0.0
 10
-17.01003543307086
 20
11.23779921259842
 30
0.0
 10
-17.01693700787402
 20
11.23779921259842
 30
0.0
 10
-17.01693700787402
 20
11.23779921259842
 30
0.0
 10
-17.02383858267716
 20
11.23779921259842
 30
0.0
 10
-17.02943700787402
 20
11.24339763779528
 30
0.0
 10
-17.02943700787402
 20
11.25029921259843
 30
0.0
  0
SPLINE
  5
65
330
1F
100
AcDbEntity
  8
Layer 1
 62
   250
370
     9
100
AcDbSpline
210
0.0
220
0.0
230
1.0
 70
    11
 71
     3
 72
    20
 73
    16
 74
     0
 42
0.0000000001
 43
0.0000000001
 40
0.0
 40
0.0
 40
0.0
 40
0.0
 40
0.25
 40
0.25
 40
0.25
 40
0.25
 40
0.5
 40
0.5
 40
0.5
 40
0.5
 40
0.75
 40
0.75
 40
0.75
 40
0.75
 40
1.0
 40
1.0
 40
1.0
 40
1.0
 10
-17.02943700787402
 20
11.11529921259842
 30
0.0
 10
-17.02943700787402
 20
11.12220078740157
 30
0.0
 10
-17.02383858267716
 20
11.12779921259843
 30
0.0
 10
-17.01693700787402
 20
11.12779921259843
 30
0.0
 10
-17.01693700787402
 20
11.12779921259843
 30
0.0
 10
-17.01003543307086
 20
11.12779921259843
 30
0.0
 10
-17.00443700787402
 20
11.12220078740157
 30
0.0
 10
-17.00443700787402
 20
11.11529921259842
 30
0.0
 10
-17.00443700787402
 20
11.11529921259842
 30
0.0
 10
-17.00443700787402
 20
11.10839763779528
 30
0.0
 10
-17.01003543307086
 20
11.10279921259843
 30
0.0
 10
-17.01693700787402
 20
11.10279921259843
 30
0.0
 10
-17.01693700787402
 20
11.10279921259843
 30
0.0
 10
-17.02383858267716
 20
11.10279921259843
 30
0.0
 10
-17.02943700787402
 20
11.10839763779528
 30
0.0
 10
-17.02943700787402
 20
11.11529921259842
 30
0.0
  0
ELLIPSE
  5
66
330
1F
100
AcDbEntity
  8
Layer 1
 62
   250
370
     9
100
AcDbEllipse
 10
-17.08599606299213
 20
10.93837401574803
 30
0.0
 11
0.0
 21
0.0125
 31
0.0
210
0.0
220
0.0
230
1.0
 40
1.0
 41
0.0
 42
6.283185307179586
  0
ELLIPSE
  5
67
330
1F
100
AcDbEntity
  8
Layer 1
 62
   250
370
     9
100
AcDbEllipse
 10
-17.22099606299212
 20
10.93837401574803
 30
0.0
 11
0.0
 21
0.0125
 31
0.0
210
0.0
220
0.0
230
1.0
 40
1.0
 41
0.0
 42
6.283185307179586
  0
ELLIPSE
  5
68
330
1F
100
AcDbEntity
  8
Layer 1
 62
   250
370
     9
100
AcDbEllipse
 10
-16.90462598425197
 20
10.79135039370079
 30
0.0
 11
0.0
 21
0.0125
 31
0.0
210
0.0
220
0.0
230
1.0
 40
1.0
 41
0.0
 42
6.283185307179586
  0
ELLIPSE
  5
69
330
1F
100
AcDbEntity
  8
Layer 1
 62
   250
370
     9
100
AcDbEllipse
 10
-17.06985433070866
 20
10.78585433070866
 30
0.0
 11
0.0
 21
0.0125
 31
0.0
210
0.0
220
0.0
230
1.0
 40
1.0
 41
0.0
 42
6.283185307179586
  0
SPLINE
  5
6A
330
1F
100
AcDbEntity
  8
Layer 1
 62
   250
370
     9
100
AcDbSpline
210
0.0
220
0.0
230
1.0
 70
    11
 71
     3
 72
    20
 73
    16
 74
     0
 42
0.0000000001
 43
0.0000000001
 40
0.0
 40
0.0
 40
0.0
 40
0.0
 40
0.25
 40
0.25
 40
0.25
 40
0.25
 40
0.5
 40
0.5
 40
0.5
 40
0.5
 40
0.75
 40
0.75
 40
0.75
 40
0.75
 40
1.0
 40
1.0
 40
1.0
 40
1.0
 10
-16.52653149606299
 20
10.60125196850394
 30
0.0
 10
-16.52164960629921
 20
10.60612992125984
 30
0.0
 10
-16.51373228346457
 20
10.60612992125984
 30
0.0
 10
-16.50885433070866
 20
10.60125196850394
 30
0.0
 10
-16.50885433070866
 20
10.60125196850394
 30
0.0
 10
-16.50397244094488
 20
10.59637007874016
 30
0.0
 10
-16.50397244094488
 20
10.58845275590551
 30
0.0
 10
-16.50885433070866
 20
10.58357480314961
 30
0.0
 10
-16.50885433070866
 20
10.58357480314961
 30
0.0
 10
-16.51373228346457
 20
10.57869291338583
 30
0.0
 10
-16.52164960629921
 20
10.57869291338583
 30
0.0
 10
-16.52653149606299
 20
10.58357480314961
 30
0.0
 10
-16.52653149606299
 20
10.58357480314961
 30
0.0
 10
-16.5314094488189
 20
10.58845275590551
 30
0.0
 10
-16.5314094488189
 20
10.59637007874016
 30
0.0
 10
-16.52653149606299
 20
10.60125196850394
 30
0.0
  0
ELLIPSE
  5
6B
330
1F
100
AcDbEntity
  8
Layer 1
 62
   250
370
     9
100
AcDbEllipse
 10
-16.77536220472441
 20
10.50229921259842
 30
0.0
 11
0.0
 21
0.0125
 31
0.0
210
0.0
220
0.0
230
1.0
 40
1.0
 41
0.0
 42
6.283185307179586
  0
ELLIPSE
  5
6C
330
1F
100
AcDbEntity
  8
Layer 1
 62
   250
370
     9
100
AcDbEllipse
 10
-16.77536220472441
 20
10.41229921259843
 30
0.0
 11
0.0
 21
0.0125
 31
0.0
210
0.0
220
0.0
230
1.0
 40
1.0
 41
0.0
 42
6.283185307179586
  0
ELLIPSE
  5
6D
330
1F
100
AcDbEntity
  8
Layer 1
 62
   250
370
     9
100
AcDbEllipse
 10
-16.91036220472441
 20
10.61229921259842
 30
0.0
 11
0.0
 21
0.0125
 31
0.0
210
0.0
220
0.0
230
1.0
 40
1.0
 41
0.0
 42
6.283185307179586
  0
ELLIPSE
  5
6E
330
1F
100
AcDbEntity
  8
Layer 1
 62
   250
370
     9
100
AcDbEllipse
 10
-17.04536220472441
 20
10.61229921259842
 30
0.0
 11
0.0
 21
0.0125
 31
0.0
210
0.0
220
0.0
230
1.0
 40
1.0
 41
0.0
 42
6.283185307179586
  0
ELLIPSE
  5
6F
330
1F
100
AcDbEntity
  8
Layer 1
 62
   250
370
     9
100
AcDbEllipse
 10
-16.69051968503937
 20
10.4068031496063
 30
0.0
 11
0.0
 21
0.0125
 31
0.0
210
0.0
220
0.0
230
1.0
 40
1.0
 41
0.0
 42
6.283185307179586
  0
ELLIPSE
  5
70
330
1F
100
AcDbEntity
  8
Layer 1
 62
   250
370
     9
100
AcDbEllipse
 10
-17.25507086614173
 20
10.78403543307087
 30
0.0
 11
0.0
 21
0.0125
 31
0.0
210
0.0
220
0.0
230
1.0
 40
1.0
 41
0.0
 42
6.283185307179586
  0
SPLINE
  5
71
330
1F
100
AcDbEntity
  8
Layer 1
 62
   250
370
     9
100
AcDbSpline
210
0.0
220
0.0
230
1.0
 70
    11
 71
     3
 72
    20
 73
    16
 74
     0
 42
0.0000000001
 43
0.0000000001
 40
0.0
 40
0.0
 40
0.0
 40
0.0
 40
0.25
 40
0.25
 40
0.25
 40
0.25
 40
0.5
 40
0.5
 40
0.5
 40
0.5
 40
0.75
 40
0.75
 40
0.75
 40
0.75
 40
1.0
 40
1.0
 40
1.0
 40
1.0
 10
-16.34722047244095
 20
10.89079527559055
 30
0.0
 10
-16.34233858267716
 20
10.88591338582677
 30
0.0
 10
-16.34233858267716
 20
10.87799606299213
 30
0.0
 10
-16.34722047244095
 20
10.87311811023622
 30
0.0
 10
-16.34722047244095
 20
10.87311811023622
 30
0.0
 10
-16.35210236220473
 20
10.86823622047244
 30
0.0
 10
-16.3600157480315
 20
10.86823622047244
 30
0.0
 10
-16.36489763779528
 20
10.87311811023622
 30
0.0
 10
-16.36489763779528
 20
10.87311811023622
 30
0.0
 10
-16.36977952755905
 20
10.87799606299213
 30
0.0
 10
-16.36977952755905
 20
10.88591338582677
 30
0.0
 10
-16.36489763779528
 20
10.89079527559055
 30
0.0
 10
-16.36489763779528
 20
10.89079527559055
 30
0.0
 10
-16.3600157480315
 20
10.89567716535433
 30
0.0
 10
-16.35210236220473
 20
10.89567716535433
 30
0.0
 10
-16.34722047244095
 20
10.89079527559055
 30
0.0
  0
SPLINE
  5
72
330
1F
100
AcDbEntity
  8
Layer 1
 62
   250
370
     9
100
AcDbSpline
210
0.0
220
0.0
230
1.0
 70
    11
 71
     3
 72
    20
 73
    16
 74
     0
 42
0.0000000001
 43
0.0000000001
 40
0.0
 40
0.0
 40
0.0
 40
0.0
 40
0.25
 40
0.25
 40
0.25
 40
0.25
 40
0.5
 40
0.5
 40
0.5
 40
0.5
 40
0.75
 40
0.75
 40
0.75
 40
0.75
 40
1.0
 40
1.0
 40
1.0
 40
1.0
 10
-16.26127165354331
 20
10.88747637795276
 30
0.0
 10
-16.25638976377953
 20
10.89235433070866
 30
0.0
 10
-16.24847637795276
 20
10.89235433070866
 30
0.0
 10
-16.24359448818898
 20
10.88747637795276
 30
0.0
 10
-16.24359448818898
 20
10.88747637795276
 30
0.0
 10
-16.2387125984252
 20
10.88259448818898
 30
0.0
 10
-16.2387125984252
 20
10.87467716535433
 30
0.0
 10
-16.24359448818898
 20
10.86979527559055
 30
0.0
 10
-16.24359448818898
 20
10.86979527559055
 30
0.0
 10
-16.24847637795276
 20
10.86491732283465
 30
0.0
 10
-16.25638976377953
 20
10.86491732283465
 30
0.0
 10
-16.26127165354331
 20
10.86979527559055
 30
0.0
 10
-16.26127165354331
 20
10.86979527559055
 30
0.0
 10
-16.26615354330709
 20
10.87467716535433
 30
0.0
 10
-16.26615354330709
 20
10.88259448818898
 30
0.0
 10
-16.26127165354331
 20
10.88747637795276
 30
0.0
  0
ELLIPSE
  5
73
330
1F
100
AcDbEntity
  8
Layer 1
 62
   250
370
     9
100
AcDbEllipse
 10
-16.25040551181102
 20
10.41157874015748
 30
0.0
 11
0.0
 21
0.0125
 31
0.0
210
0.0
220
0.0
230
1.0
 40
1.0
 41
0.0
 42
6.283185307179586
  0
SPLINE
  5
74
330
1F
100
AcDbEntity
  8
Layer 1
 62
   250
370
    18
100
AcDbSpline
210
0.0
220
0.0
230
1.0
 70
    24
 71
     3
 72
     8
 73
     4
 74
     0
 42
0.0000000001
 43
0.0000000001
 40
0.0
 40
0.0
 40
0.0
 40
0.0
 40
1.0
 40
1.0
 40
1.0
 40
1.0
 10
-16.6107874015748
 20
11.13003543307087
 30
0.0
 10
-16.6107874015748
 20
11.13003543307087
 30
0.0
 10
-16.39798818897638
 20
10.91723622047244
 30
0.0
 10
-16.39798818897638
 20
10.91723622047244
 30
0.0
  0
SPLINE
  5
75
330
1F
100
AcDbEntity
  8
Layer 1
 62
   250
370
    18
100
AcDbSpline
210
0.0
220
0.0
230
1.0
 70
    24
 71
     3
 72
     8
 73
     4
 74
     0
 42
0.0000000001
 43
0.0000000001
 40
0.0
 40
0.0
 40
0.0
 40
0.0
 40
1.0
 40
1.0
 40
1.0
 40
1.0
 10
-16.76703149606299
 20
11.12542125984252
 30
0.0
 10
-16.76703149606299
 20
11.12542125984252
 30
0.0
 10
-16.76703149606299
 20
10.83307480314961
 30
0.0
 10
-16.76703149606299
 20
10.83307480314961
 30
0.0
  0
SPLINE
  5
76
330
1F
100
AcDbEntity
  8
Layer 1
 62
   250
100
AcDbSpline
210
0.0
220
0.0
230
1.0
 70
    11
 71
     3
 72
    40
 73
    36
 74
     0
 42
0.0000000001
 43
0.0000000001
 40
0.0
 40
0.0
 40
0.0
 40
0.0
 40
0.1111111111111111
 40
0.1111111111111111
 40
0.1111111111111111
 40
0.1111111111111111
 40
0.2222222222222222
 40
0.2222222222222222
 40
0.2222222222222222
 40
0.2222222222222222
 40
0.3333333333333333
 40
0.3333333333333333
 40
0.3333333333333333
 40
0.3333333333333333
 40
0.4444444444444444
 40
0.4444444444444444
 40
0.4444444444444444
 40
0.4444444444444444
 40
0.5555555555555556
 40
0.5555555555555556
 40
0.5555555555555556
 40
0.5555555555555556
 40
0.6666666666666667
 40
0.6666666666666667
 40
0.6666666666666667
 40
0.6666666666666667
 40
0.7777777777777779
 40
0.7777777777777779
 40
0.7777777777777779
 40
0.7777777777777779
 40
0.8888888888888891
 40
0.8888888888888891
 40
0.8888888888888891
 40
0.8888888888888891
 40
1.0
 40
1.0
 40
1.0
 40
1.0
 10
-16.5345905511811
 20
11.09175984251969
 30
0.0
 10
-16.5345905511811
 20
11.09175984251969
 30
0.0
 10
-16.54149606299213
 20
11.09866929133858
 30
0.0
 10
-16.54149606299213
 20
11.09866929133858
 30
0.0
 10
-16.54149606299213
 20
11.09866929133858
 30
0.0
 10
-16.54149606299213
 20
11.09866929133858
 30
0.0
 10
-16.49749606299213
 20
11.14266535433071
 30
0.0
 10
-16.49749606299213
 20
11.14266535433071
 30
0.0
 10
-16.49749606299213
 20
11.14266535433071
 30
0.0
 10
-16.50073622047244
 20
11.14275984251969
 30
0.0
 10
-16.5045157480315
 20
11.14335433070866
 30
0.0
 10
-16.50879527559055
 20
11.14446456692913
 30
0.0
 10
-16.50879527559055
 20
11.14446456692913
 30
0.0
 10
-16.51307086614173
 20
11.14557480314961
 30
0.0
 10
-16.51668503937008
 20
11.14681496062992
 30
0.0
 10
-16.51962992125984
 20
11.14816929133858
 30
0.0
 10
-16.51962992125984
 20
11.14816929133858
 30
0.0
 10
-16.51962992125984
 20
11.14816929133858
 30
0.0
 10
-16.51296062992126
 20
11.15483464566929
 30
0.0
 10
-16.51296062992126
 20
11.15483464566929
 30
0.0
 10
-16.51296062992126
 20
11.15483464566929
 30
0.0
 10
-16.50727559055118
 20
11.15279921259843
 30
0.0
 10
-16.50170078740157
 20
11.15161417322835
 30
0.0
 10
-16.49622047244095
 20
11.15131496062992
 30
0.0
 10
-16.49622047244095
 20
11.15131496062992
 30
0.0
 10
-16.49075590551181
 20
11.151
 30
0.0
 10
-16.48620078740158
 20
11.15146456692913
 30
0.0
 10
-16.48257086614173
 20
11.15268503937008
 30
0.0
 10
-16.48257086614173
 20
11.15268503937008
 30
0.0
 10
-16.48257086614173
 20
11.15268503937008
 30
0.0
 10
-16.47812992125984
 20
11.14824409448819
 30
0.0
 10
-16.47812992125984
 20
11.14824409448819
 30
0.0
 10
-16.47812992125984
 20
11.14824409448819
 30
0.0
 10
-16.47812992125984
 20
11.14824409448819
 30
0.0
 10
-16.5345905511811
 20
11.09175984251969
 30
0.0
 10
-16.5345905511811
 20
11.09175984251969
 30
0.0
  0
SPLINE
  5
77
330
1F
100
AcDbEntity
  8
Layer 1
 62
   250
100
AcDbSpline
210
0.0
220
0.0
230
1.0
 70
    11
 71
     3
 72
    52
 73
    48
 74
     0
 42
0.0000000001
 43
0.0000000001
 40
0.0
 40
0.0
 40
0.0
 40
0.0
 40
0.0833333333333333
 40
0.0833333333333333
 40
0.0833333333333333
 40
0.0833333333333333
 40
0.1666666666666667
 40
0.1666666666666667
 40
0.1666666666666667
 40
0.1666666666666667
 40
0.25
 40
0.25
 40
0.25
 40
0.25
 40
0.3333333333333333
 40
0.3333333333333333
 40
0.3333333333333333
 40
0.3333333333333333
 40
0.4166666666666666
 40
0.4166666666666666
 40
0.4166666666666666
 40
0.4166666666666666
 40
0.4999999999999999
 40
0.4999999999999999
 40
0.4999999999999999
 40
0.4999999999999999
 40
0.5833333333333333
 40
0.5833333333333333
 40
0.5833333333333333
 40
0.5833333333333333
 40
0.6666666666666666
 40
0.6666666666666666
 40
0.6666666666666666
 40
0.6666666666666666
 40
0.75
 40
0.75
 40
0.75
 40
0.75
 40
0.8333333333333334
 40
0.8333333333333334
 40
0.8333333333333334
 40
0.8333333333333334
 40
0.9166666666666667
 40
0.9166666666666667
 40
0.9166666666666667
 40
0.9166666666666667
 40
1.0
 40
1.0
 40
1.0
 40
1.0
 10
-16.48916929133858
 20
11.10182283464567
 30
0.0
 10
-16.48251968503937
 20
11.10847244094488
 30
0.0
 10
-16.4764842519685
 20
11.11313779527559
 30
0.0
 10
-16.47105905511811
 20
11.11582283464567
 30
0.0
 10
-16.47105905511811
 20
11.11582283464567
 30
0.0
 10
-16.46563385826772
 20
11.11851181102362
 30
0.0
 10
-16.4604842519685
 20
11.11960236220472
 30
0.0
 10
-16.45557874015748
 20
11.11909842519685
 30
0.0
 10
-16.45557874015748
 20
11.11909842519685
 30
0.0
 10
-16.45068897637795
 20
11.11859842519685
 30
0.0
 10
-16.44619291338583
 20
11.11630708661417
 30
0.0
 10
-16.44209842519685
 20
11.11220866141732
 30
0.0
 10
-16.44209842519685
 20
11.11220866141732
 30
0.0
 10
-16.43907874015748
 20
11.10919291338583
 30
0.0
 10
-16.43703937007874
 20
11.10595275590551
 30
0.0
 10
-16.43596850393701
 20
11.10245275590551
 30
0.0
 10
-16.43596850393701
 20
11.10245275590551
 30
0.0
 10
-16.43491338582677
 20
11.09895275590551
 30
0.0
 10
-16.43477952755905
 20
11.09532283464567
 30
0.0
 10
-16.43559842519685
 20
11.09156299212598
 30
0.0
 10
-16.43559842519685
 20
11.09156299212598
 30
0.0
 10
-16.4363937007874
 20
11.0877874015748
 30
0.0
 10
-16.43802362204724
 20
11.08382283464567
 30
0.0
 10
-16.44046850393701
 20
11.07969291338583
 30
0.0
 10
-16.44046850393701
 20
11.07969291338583
 30
0.0
 10
-16.44291338582677
 20
11.07556692913386
 30
0.0
 10
-16.44691338582677
 20
11.0707125984252
 30
0.0
 10
-16.4524842519685
 20
11.06514173228346
 30
0.0
 10
-16.4524842519685
 20
11.06514173228346
 30
0.0
 10
-16.45909842519685
 20
11.05854330708661
 30
0.0
 10
-16.46509842519685
 20
11.05389763779528
 30
0.0
 10
-16.47050393700787
 20
11.05119291338583
 30
0.0
 10
-16.47050393700787
 20
11.05119291338583
 30
0.0
 10
-16.47591338582677
 20
11.04848818897638
 30
0.0
 10
-16.48107874015748
 20
11.04739763779528
 30
0.0
 10
-16.48598818897638
 20
11.04788188976378
 30
0.0
 10
-16.48598818897638
 20
11.04788188976378
 30
0.0
 10
-16.4908937007874
 20
11.04835826771654
 30
0.0
 10
-16.4954094488189
 20
11.05065748031496
 30
0.0
 10
-16.49952362204725
 20
11.05478346456693
 30
0.0
 10
-16.49952362204725
 20
11.05478346456693
 30
0.0
 10
-16.50494881889764
 20
11.06020866141732
 30
0.0
 10
-16.50725984251968
 20
11.06641338582677
 30
0.0
 10
-16.50646456692913
 20
11.07339763779528
 30
0.0
 10
-16.50646456692913
 20
11.07339763779528
 30
0.0
 10
-16.50550393700787
 20
11.08178346456693
 30
0.0
 10
-16.49972440944882
 20
11.09125196850394
 30
0.0
 10
-16.48916929133858
 20
11.10182283464567
 30
0.0
  0
SPLINE
  5
78
330
1F
100
AcDbEntity
  8
Layer 1
 62
   250
100
AcDbSpline
210
0.0
220
0.0
230
1.0
 70
    11
 71
     3
 72
    36
 73
    32
 74
     0
 42
0.0000000001
 43
0.0000000001
 40
0.0
 40
0.0
 40
0.0
 40
0.0
 40
0.125
 40
0.125
 40
0.125
 40
0.125
 40
0.25
 40
0.25
 40
0.25
 40
0.25
 40
0.375
 40
0.375
 40
0.375
 40
0.375
 40
0.5
 40
0.5
 40
0.5
 40
0.5
 40
0.625
 40
0.625
 40
0.625
 40
0.625
 40
0.75
 40
0.75
 40
0.75
 40
0.75
 40
0.875
 40
0.875
 40
0.875
 40
0.875
 40
1.0
 40
1.0
 40
1.0
 40
1.0
 10
-16.48207874015748
 20
11.09473228346457
 30
0.0
 10
-16.49129921259842
 20
11.08549212598425
 30
0.0
 10
-16.49637401574803
 20
11.07826771653543
 30
0.0
 10
-16.49726377952756
 20
11.07304724409449
 30
0.0
 10
-16.49726377952756
 20
11.07304724409449
 30
0.0
 10
-16.49815354330709
 20
11.06782283464567
 30
0.0
 10
-16.49702362204724
 20
11.06363779527559
 30
0.0
 10
-16.49385433070866
 20
11.06045275590551
 30
0.0
 10
-16.49385433070866
 20
11.06045275590551
 30
0.0
 10
-16.49067322834646
 20
11.0572874015748
 30
0.0
 10
-16.48648425196851
 20
11.05615748031496
 30
0.0
 10
-16.48124803149606
 20
11.05706299212599
 30
0.0
 10
-16.48124803149606
 20
11.05706299212599
 30
0.0
 10
-16.47602362204724
 20
11.05797244094488
 30
0.0
 10
-16.4688031496063
 20
11.06302755905512
 30
0.0
 10
-16.45959842519685
 20
11.07223228346457
 30
0.0
 10
-16.45959842519685
 20
11.07223228346457
 30
0.0
 10
-16.45033858267717
 20
11.08148818897638
 30
0.0
 10
-16.44526377952756
 20
11.08873228346457
 30
0.0
 10
-16.4443779527559
 20
11.09393307086614
 30
0.0
 10
-16.4443779527559
 20
11.09393307086614
 30
0.0
 10
-16.44350393700788
 20
11.09913779527559
 30
0.0
 10
-16.44467322834646
 20
11.10335826771654
 30
0.0
 10
-16.4478937007874
 20
11.10658267716535
 30
0.0
 10
-16.4478937007874
 20
11.10658267716535
 30
0.0
 10
-16.45105905511811
 20
11.10974803149606
 30
0.0
 10
-16.45492913385827
 20
11.11093700787402
 30
0.0
 10
-16.45952362204724
 20
11.11013779527559
 30
0.0
 10
-16.45952362204724
 20
11.11013779527559
 30
0.0
 10
-16.4653188976378
 20
11.10910236220472
 30
0.0
 10
-16.47283464566929
 20
11.10395275590551
 30
0.0
 10
-16.48207874015748
 20
11.09473228346457
 30
0.0
  0
SPLINE
  5
79
330
1F
100
AcDbEntity
  8
Layer 1
 62
   250
100
AcDbSpline
210
0.0
220
0.0
230
1.0
 70
    11
 71
     3
 72
    52
 73
    48
 74
     0
 42
0.0000000001
 43
0.0000000001
 40
0.0
 40
0.0
 40
0.0
 40
0.0
 40
0.0833333333333333
 40
0.0833333333333333
 40
0.0833333333333333
 40
0.0833333333333333
 40
0.1666666666666667
 40
0.1666666666666667
 40
0.1666666666666667
 40
0.1666666666666667
 40
0.25
 40
0.25
 40
0.25
 40
0.25
 40
0.3333333333333333
 40
0.3333333333333333
 40
0.3333333333333333
 40
0.3333333333333333
 40
0.4166666666666666
 40
0.4166666666666666
 40
0.4166666666666666
 40
0.4166666666666666
 40
0.4999999999999999
 40
0.4999999999999999
 40
0.4999999999999999
 40
0.4999999999999999
 40
0.5833333333333333
 40
0.5833333333333333
 40
0.5833333333333333
 40
0.5833333333333333
 40
0.6666666666666666
 40
0.6666666666666666
 40
0.6666666666666666
 40
0.6666666666666666
 40
0.75
 40
0.75
 40
0.75
 40
0.75
 40
0.8333333333333334
 40
0.8333333333333334
 40
0.8333333333333334
 40
0.8333333333333334
 40
0.9166666666666667
 40
0.9166666666666667
 40
0.9166666666666667
 40
0.9166666666666667
 40
1.0
 40
1.0
 40
1.0
 40
1.0
 10
-16.44547637795275
 20
11.05812992125984
 30
0.0
 10
-16.43882677165354
 20
11.06477952755906
 30
0.0
 10
-16.43279133858268
 20
11.06944488188976
 30
0.0
 10
-16.42736614173228
 20
11.07212992125984
 30
0.0
 10
-16.42736614173228
 20
11.07212992125984
 30
0.0
 10
-16.42194094488189
 20
11.0748188976378
 30
0.0
 10
-16.41679133858268
 20
11.0759094488189
 30
0.0
 10
-16.41188582677165
 20
11.07540551181102
 30
0.0
 10
-16.41188582677165
 20
11.07540551181102
 30
0.0
 10
-16.40699606299212
 20
11.07490551181102
 30
0.0
 10
-16.4025
 20
11.07261417322835
 30
0.0
 10
-16.39840551181102
 20
11.0685157480315
 30
0.0
 10
-16.39840551181102
 20
11.0685157480315
 30
0.0
 10
-16.39538582677165
 20
11.0655
 30
0.0
 10
-16.39334645669291
 20
11.06225984251969
 30
0.0
 10
-16.39227559055118
 20
11.05875984251968
 30
0.0
 10
-16.39227559055118
 20
11.05875984251968
 30
0.0
 10
-16.39122047244095
 20
11.05525984251969
 30
0.0
 10
-16.39108661417323
 20
11.05162992125984
 30
0.0
 10
-16.39190551181103
 20
11.04787007874016
 30
0.0
 10
-16.39190551181103
 20
11.04787007874016
 30
0.0
 10
-16.39270078740158
 20
11.04409448818898
 30
0.0
 10
-16.39433070866142
 20
11.04012992125984
 30
0.0
 10
-16.39677559055118
 20
11.036
 30
0.0
 10
-16.39677559055118
 20
11.036
 30
0.0
 10
-16.39922047244094
 20
11.03187401574803
 30
0.0
 10
-16.40322047244095
 20
11.02701968503937
 30
0.0
 10
-16.40879133858268
 20
11.02144881889764
 30
0.0
 10
-16.40879133858268
 20
11.02144881889764
 30
0.0
 10
-16.41540551181102
 20
11.01485039370079
 30
0.0
 10
-16.42140551181102
 20
11.01020472440945
 30
0.0
 10
-16.42681102362205
 20
11.0075
 30
0.0
 10
-16.42681102362205
 20
11.0075
 30
0.0
 10
-16.43222047244095
 20
11.00479527559055
 30
0.0
 10
-16.43738582677165
 20
11.00370472440945
 30
0.0
 10
-16.44229527559055
 20
11.00418897637795
 30
0.0
 10
-16.44229527559055
 20
11.00418897637795
 30
0.0
 10
-16.44720078740157
 20
11.00466535433071
 30
0.0
 10
-16.45171653543307
 20
11.00696456692913
 30
0.0
 10
-16.45583070866142
 20
11.0110905511811
 30
0.0
 10
-16.45583070866142
 20
11.0110905511811
 30
0.0
 10
-16.46125590551181
 20
11.0165157480315
 30
0.0
 10
-16.46356692913386
 20
11.02272047244094
 30
0.0
 10
-16.46277165354331
 20
11.02970472440945
 30
0.0
 10
-16.46277165354331
 20
11.02970472440945
 30
0.0
 10
-16.46181102362205
 20
11.0380905511811
 30
0.0
 10
-16.45603149606299
 20
11.04755905511811
 30
0.0
 10
-16.44547637795275
 20
11.05812992125984
 30
0.0
  0
SPLINE
  5
7A
330
1F
100
AcDbEntity
  8
Layer 1
 62
   250
100
AcDbSpline
210
0.0
220
0.0
230
1.0
 70
    11
 71
     3
 72
    36
 73
    32
 74
     0
 42
0.0000000001
 43
0.0000000001
 40
0.0
 40
0.0
 40
0.0
 40
0.0
 40
0.125
 40
0.125
 40
0.125
 40
0.125
 40
0.25
 40
0.25
 40
0.25
 40
0.25
 40
0.375
 40
0.375
 40
0.375
 40
0.375
 40
0.5
 40
0.5
 40
0.5
 40
0.5
 40
0.625
 40
0.625
 40
0.625
 40
0.625
 40
0.75
 40
0.75
 40
0.75
 40
0.75
 40
0.875
 40
0.875
 40
0.875
 40
0.875
 40
1.0
 40
1.0
 40
1.0
 40
1.0
 10
-16.43838582677165
 20
11.05103937007874
 30
0.0
 10
-16.4476062992126
 20
11.04179921259843
 30
0.0
 10
-16.45268110236221
 20
11.03457480314961
 30
0.0
 10
-16.45357086614173
 20
11.02935433070866
 30
0.0
 10
-16.45357086614173
 20
11.02935433070866
 30
0.0
 10
-16.45446062992126
 20
11.02412992125984
 30
0.0
 10
-16.45333070866142
 20
11.01994488188976
 30
0.0
 10
-16.45016141732284
 20
11.01675984251968
 30
0.0
 10
-16.45016141732284
 20
11.01675984251968
 30
0.0
 10
-16.44698031496063
 20
11.01359448818898
 30
0.0
 10
-16.44279133858268
 20
11.01246456692913
 30
0.0
 10
-16.43755511811024
 20
11.01337007874016
 30
0.0
 10
-16.43755511811024
 20
11.01337007874016
 30
0.0
 10
-16.43233070866142
 20
11.01427952755905
 30
0.0
 10
-16.42511023622047
 20
11.01933464566929
 30
0.0
 10
-16.41590551181102
 20
11.02853937007874
 30
0.0
 10
-16.41590551181102
 20
11.02853937007874
 30
0.0
 10
-16.40664566929134
 20
11.03779527559055
 30
0.0
 10
-16.40157086614173
 20
11.04503937007874
 30
0.0
 10
-16.40068503937008
 20
11.05024015748032
 30
0.0
 10
-16.40068503937008
 20
11.05024015748032
 30
0.0
 10
-16.39981102362205
 20
11.05544488188976
 30
0.0
 10
-16.40098031496063
 20
11.05966535433071
 30
0.0
 10
-16.40420078740157
 20
11.06288976377953
 30
0.0
 10
-16.40420078740157
 20
11.06288976377953
 30
0.0
 10
-16.40736614173228
 20
11.06605511811024
 30
0.0
 10
-16.41123622047244
 20
11.06724409448819
 30
0.0
 10
-16.41583070866142
 20
11.06644488188976
 30
0.0
 10
-16.41583070866142
 20
11.06644488188976
 30
0.0
 10
-16.42162598425197
 20
11.0654094488189
 30
0.0
 10
-16.42914173228347
 20
11.06025984251968
 30
0.0
 10
-16.43838582677165
 20
11.05103937007874
 30
0.0
  0
SPLINE
  5
7B
330
1F
100
AcDbEntity
  8
Layer 1
 62
   250
100
AcDbSpline
210
0.0
220
0.0
230
1.0
 70
    11
 71
     3
 72
    52
 73
    48
 74
     0
 42
0.0000000001
 43
0.0000000001
 40
0.0
 40
0.0
 40
0.0
 40
0.0
 40
0.0833333333333333
 40
0.0833333333333333
 40
0.0833333333333333
 40
0.0833333333333333
 40
0.1666666666666667
 40
0.1666666666666667
 40
0.1666666666666667
 40
0.1666666666666667
 40
0.25
 40
0.25
 40
0.25
 40
0.25
 40
0.3333333333333333
 40
0.3333333333333333
 40
0.3333333333333333
 40
0.3333333333333333
 40
0.4166666666666666
 40
0.4166666666666666
 40
0.4166666666666666
 40
0.4166666666666666
 40
0.4999999999999999
 40
0.4999999999999999
 40
0.4999999999999999
 40
0.4999999999999999
 40
0.5833333333333333
 40
0.5833333333333333
 40
0.5833333333333333
 40
0.5833333333333333
 40
0.6666666666666666
 40
0.6666666666666666
 40
0.6666666666666666
 40
0.6666666666666666
 40
0.75
 40
0.75
 40
0.75
 40
0.75
 40
0.8333333333333334
 40
0.8333333333333334
 40
0.8333333333333334
 40
0.8333333333333334
 40
0.9166666666666667
 40
0.9166666666666667
 40
0.9166666666666667
 40
0.9166666666666667
 40
1.0
 40
1.0
 40
1.0
 40
1.0
 10
-16.42701968503937
 20
10.98419291338583
 30
0.0
 10
-16.42701968503937
 20
10.98419291338583
 30
0.0
 10
-16.37077952755905
 20
11.04043307086614
 30
0.0
 10
-16.37077952755905
 20
11.04043307086614
 30
0.0
 10
-16.37077952755905
 20
11.04043307086614
 30
0.0
 10
-16.37077952755905
 20
11.04043307086614
 30
0.0
 10
-16.36333858267717
 20
11.03300393700787
 30
0.0
 10
-16.36333858267717
 20
11.03300393700787
 30
0.0
 10
-16.36333858267717
 20
11.03300393700787
 30
0.0
 10
-16.36333858267717
 20
11.03300393700787
 30
0.0
 10
-16.39122440944882
 20
11.00509842519685
 30
0.0
 10
-16.39122440944882
 20
11.00509842519685
 30
0.0
 10
-16.39122440944882
 20
11.00509842519685
 30
0.0
 10
-16.39122440944882
 20
11.00509842519685
 30
0.0
 10
-16.33541338582677
 20
11.00506299212598
 30
0.0
 10
-16.33541338582677
 20
11.00506299212598
 30
0.0
 10
-16.33541338582677
 20
11.00506299212598
 30
0.0
 10
-16.33541338582677
 20
11.00506299212598
 30
0.0
 10
-16.3253188976378
 20
10.99497244094488
 30
0.0
 10
-16.3253188976378
 20
10.99497244094488
 30
0.0
 10
-16.3253188976378
 20
10.99497244094488
 30
0.0
 10
-16.3253188976378
 20
10.99497244094488
 30
0.0
 10
-16.37170866141732
 20
10.9957874015748
 30
0.0
 10
-16.37170866141732
 20
10.9957874015748
 30
0.0
 10
-16.37170866141732
 20
10.9957874015748
 30
0.0
 10
-16.37170866141732
 20
10.9957874015748
 30
0.0
 10
-16.38052362204724
 20
10.93769291338583
 30
0.0
 10
-16.38052362204724
 20
10.93769291338583
 30
0.0
 10
-16.38052362204724
 20
10.93769291338583
 30
0.0
 10
-16.38052362204724
 20
10.93769291338583
 30
0.0
 10
-16.39035433070866
 20
10.94752755905512
 30
0.0
 10
-16.39035433070866
 20
10.94752755905512
 30
0.0
 10
-16.39035433070866
 20
10.94752755905512
 30
0.0
 10
-16.39035433070866
 20
10.94752755905512
 30
0.0
 10
-16.3819094488189
 20
10.99600787401575
 30
0.0
 10
-16.3819094488189
 20
10.99600787401575
 30
0.0
 10
-16.3819094488189
 20
10.99600787401575
 30
0.0
 10
-16.3819094488189
 20
10.99600787401575
 30
0.0
 10
-16.40009448818898
 20
10.99624803149606
 30
0.0
 10
-16.40009448818898
 20
10.99624803149606
 30
0.0
 10
-16.40009448818898
 20
10.99624803149606
 30
0.0
 10
-16.40009448818898
 20
10.99624803149606
 30
0.0
 10
-16.41957874015748
 20
10.97674803149606
 30
0.0
 10
-16.41957874015748
 20
10.97674803149606
 30
0.0
 10
-16.41957874015748
 20
10.97674803149606
 30
0.0
 10
-16.41957874015748
 20
10.97674803149606
 30
0.0
 10
-16.42701968503937
 20
10.98419291338583
 30
0.0
 10
-16.42701968503937
 20
10.98419291338583
 30
0.0
  0
SPLINE
  5
7C
330
1F
100
AcDbEntity
  8
Layer 1
 62
   250
100
AcDbSpline
210
0.0
220
0.0
230
1.0
 70
    11
 71
     3
 72
   124
 73
   120
 74
     0
 42
0.0000000001
 43
0.0000000001
 40
0.0
 40
0.0
 40
0.0
 40
0.0
 40
0.0333333333333333
 40
0.0333333333333333
 40
0.0333333333333333
 40
0.0333333333333333
 40
0.0666666666666667
 40
0.0666666666666667
 40
0.0666666666666667
 40
0.0666666666666667
 40
0.1
 40
0.1
 40
0.1
 40
0.1
 40
0.1333333333333333
 40
0.1333333333333333
 40
0.1333333333333333
 40
0.1333333333333333
 40
0.1666666666666667
 40
0.1666666666666667
 40
0.1666666666666667
 40
0.1666666666666667
 40
0.2
 40
0.2
 40
0.2
 40
0.2
 40
0.2333333333333333
 40
0.2333333333333333
 40
0.2333333333333333
 40
0.2333333333333333
 40
0.2666666666666667
 40
0.2666666666666667
 40
0.2666666666666667
 40
0.2666666666666667
 40
0.3
 40
0.3
 40
0.3
 40
0.3
 40
0.3333333333333333
 40
0.3333333333333333
 40
0.3333333333333333
 40
0.3333333333333333
 40
0.3666666666666666
 40
0.3666666666666666
 40
0.3666666666666666
 40
0.3666666666666666
 40
0.4
 40
0.4
 40
0.4
 40
0.4
 40
0.4333333333333333
 40
0.4333333333333333
 40
0.4333333333333333
 40
0.4333333333333333
 40
0.4666666666666666
 40
0.4666666666666666
 40
0.4666666666666666
 40
0.4666666666666666
 40
0.4999999999999999
 40
0.4999999999999999
 40
0.4999999999999999
 40
0.4999999999999999
 40
0.5333333333333333
 40
0.5333333333333333
 40
0.5333333333333333
 40
0.5333333333333333
 40
0.5666666666666667
 40
0.5666666666666667
 40
0.5666666666666667
 40
0.5666666666666667
 40
0.6
 40
0.6
 40
0.6
 40
0.6
 40
0.6333333333333333
 40
0.6333333333333333
 40
0.6333333333333333
 40
0.6333333333333333
 40
0.6666666666666666
 40
0.6666666666666666
 40
0.6666666666666666
 40
0.6666666666666666
 40
0.7
 40
0.7
 40
0.7
 40
0.7
 40
0.7333333333333333
 40
0.7333333333333333
 40
0.7333333333333333
 40
0.7333333333333333
 40
0.7666666666666666
 40
0.7666666666666666
 40
0.7666666666666666
 40
0.7666666666666666
 40
0.7999999999999999
 40
0.7999999999999999
 40
0.7999999999999999
 40
0.7999999999999999
 40
0.8333333333333333
 40
0.8333333333333333
 40
0.8333333333333333
 40
0.8333333333333333
 40
0.8666666666666666
 40
0.8666666666666666
 40
0.8666666666666666
 40
0.8666666666666666
 40
0.8999999999999999
 40
0.8999999999999999
 40
0.8999999999999999
 40
0.8999999999999999
 40
0.9333333333333332
 40
0.9333333333333332
 40
0.9333333333333332
 40
0.9333333333333332
 40
0.9666666666666666
 40
0.9666666666666666
 40
0.9666666666666666
 40
0.9666666666666666
 40
1.0
 40
1.0
 40
1.0
 40
1.0
 10
-16.85824015748031
 20
11.22753937007874
 30
0.0
 10
-16.85824015748031
 20
11.22753937007874
 30
0.0
 10
-16.84848031496063
 20
11.22883464566929
 30
0.0
 10
-16.84848031496063
 20
11.22883464566929
 30
0.0
 10
-16.84848031496063
 20
11.22883464566929
 30
0.0
 10
-16.84735039370079
 20
11.22329921259843
 30
0.0
 10
-16.84544094488189
 20
11.21931889763779
 30
0.0
 10
-16.84275590551181
 20
11.21687401574803
 30
0.0
 10
-16.84275590551181
 20
11.21687401574803
 30
0.0
 10
-16.84005511811024
 20
11.21442913385827
 30
0.0
 10
-16.83677559055118
 20
11.21320472440945
 30
0.0
 10
-16.83290551181102
 20
11.21320472440945
 30
0.0
 10
-16.83290551181102
 20
11.21320472440945
 30
0.0
 10
-16.82831496062992
 20
11.21320472440945
 30
0.0
 10
-16.8244251968504
 20
11.21479921259843
 30
0.0
 10
-16.82125590551181
 20
11.2179842519685
 30
0.0
 10
-16.82125590551181
 20
11.2179842519685
 30
0.0
 10
-16.81811023622047
 20
11.22116929133858
 30
0.0
 10
-16.8165157480315
 20
11.22511417322835
 30
0.0
 10
-16.8165157480315
 20
11.2298188976378
 30
0.0
 10
-16.8165157480315
 20
11.2298188976378
 30
0.0
 10
-16.8165157480315
 20
11.23429921259843
 30
0.0
 10
-16.81798031496063
 20
11.23800393700787
 30
0.0
 10
-16.82090551181102
 20
11.2409094488189
 30
0.0
 10
-16.82090551181102
 20
11.2409094488189
 30
0.0
 10
-16.82385039370079
 20
11.24381496062992
 30
0.0
 10
-16.82757086614173
 20
11.24527952755905
 30
0.0
 10
-16.8320905511811
 20
11.24527952755905
 30
0.0
 10
-16.8320905511811
 20
11.24527952755905
 30
0.0
 10
-16.83394094488189
 20
11.24527952755905
 30
0.0
 10
-16.83624015748032
 20
11.2449094488189
 30
0.0
 10
-16.83898031496063
 20
11.24418897637795
 30
0.0
 10
-16.83898031496063
 20
11.24418897637795
 30
0.0
 10
-16.83898031496063
 20
11.24418897637795
 30
0.0
 10
-16.83788582677165
 20
11.25275984251969
 30
0.0
 10
-16.83788582677165
 20
11.25275984251969
 30
0.0
 10
-16.83788582677165
 20
11.25275984251969
 30
0.0
 10
-16.83724015748032
 20
11.25268897637795
 30
0.0
 10
-16.83672047244094
 20
11.25264960629921
 30
0.0
 10
-16.83631496062992
 20
11.25264960629921
 30
0.0
 10
-16.83631496062992
 20
11.25264960629921
 30
0.0
 10
-16.83216535433071
 20
11.25264960629921
 30
0.0
 10
-16.82842519685039
 20
11.25374409448819
 30
0.0
 10
-16.8250905511811
 20
11.2559094488189
 30
0.0
 10
-16.8250905511811
 20
11.2559094488189
 30
0.0
 10
-16.82175590551181
 20
11.25807480314961
 30
0.0
 10
-16.8200905511811
 20
11.26142913385827
 30
0.0
 10
-16.8200905511811
 20
11.26594488188976
 30
0.0
 10
-16.8200905511811
 20
11.26594488188976
 30
0.0
 10
-16.8200905511811
 20
11.26951968503937
 30
0.0
 10
-16.82131496062992
 20
11.2725
 30
0.0
 10
-16.82374015748032
 20
11.27483464566929
 30
0.0
 10
-16.82374015748032
 20
11.27483464566929
 30
0.0
 10
-16.82616535433071
 20
11.27718503937008
 30
0.0
 10
-16.82929527559055
 20
11.27837401574803
 30
0.0
 10
-16.83312992125984
 20
11.27837401574803
 30
0.0
 10
-16.83312992125984
 20
11.27837401574803
 30
0.0
 10
-16.83692519685039
 20
11.27837401574803
 30
0.0
 10
-16.8400905511811
 20
11.27716929133858
 30
0.0
 10
-16.84261023622047
 20
11.27479921259843
 30
0.0
 10
-16.84261023622047
 20
11.27479921259843
 30
0.0
 10
-16.84514566929134
 20
11.2724094488189
 30
0.0
 10
-16.84677559055118
 20
11.26881496062992
 30
0.0
 10
-16.8475
 20
11.26403937007874
 30
0.0
 10
-16.8475
 20
11.26403937007874
 30
0.0
 10
-16.8475
 20
11.26403937007874
 30
0.0
 10
-16.85725590551181
 20
11.26577952755905
 30
0.0
 10
-16.85725590551181
 20
11.26577952755905
 30
0.0
 10
-16.85725590551181
 20
11.26577952755905
 30
0.0
 10
-16.85607086614173
 20
11.27233464566929
 30
0.0
 10
-16.85335039370079
 20
11.2774094488189
 30
0.0
 10
-16.84912598425197
 20
11.281
 30
0.0
 10
-16.84912598425197
 20
11.281
 30
0.0
 10
-16.84488582677166
 20
11.28459448818898
 30
0.0
 10
-16.83962598425197
 20
11.2864094488189
 30
0.0
 10
-16.83333070866142
 20
11.2864094488189
 30
0.0
 10
-16.83333070866142
 20
11.2864094488189
 30
0.0
 10
-16.829
 20
11.2864094488189
 30
0.0
 10
-16.825
 20
11.28546456692913
 30
0.0
 10
-16.82135039370079
 20
11.28361417322835
 30
0.0
 10
-16.82135039370079
 20
11.28361417322835
 30
0.0
 10
-16.81770078740157
 20
11.28174409448819
 30
0.0
 10
-16.81490551181102
 20
11.27920472440945
 30
0.0
 10
-16.81296062992126
 20
11.2759842519685
 30
0.0
 10
-16.81296062992126
 20
11.2759842519685
 30
0.0
 10
-16.81103543307087
 20
11.27275984251968
 30
0.0
 10
-16.81005511811023
 20
11.26935433070866
 30
0.0
 10
-16.81005511811023
 20
11.26572440944882
 30
0.0
 10
-16.81005511811023
 20
11.26572440944882
 30
0.0
 10
-16.81005511811023
 20
11.26229921259842
 30
0.0
 10
-16.81098031496063
 20
11.25916929133858
 30
0.0
 10
-16.81283070866142
 20
11.25633464566929
 30
0.0
 10
-16.81283070866142
 20
11.25633464566929
 30
0.0
 10
-16.81468503937008
 20
11.25351968503937
 30
0.0
 10
-16.81740551181102
 20
11.25127952755905
 30
0.0
 10
-16.8210157480315
 20
11.24961417322835
 30
0.0
 10
-16.8210157480315
 20
11.24961417322835
 30
0.0
 10
-16.81631496062992
 20
11.24853937007874
 30
0.0
 10
-16.81266535433071
 20
11.24627952755906
 30
0.0
 10
-16.81005511811023
 20
11.24285433070866
 30
0.0
 10
-16.81005511811023
 20
11.24285433070866
 30
0.0
 10
-16.80746062992126
 20
11.23944488188976
 30
0.0
 10
-16.80616535433071
 20
11.23516929133858
 30
0.0
 10
-16.80616535433071
 20
11.23003937007874
 30
0.0
 10
-16.80616535433071
 20
11.23003937007874
 30
0.0
 10
-16.80616535433071
 20
11.22309448818898
 30
0.0
 10
-16.80868503937008
 20
11.21720472440945
 30
0.0
 10
-16.81375590551181
 20
11.21237401574803
 30
0.0
 10
-16.81375590551181
 20
11.21237401574803
 30
0.0
 10
-16.81881496062992
 20
11.20753937007874
 30
0.0
 10
-16.82522047244095
 20
11.20513385826772
 30
0.0
 10
-16.83296062992126
 20
11.20513385826772
 30
0.0
 10
-16.83296062992126
 20
11.20513385826772
 30
0.0
 10
-16.83994094488189
 20
11.20513385826772
 30
0.0
 10
-16.84574015748031
 20
11.20720472440945
 30
0.0
 10
-16.85035039370079
 20
11.21137401574803
 30
0.0
 10
-16.85035039370079
 20
11.21137401574803
 30
0.0
 10
-16.85496062992126
 20
11.21551968503937
 30
0.0
 10
-16.8575905511811
 20
11.2209094488189
 30
0.0
 10
-16.85824015748031
 20
11.22753937007874
 30
0.0
  0
SPLINE
  5
7D
330
1F
100
AcDbEntity
  8
Layer 1
 62
   250
100
AcDbSpline
210
0.0
220
0.0
230
1.0
 70
    11
 71
     3
 72
    92
 73
    88
 74
     0
 42
0.0000000001
 43
0.0000000001
 40
0.0
 40
0.0
 40
0.0
 40
0.0
 40
0.0454545454545455
 40
0.0454545454545455
 40
0.0454545454545455
 40
0.0454545454545455
 40
0.0909090909090909
 40
0.0909090909090909
 40
0.0909090909090909
 40
0.0909090909090909
 40
0.1363636363636364
 40
0.1363636363636364
 40
0.1363636363636364
 40
0.1363636363636364
 40
0.1818181818181818
 40
0.1818181818181818
 40
0.1818181818181818
 40
0.1818181818181818
 40
0.2272727272727273
 40
0.2272727272727273
 40
0.2272727272727273
 40
0.2272727272727273
 40
0.2727272727272728
 40
0.2727272727272728
 40
0.2727272727272728
 40
0.2727272727272728
 40
0.3181818181818182
 40
0.3181818181818182
 40
0.3181818181818182
 40
0.3181818181818182
 40
0.3636363636363637
 40
0.3636363636363637
 40
0.3636363636363637
 40
0.3636363636363637
 40
0.4090909090909092
 40
0.4090909090909092
 40
0.4090909090909092
 40
0.4090909090909092
 40
0.4545454545454546
 40
0.4545454545454546
 40
0.4545454545454546
 40
0.4545454545454546
 40
0.5000000000000001
 40
0.5000000000000001
 40
0.5000000000000001
 40
0.5000000000000001
 40
0.5454545454545455
 40
0.5454545454545455
 40
0.5454545454545455
 40
0.5454545454545455
 40
0.5909090909090909
 40
0.5909090909090909
 40
0.5909090909090909
 40
0.5909090909090909
 40
0.6363636363636364
 40
0.6363636363636364
 40
0.6363636363636364
 40
0.6363636363636364
 40
0.6818181818181818
 40
0.6818181818181818
 40
0.6818181818181818
 40
0.6818181818181818
 40
0.7272727272727272
 40
0.7272727272727272
 40
0.7272727272727272
 40
0.7272727272727272
 40
0.7727272727272726
 40
0.7727272727272726
 40
0.7727272727272726
 40
0.7727272727272726
 40
0.818181818181818
 40
0.818181818181818
 40
0.818181818181818
 40
0.818181818181818
 40
0.8636363636363634
 40
0.8636363636363634
 40
0.8636363636363634
 40
0.8636363636363634
 40
0.9090909090909088
 40
0.9090909090909088
 40
0.9090909090909088
 40
0.9090909090909088
 40
0.9545454545454543
 40
0.9545454545454543
 40
0.9545454545454543
 40
0.9545454545454543
 40
1.0
 40
1.0
 40
1.0
 40
1.0
 10
-16.79503543307086
 20
11.22492913385827
 30
0.0
 10
-16.79503543307086
 20
11.22492913385827
 30
0.0
 10
-16.78564566929134
 20
11.22579921259842
 30
0.0
 10
-16.78564566929134
 20
11.22579921259842
 30
0.0
 10
-16.78564566929134
 20
11.22579921259842
 30
0.0
 10
-16.78485039370079
 20
11.22138976377953
 30
0.0
 10
-16.78333070866142
 20
11.21818897637795
 30
0.0
 10
-16.7810905511811
 20
11.21618897637795
 30
0.0
 10
-16.7810905511811
 20
11.21618897637795
 30
0.0
 10
-16.77885039370079
 20
11.21420472440945
 30
0.0
 10
-16.77598031496063
 20
11.21320472440945
 30
0.0
 10
-16.77246062992126
 20
11.21320472440945
 30
0.0
 10
-16.77246062992126
 20
11.21320472440945
 30
0.0
 10
-16.76946062992126
 20
11.21320472440945
 30
0.0
 10
-16.76683464566929
 20
11.21388976377953
 30
0.0
 10
-16.76457480314961
 20
11.21527952755905
 30
0.0
 10
-16.76457480314961
 20
11.21527952755905
 30
0.0
 10
-16.76231496062992
 20
11.21664960629921
 30
0.0
 10
-16.76046062992126
 20
11.2184842519685
 30
0.0
 10
-16.75901968503937
 20
11.22077952755905
 30
0.0
 10
-16.75901968503937
 20
11.22077952755905
 30
0.0
 10
-16.75755511811024
 20
11.22307480314961
 30
0.0
 10
-16.75635039370079
 20
11.22618897637795
 30
0.0
 10
-16.75537007874016
 20
11.23007480314961
 30
0.0
 10
-16.75537007874016
 20
11.23007480314961
 30
0.0
 10
-16.75440551181102
 20
11.2339842519685
 30
0.0
 10
-16.75390551181102
 20
11.23796456692913
 30
0.0
 10
-16.75390551181102
 20
11.24201968503937
 30
0.0
 10
-16.75390551181102
 20
11.24201968503937
 30
0.0
 10
-16.75390551181102
 20
11.24244488188976
 30
0.0
 10
-16.75392519685039
 20
11.24311417322835
 30
0.0
 10
-16.75396062992126
 20
11.24396456692913
 30
0.0
 10
-16.75396062992126
 20
11.24396456692913
 30
0.0
 10
-16.7559251968504
 20
11.24087401574803
 30
0.0
 10
-16.7585905511811
 20
11.23833464566929
 30
0.0
 10
-16.76196062992126
 20
11.2364094488189
 30
0.0
 10
-16.76196062992126
 20
11.2364094488189
 30
0.0
 10
-16.76535039370079
 20
11.23446456692913
 30
0.0
 10
-16.76901968503937
 20
11.23350393700787
 30
0.0
 10
-16.77294488188976
 20
11.23350393700787
 30
0.0
 10
-16.77294488188976
 20
11.23350393700787
 30
0.0
 10
-16.77953543307087
 20
11.23350393700787
 30
0.0
 10
-16.78511023622047
 20
11.23588976377953
 30
0.0
 10
-16.78966535433071
 20
11.24066929133858
 30
0.0
 10
-16.78966535433071
 20
11.24066929133858
 30
0.0
 10
-16.79422047244094
 20
11.24544488188976
 30
0.0
 10
-16.7965
 20
11.25172440944882
 30
0.0
 10
-16.7965
 20
11.25953937007874
 30
0.0
 10
-16.7965
 20
11.25953937007874
 30
0.0
 10
-16.7965
 20
11.26761417322835
 30
0.0
 10
-16.79412992125984
 20
11.27409448818898
 30
0.0
 10
-16.78937007874016
 20
11.27901968503937
 30
0.0
 10
-16.78937007874016
 20
11.27901968503937
 30
0.0
 10
-16.78461023622047
 20
11.28394488188976
 30
0.0
 10
-16.77864566929134
 20
11.2864094488189
 30
0.0
 10
-16.77148031496063
 20
11.2864094488189
 30
0.0
 10
-16.77148031496063
 20
11.2864094488189
 30
0.0
 10
-16.76631496062992
 20
11.2864094488189
 30
0.0
 10
-16.7615905511811
 20
11.285
 30
0.0
 10
-16.75729527559055
 20
11.28222440944882
 30
0.0
 10
-16.75729527559055
 20
11.28222440944882
 30
0.0
 10
-16.75301968503937
 20
11.27944488188976
 30
0.0
 10
-16.74975984251968
 20
11.27546456692913
 30
0.0
 10
-16.74753543307087
 20
11.27031496062992
 30
0.0
 10
-16.74753543307087
 20
11.27031496062992
 30
0.0
 10
-16.74531496062992
 20
11.26516929133858
 30
0.0
 10
-16.74420472440945
 20
11.25770472440945
 30
0.0
 10
-16.74420472440945
 20
11.24792913385827
 30
0.0
 10
-16.74420472440945
 20
11.24792913385827
 30
0.0
 10
-16.74420472440945
 20
11.23777952755906
 30
0.0
 10
-16.74529527559055
 20
11.22968897637795
 30
0.0
 10
-16.7475
 20
11.22364960629921
 30
0.0
 10
-16.7475
 20
11.22364960629921
 30
0.0
 10
-16.74972047244094
 20
11.21762992125984
 30
0.0
 10
-16.753
 20
11.21305905511811
 30
0.0
 10
-16.75735039370079
 20
11.2099094488189
 30
0.0
 10
-16.75735039370079
 20
11.2099094488189
 30
0.0
 10
-16.76172047244095
 20
11.20675984251968
 30
0.0
 10
-16.76681496062992
 20
11.20518897637795
 30
0.0
 10
-16.77268503937008
 20
11.20518897637795
 30
0.0
 10
-16.77268503937008
 20
11.20518897637795
 30
0.0
 10
-16.77890551181102
 20
11.20518897637795
 30
0.0
 10
-16.78398031496063
 20
11.2069094488189
 30
0.0
 10
-16.7879251968504
 20
11.21037401574803
 30
0.0
 10
-16.7879251968504
 20
11.21037401574803
 30
0.0
 10
-16.79187007874016
 20
11.2138188976378
 30
0.0
 10
-16.79424015748031
 20
11.21866929133858
 30
0.0
 10
-16.79503543307086
 20
11.22492913385827
 30
0.0
  0
SPLINE
  5
7E
330
1F
100
AcDbEntity
  8
Layer 1
 62
   250
100
AcDbSpline
210
0.0
220
0.0
230
1.0
 70
    11
 71
     3
 72
    36
 73
    32
 74
     0
 42
0.0000000001
 43
0.0000000001
 40
0.0
 40
0.0
 40
0.0
 40
0.0
 40
0.125
 40
0.125
 40
0.125
 40
0.125
 40
0.25
 40
0.25
 40
0.25
 40
0.25
 40
0.375
 40
0.375
 40
0.375
 40
0.375
 40
0.5
 40
0.5
 40
0.5
 40
0.5
 40
0.625
 40
0.625
 40
0.625
 40
0.625
 40
0.75
 40
0.75
 40
0.75
 40
0.75
 40
0.875
 40
0.875
 40
0.875
 40
0.875
 40
1.0
 40
1.0
 40
1.0
 40
1.0
 10
-16.75505511811023
 20
11.26003937007874
 30
0.0
 10
-16.75505511811023
 20
11.26562992125984
 30
0.0
 10
-16.75653543307087
 20
11.27009448818898
 30
0.0
 10
-16.75951968503937
 20
11.27337401574803
 30
0.0
 10
-16.75951968503937
 20
11.27337401574803
 30
0.0
 10
-16.76251968503937
 20
11.27666929133858
 30
0.0
 10
-16.7660905511811
 20
11.27831496062992
 30
0.0
 10
-16.77029527559055
 20
11.27831496062992
 30
0.0
 10
-16.77029527559055
 20
11.27831496062992
 30
0.0
 10
-16.77462992125984
 20
11.27831496062992
 30
0.0
 10
-16.77840551181102
 20
11.27653937007874
 30
0.0
 10
-16.78162992125984
 20
11.273
 30
0.0
 10
-16.78162992125984
 20
11.273
 30
0.0
 10
-16.78485039370079
 20
11.26944488188976
 30
0.0
 10
-16.78646062992126
 20
11.26485433070866
 30
0.0
 10
-16.78646062992126
 20
11.25922440944882
 30
0.0
 10
-16.78646062992126
 20
11.25922440944882
 30
0.0
 10
-16.78646062992126
 20
11.25414960629921
 30
0.0
 10
-16.78492519685039
 20
11.25003937007874
 30
0.0
 10
-16.78187007874016
 20
11.24687401574803
 30
0.0
 10
-16.78187007874016
 20
11.24687401574803
 30
0.0
 10
-16.77881496062992
 20
11.24370472440945
 30
0.0
 10
-16.77505511811023
 20
11.24212992125984
 30
0.0
 10
-16.77057480314961
 20
11.24212992125984
 30
0.0
 10
-16.77057480314961
 20
11.24212992125984
 30
0.0
 10
-16.76603543307086
 20
11.24212992125984
 30
0.0
 10
-16.76233464566929
 20
11.24370472440945
 30
0.0
 10
-16.75942519685039
 20
11.24687401574803
 30
0.0
 10
-16.75942519685039
 20
11.24687401574803
 30
0.0
 10
-16.7565
 20
11.25003937007874
 30
0.0
 10
-16.75505511811023
 20
11.25442913385827
 30
0.0
 10
-16.75505511811023
 20
11.26003937007874
 30
0.0
  0
SPLINE
  5
7F
330
1F
100
AcDbEntity
  8
Layer 1
 62
   250
100
AcDbSpline
210
0.0
220
0.0
230
1.0
 70
    11
 71
     3
 72
    52
 73
    48
 74
     0
 42
0.0000000001
 43
0.0000000001
 40
0.0
 40
0.0
 40
0.0
 40
0.0
 40
0.0833333333333333
 40
0.0833333333333333
 40
0.0833333333333333
 40
0.0833333333333333
 40
0.1666666666666667
 40
0.1666666666666667
 40
0.1666666666666667
 40
0.1666666666666667
 40
0.25
 40
0.25
 40
0.25
 40
0.25
 40
0.3333333333333333
 40
0.3333333333333333
 40
0.3333333333333333
 40
0.3333333333333333
 40
0.4166666666666666
 40
0.4166666666666666
 40
0.4166666666666666
 40
0.4166666666666666
 40
0.4999999999999999
 40
0.4999999999999999
 40
0.4999999999999999
 40
0.4999999999999999
 40
0.5833333333333333
 40
0.5833333333333333
 40
0.5833333333333333
 40
0.5833333333333333
 40
0.6666666666666666
 40
0.6666666666666666
 40
0.6666666666666666
 40
0.6666666666666666
 40
0.75
 40
0.75
 40
0.75
 40
0.75
 40
0.8333333333333334
 40
0.8333333333333334
 40
0.8333333333333334
 40
0.8333333333333334
 40
0.9166666666666667
 40
0.9166666666666667
 40
0.9166666666666667
 40
0.9166666666666667
 40
1.0
 40
1.0
 40
1.0
 40
1.0
 10
-16.73470472440945
 20
11.24575984251969
 30
0.0
 10
-16.73470472440945
 20
11.25516929133858
 30
0.0
 10
-16.73374015748032
 20
11.26274409448819
 30
0.0
 10
-16.73179527559055
 20
11.26846456692913
 30
0.0
 10
-16.73179527559055
 20
11.26846456692913
 30
0.0
 10
-16.72987007874016
 20
11.27420472440945
 30
0.0
 10
-16.72698031496063
 20
11.27862992125984
 30
0.0
 10
-16.72316535433071
 20
11.28174409448819
 30
0.0
 10
-16.72316535433071
 20
11.28174409448819
 30
0.0
 10
-16.71935039370079
 20
11.28485433070866
 30
0.0
 10
-16.71455511811024
 20
11.2864094488189
 30
0.0
 10
-16.70877952755906
 20
11.2864094488189
 30
0.0
 10
-16.70877952755906
 20
11.2864094488189
 30
0.0
 10
-16.7045
 20
11.2864094488189
 30
0.0
 10
-16.70075984251968
 20
11.28553937007874
 30
0.0
 10
-16.69753937007874
 20
11.28381496062992
 30
0.0
 10
-16.69753937007874
 20
11.28381496062992
 30
0.0
 10
-16.69431496062992
 20
11.28211417322835
 30
0.0
 10
-16.69166535433071
 20
11.27962992125984
 30
0.0
 10
-16.68955511811023
 20
11.27638976377953
 30
0.0
 10
-16.68955511811023
 20
11.27638976377953
 30
0.0
 10
-16.68746456692913
 20
11.27314960629921
 30
0.0
 10
-16.68581496062992
 20
11.26920472440945
 30
0.0
 10
-16.68462992125984
 20
11.26455905511811
 30
0.0
 10
-16.68462992125984
 20
11.26455905511811
 30
0.0
 10
-16.68342519685039
 20
11.2599094488189
 30
0.0
 10
-16.68283464566929
 20
11.25364960629921
 30
0.0
 10
-16.68283464566929
 20
11.24575984251969
 30
0.0
 10
-16.68283464566929
 20
11.24575984251969
 30
0.0
 10
-16.68283464566929
 20
11.23642913385827
 30
0.0
 10
-16.68379527559055
 20
11.2289094488189
 30
0.0
 10
-16.68570472440945
 20
11.22316929133858
 30
0.0
 10
-16.68570472440945
 20
11.22316929133858
 30
0.0
 10
-16.68762992125984
 20
11.21742913385827
 30
0.0
 10
-16.6905
 20
11.21300393700787
 30
0.0
 10
-16.69431496062992
 20
11.20987401574803
 30
0.0
 10
-16.69431496062992
 20
11.20987401574803
 30
0.0
 10
-16.69812992125984
 20
11.20674409448819
 30
0.0
 10
-16.70294488188976
 20
11.20518897637795
 30
0.0
 10
-16.70877952755906
 20
11.20518897637795
 30
0.0
 10
-16.70877952755906
 20
11.20518897637795
 30
0.0
 10
-16.71644488188976
 20
11.20518897637795
 30
0.0
 10
-16.72246456692913
 20
11.20792913385827
 30
0.0
 10
-16.72683464566929
 20
11.21342913385827
 30
0.0
 10
-16.72683464566929
 20
11.21342913385827
 30
0.0
 10
-16.73207480314961
 20
11.22003937007874
 30
0.0
 10
-16.73470472440945
 20
11.23083464566929
 30
0.0
 10
-16.73470472440945
 20
11.24575984251969
 30
0.0
  0
SPLINE
  5
80
330
1F
100
AcDbEntity
  8
Layer 1
 62
   250
100
AcDbSpline
210
0.0
220
0.0
230
1.0
 70
    11
 71
     3
 72
    36
 73
    32
 74
     0
 42
0.0000000001
 43
0.0000000001
 40
0.0
 40
0.0
 40
0.0
 40
0.0
 40
0.125
 40
0.125
 40
0.125
 40
0.125
 40
0.25
 40
0.25
 40
0.25
 40
0.25
 40
0.375
 40
0.375
 40
0.375
 40
0.375
 40
0.5
 40
0.5
 40
0.5
 40
0.5
 40
0.625
 40
0.625
 40
0.625
 40
0.625
 40
0.75
 40
0.75
 40
0.75
 40
0.75
 40
0.875
 40
0.875
 40
0.875
 40
0.875
 40
1.0
 40
1.0
 40
1.0
 40
1.0
 10
-16.72466535433071
 20
11.24575984251969
 30
0.0
 10
-16.72466535433071
 20
11.23270472440945
 30
0.0
 10
-16.72312992125984
 20
11.22401968503937
 30
0.0
 10
-16.72007480314961
 20
11.21968897637795
 30
0.0
 10
-16.72007480314961
 20
11.21968897637795
 30
0.0
 10
-16.71701968503937
 20
11.21537401574803
 30
0.0
 10
-16.71325984251969
 20
11.21320472440945
 30
0.0
 10
-16.70877952755906
 20
11.21320472440945
 30
0.0
 10
-16.70877952755906
 20
11.21320472440945
 30
0.0
 10
-16.70427952755906
 20
11.21320472440945
 30
0.0
 10
-16.70051968503937
 20
11.21538976377953
 30
0.0
 10
-16.69746456692913
 20
11.21972440944882
 30
0.0
 10
-16.69746456692913
 20
11.21972440944882
 30
0.0
 10
-16.6944094488189
 20
11.22405905511811
 30
0.0
 10
-16.69287007874016
 20
11.23274409448819
 30
0.0
 10
-16.69287007874016
 20
11.24575984251969
 30
0.0
 10
-16.69287007874016
 20
11.24575984251969
 30
0.0
 10
-16.69287007874016
 20
11.25885433070866
 30
0.0
 10
-16.6944094488189
 20
11.26755905511811
 30
0.0
 10
-16.69746456692913
 20
11.27185433070866
 30
0.0
 10
-16.69746456692913
 20
11.27185433070866
 30
0.0
 10
-16.70051968503937
 20
11.27616929133858
 30
0.0
 10
-16.70431496062992
 20
11.27831496062992
 30
0.0
 10
-16.70887007874016
 20
11.27831496062992
 30
0.0
 10
-16.70887007874016
 20
11.27831496062992
 30
0.0
 10
-16.71337007874016
 20
11.27831496062992
 30
0.0
 10
-16.71694488188976
 20
11.2764094488189
 30
0.0
 10
-16.71962992125984
 20
11.27261417322835
 30
0.0
 10
-16.71962992125984
 20
11.27261417322835
 30
0.0
 10
-16.72298031496063
 20
11.26777952755906
 30
0.0
 10
-16.72466535433071
 20
11.25881496062992
 30
0.0
 10
-16.72466535433071
 20
11.24575984251969
 30
0.0
  0
SPLINE
  5
81
330
1F
100
AcDbEntity
  8
Layer 1
 62
   250
100
AcDbSpline
210
0.0
220
0.0
230
1.0
 70
    11
 71
     3
 72
    48
 73
    44
 74
     0
 42
0.0000000001
 43
0.0000000001
 40
0.0
 40
0.0
 40
0.0
 40
0.0
 40
0.0909090909090909
 40
0.0909090909090909
 40
0.0909090909090909
 40
0.0909090909090909
 40
0.1818181818181818
 40
0.1818181818181818
 40
0.1818181818181818
 40
0.1818181818181818
 40
0.2727272727272727
 40
0.2727272727272727
 40
0.2727272727272727
 40
0.2727272727272727
 40
0.3636363636363636
 40
0.3636363636363636
 40
0.3636363636363636
 40
0.3636363636363636
 40
0.4545454545454546
 40
0.4545454545454546
 40
0.4545454545454546
 40
0.4545454545454546
 40
0.5454545454545455
 40
0.5454545454545455
 40
0.5454545454545455
 40
0.5454545454545455
 40
0.6363636363636365
 40
0.6363636363636365
 40
0.6363636363636365
 40
0.6363636363636365
 40
0.7272727272727274
 40
0.7272727272727274
 40
0.7272727272727274
 40
0.7272727272727274
 40
0.8181818181818183
 40
0.8181818181818183
 40
0.8181818181818183
 40
0.8181818181818183
 40
0.9090909090909093
 40
0.9090909090909093
 40
0.9090909090909093
 40
0.9090909090909093
 40
1.0
 40
1.0
 40
1.0
 40
1.0
 10
-16.64161417322835
 20
11.20653937007874
 30
0.0
 10
-16.64161417322835
 20
11.20653937007874
 30
0.0
 10
-16.64161417322835
 20
11.22557480314961
 30
0.0
 10
-16.64161417322835
 20
11.22557480314961
 30
0.0
 10
-16.64161417322835
 20
11.22557480314961
 30
0.0
 10
-16.64161417322835
 20
11.22557480314961
 30
0.0
 10
-16.67611417322835
 20
11.22557480314961
 30
0.0
 10
-16.67611417322835
 20
11.22557480314961
 30
0.0
 10
-16.67611417322835
 20
11.22557480314961
 30
0.0
 10
-16.67611417322835
 20
11.22557480314961
 30
0.0
 10
-16.67611417322835
 20
11.23453937007874
 30
0.0
 10
-16.67611417322835
 20
11.23453937007874
 30
0.0
 10
-16.67611417322835
 20
11.23453937007874
 30
0.0
 10
-16.67611417322835
 20
11.23453937007874
 30
0.0
 10
-16.63981496062992
 20
11.28607480314961
 30
0.0
 10
-16.63981496062992
 20
11.28607480314961
 30
0.0
 10
-16.63981496062992
 20
11.28607480314961
 30
0.0
 10
-16.63981496062992
 20
11.28607480314961
 30
0.0
 10
-16.63183464566929
 20
11.28607480314961
 30
0.0
 10
-16.63183464566929
 20
11.28607480314961
 30
0.0
 10
-16.63183464566929
 20
11.28607480314961
 30
0.0
 10
-16.63183464566929
 20
11.28607480314961
 30
0.0
 10
-16.63183464566929
 20
11.23453937007874
 30
0.0
 10
-16.63183464566929
 20
11.23453937007874
 30
0.0
 10
-16.63183464566929
 20
11.23453937007874
 30
0.0
 10
-16.63183464566929
 20
11.23453937007874
 30
0.0
 10
-16.62109448818898
 20
11.23453937007874
 30
0.0
 10
-16.62109448818898
 20
11.23453937007874
 30
0.0
 10
-16.62109448818898
 20
11.23453937007874
 30
0.0
 10
-16.62109448818898
 20
11.23453937007874
 30
0.0
 10
-16.62109448818898
 20
11.22557480314961
 30
0.0
 10
-16.62109448818898
 20
11.22557480314961
 30
0.0
 10
-16.62109448818898
 20
11.22557480314961
 30
0.0
 10
-16.62109448818898
 20
11.22557480314961
 30
0.0
 10
-16.63183464566929
 20
11.22557480314961
 30
0.0
 10
-16.63183464566929
 20
11.22557480314961
 30
0.0
 10
-16.63183464566929
 20
11.22557480314961
 30
0.0
 10
-16.63183464566929
 20
11.22557480314961
 30
0.0
 10
-16.63183464566929
 20
11.20653937007874
 30
0.0
 10
-16.63183464566929
 20
11.20653937007874
 30
0.0
 10
-16.63183464566929
 20
11.20653937007874
 30
0.0
 10
-16.63183464566929
 20
11.20653937007874
 30
0.0
 10
-16.64161417322835
 20
11.20653937007874
 30
0.0
 10
-16.64161417322835
 20
11.20653937007874
 30
0.0
  0
SPLINE
  5
82
330
1F
100
AcDbEntity
  8
Layer 1
 62
   250
100
AcDbSpline
210
0.0
220
0.0
230
1.0
 70
    11
 71
     3
 72
    16
 73
    12
 74
     0
 42
0.0000000001
 43
0.0000000001
 40
0.0
 40
0.0
 40
0.0
 40
0.0
 40
0.3333333333333333
 40
0.3333333333333333
 40
0.3333333333333333
 40
0.3333333333333333
 40
0.6666666666666666
 40
0.6666666666666666
 40
0.6666666666666666
 40
0.6666666666666666
 40
1.0
 40
1.0
 40
1.0
 40
1.0
 10
-16.64161417322835
 20
11.23453937007874
 30
0.0
 10
-16.64161417322835
 20
11.23453937007874
 30
0.0
 10
-16.64161417322835
 20
11.27038976377953
 30
0.0
 10
-16.64161417322835
 20
11.27038976377953
 30
0.0
 10
-16.64161417322835
 20
11.27038976377953
 30
0.0
 10
-16.64161417322835
 20
11.27038976377953
 30
0.0
 10
-16.6665
 20
11.23453937007874
 30
0.0
 10
-16.6665
 20
11.23453937007874
 30
0.0
 10
-16.6665
 20
11.23453937007874
 30
0.0
 10
-16.6665
 20
11.23453937007874
 30
0.0
 10
-16.64161417322835
 20
11.23453937007874
 30
0.0
 10
-16.64161417322835
 20
11.23453937007874
 30
0.0
  0
SPLINE
  5
83
330
1F
100
AcDbEntity
  8
Layer 1
 62
   250
100
AcDbSpline
210
0.0
220
0.0
230
1.0
 70
    11
 71
     3
 72
    40
 73
    36
 74
     0
 42
0.0000000001
 43
0.0000000001
 40
0.0
 40
0.0
 40
0.0
 40
0.0
 40
0.1111111111111111
 40
0.1111111111111111
 40
0.1111111111111111
 40
0.1111111111111111
 40
0.2222222222222222
 40
0.2222222222222222
 40
0.2222222222222222
 40
0.2222222222222222
 40
0.3333333333333333
 40
0.3333333333333333
 40
0.3333333333333333
 40
0.3333333333333333
 40
0.4444444444444444
 40
0.4444444444444444
 40
0.4444444444444444
 40
0.4444444444444444
 40
0.5555555555555556
 40
0.5555555555555556
 40
0.5555555555555556
 40
0.5555555555555556
 40
0.6666666666666667
 40
0.6666666666666667
 40
0.6666666666666667
 40
0.6666666666666667
 40
0.7777777777777779
 40
0.7777777777777779
 40
0.7777777777777779
 40
0.7777777777777779
 40
0.8888888888888891
 40
0.8888888888888891
 40
0.8888888888888891
 40
0.8888888888888891
 40
1.0
 40
1.0
 40
1.0
 40
1.0
 10
-17.14829133858268
 20
10.52927165354331
 30
0.0
 10
-17.14829133858268
 20
10.52927165354331
 30
0.0
 10
-17.15561023622047
 20
10.52927165354331
 30
0.0
 10
-17.15561023622047
 20
10.52927165354331
 30
0.0
 10
-17.15561023622047
 20
10.52927165354331
 30
0.0
 10
-17.15561023622047
 20
10.52927165354331
 30
0.0
 10
-17.15561023622047
 20
10.57593700787402
 30
0.0
 10
-17.15561023622047
 20
10.57593700787402
 30
0.0
 10
-17.15561023622047
 20
10.57593700787402
 30
0.0
 10
-17.15737401574803
 20
10.57425590551181
 30
0.0
 10
-17.15967716535433
 20
10.57257480314961
 30
0.0
 10
-17.16253937007874
 20
10.5708937007874
 30
0.0
 10
-17.16253937007874
 20
10.5708937007874
 30
0.0
 10
-17.16541338582677
 20
10.56921653543307
 30
0.0
 10
-17.16798425196851
 20
10.56795275590551
 30
0.0
 10
-17.17025984251968
 20
10.56711811023622
 30
0.0
 10
-17.17025984251968
 20
10.56711811023622
 30
0.0
 10
-17.17025984251968
 20
10.56711811023622
 30
0.0
 10
-17.17025984251968
 20
10.57418503937008
 30
0.0
 10
-17.17025984251968
 20
10.57418503937008
 30
0.0
 10
-17.17025984251968
 20
10.57418503937008
 30
0.0
 10
-17.16616535433071
 20
10.57611811023622
 30
0.0
 10
-17.16258267716535
 20
10.57844881889764
 30
0.0
 10
-17.15951181102362
 20
10.58118503937008
 30
0.0
 10
-17.15951181102362
 20
10.58118503937008
 30
0.0
 10
-17.15645669291339
 20
10.58393700787401
 30
0.0
 10
-17.15427559055118
 20
10.5865905511811
 30
0.0
 10
-17.153
 20
10.58917322834646
 30
0.0
 10
-17.153
 20
10.58917322834646
 30
0.0
 10
-17.153
 20
10.58917322834646
 30
0.0
 10
-17.14829133858268
 20
10.58917322834646
 30
0.0
 10
-17.14829133858268
 20
10.58917322834646
 30
0.0
 10
-17.14829133858268
 20
10.58917322834646
 30
0.0
 10
-17.14829133858268
 20
10.58917322834646
 30
0.0
 10
-17.14829133858268
 20
10.52927165354331
 30
0.0
 10
-17.14829133858268
 20
10.52927165354331
 30
0.0
  0
SPLINE
  5
84
330
1F
100
AcDbEntity
  8
Layer 1
 62
   250
100
AcDbSpline
210
0.0
220
0.0
230
1.0
 70
    11
 71
     3
 72
    52
 73
    48
 74
     0
 42
0.0000000001
 43
0.0000000001
 40
0.0
 40
0.0
 40
0.0
 40
0.0
 40
0.0833333333333333
 40
0.0833333333333333
 40
0.0833333333333333
 40
0.0833333333333333
 40
0.1666666666666667
 40
0.1666666666666667
 40
0.1666666666666667
 40
0.1666666666666667
 40
0.25
 40
0.25
 40
0.25
 40
0.25
 40
0.3333333333333333
 40
0.3333333333333333
 40
0.3333333333333333
 40
0.3333333333333333
 40
0.4166666666666666
 40
0.4166666666666666
 40
0.4166666666666666
 40
0.4166666666666666
 40
0.4999999999999999
 40
0.4999999999999999
 40
0.4999999999999999
 40
0.4999999999999999
 40
0.5833333333333333
 40
0.5833333333333333
 40
0.5833333333333333
 40
0.5833333333333333
 40
0.6666666666666666
 40
0.6666666666666666
 40
0.6666666666666666
 40
0.6666666666666666
 40
0.75
 40
0.75
 40
0.75
 40
0.75
 40
0.8333333333333334
 40
0.8333333333333334
 40
0.8333333333333334
 40
0.8333333333333334
 40
0.9166666666666667
 40
0.9166666666666667
 40
0.9166666666666667
 40
0.9166666666666667
 40
1.0
 40
1.0
 40
1.0
 40
1.0
 10
-17.12952755905512
 20
10.55868897637795
 30
0.0
 10
-17.12952755905512
 20
10.56574409448819
 30
0.0
 10
-17.1288031496063
 20
10.57142125984252
 30
0.0
 10
-17.12734645669291
 20
10.57571653543307
 30
0.0
 10
-17.12734645669291
 20
10.57571653543307
 30
0.0
 10
-17.12590157480315
 20
10.58001968503937
 30
0.0
 10
-17.12373622047244
 20
10.58333858267716
 30
0.0
 10
-17.12087401574803
 20
10.58567322834646
 30
0.0
 10
-17.12087401574803
 20
10.58567322834646
 30
0.0
 10
-17.11801181102362
 20
10.58800787401575
 30
0.0
 10
-17.11441732283464
 20
10.58917322834646
 30
0.0
 10
-17.11008267716536
 20
10.58917322834646
 30
0.0
 10
-17.11008267716536
 20
10.58917322834646
 30
0.0
 10
-17.10687401574803
 20
10.58917322834646
 30
0.0
 10
-17.10406692913386
 20
10.58851968503937
 30
0.0
 10
-17.10165354330709
 20
10.58722834645669
 30
0.0
 10
-17.10165354330709
 20
10.58722834645669
 30
0.0
 10
-17.09923622047244
 20
10.58594881889764
 30
0.0
 10
-17.09724803149606
 20
10.5840905511811
 30
0.0
 10
-17.09566535433071
 20
10.58165748031496
 30
0.0
 10
-17.09566535433071
 20
10.58165748031496
 30
0.0
 10
-17.09409842519685
 20
10.57922834645669
 30
0.0
 10
-17.09286220472441
 20
10.57627165354331
 30
0.0
 10
-17.09197244094488
 20
10.57278346456693
 30
0.0
 10
-17.09197244094488
 20
10.57278346456693
 30
0.0
 10
-17.09107086614173
 20
10.56929921259843
 30
0.0
 10
-17.09062598425197
 20
10.56460236220472
 30
0.0
 10
-17.09062598425197
 20
10.55868897637795
 30
0.0
 10
-17.09062598425197
 20
10.55868897637795
 30
0.0
 10
-17.09062598425197
 20
10.55168897637795
 30
0.0
 10
-17.09134645669291
 20
10.54604724409449
 30
0.0
 10
-17.09277559055118
 20
10.54174409448819
 30
0.0
 10
-17.09277559055118
 20
10.54174409448819
 30
0.0
 10
-17.09422047244095
 20
10.53743700787401
 30
0.0
 10
-17.09637401574803
 20
10.53411811023622
 30
0.0
 10
-17.09923622047244
 20
10.53177165354331
 30
0.0
 10
-17.09923622047244
 20
10.53177165354331
 30
0.0
 10
-17.10209448818897
 20
10.52942519685039
 30
0.0
 10
-17.10570866141732
 20
10.52825590551181
 30
0.0
 10
-17.11008267716536
 20
10.52825590551181
 30
0.0
 10
-17.11008267716536
 20
10.52825590551181
 30
0.0
 10
-17.11583070866142
 20
10.52825590551181
 30
0.0
 10
-17.12034645669291
 20
10.53031496062992
 30
0.0
 10
-17.12362204724409
 20
10.53443700787402
 30
0.0
 10
-17.12362204724409
 20
10.53443700787402
 30
0.0
 10
-17.12755511811024
 20
10.53939763779528
 30
0.0
 10
-17.12952755905512
 20
10.54749212598425
 30
0.0
 10
-17.12952755905512
 20
10.55868897637795
 30
0.0
  0
SPLINE
  5
85
330
1F
100
AcDbEntity
  8
Layer 1
 62
   250
100
AcDbSpline
210
0.0
220
0.0
230
1.0
 70
    11
 71
     3
 72
    36
 73
    32
 74
     0
 42
0.0000000001
 43
0.0000000001
 40
0.0
 40
0.0
 40
0.0
 40
0.0
 40
0.125
 40
0.125
 40
0.125
 40
0.125
 40
0.25
 40
0.25
 40
0.25
 40
0.25
 40
0.375
 40
0.375
 40
0.375
 40
0.375
 40
0.5
 40
0.5
 40
0.5
 40
0.5
 40
0.625
 40
0.625
 40
0.625
 40
0.625
 40
0.75
 40
0.75
 40
0.75
 40
0.75
 40
0.875
 40
0.875
 40
0.875
 40
0.875
 40
1.0
 40
1.0
 40
1.0
 40
1.0
 10
-17.122
 20
10.55868897637795
 30
0.0
 10
-17.122
 20
10.54889763779528
 30
0.0
 10
-17.12084645669291
 20
10.54238188976378
 30
0.0
 10
-17.11855511811024
 20
10.53913385826772
 30
0.0
 10
-17.11855511811024
 20
10.53913385826772
 30
0.0
 10
-17.11626377952756
 20
10.53589763779528
 30
0.0
 10
-17.11344488188976
 20
10.53427165354331
 30
0.0
 10
-17.11008267716536
 20
10.53427165354331
 30
0.0
 10
-17.11008267716536
 20
10.53427165354331
 30
0.0
 10
-17.10670866141732
 20
10.53427165354331
 30
0.0
 10
-17.10388976377953
 20
10.5359094488189
 30
0.0
 10
-17.10159448818898
 20
10.53916141732283
 30
0.0
 10
-17.10159448818898
 20
10.53916141732283
 30
0.0
 10
-17.0993031496063
 20
10.5424094488189
 30
0.0
 10
-17.09815354330709
 20
10.54892519685039
 30
0.0
 10
-17.09815354330709
 20
10.55868897637795
 30
0.0
 10
-17.09815354330709
 20
10.55868897637795
 30
0.0
 10
-17.09815354330709
 20
10.56850787401575
 30
0.0
 10
-17.0993031496063
 20
10.57503543307087
 30
0.0
 10
-17.10159448818898
 20
10.57825590551181
 30
0.0
 10
-17.10159448818898
 20
10.57825590551181
 30
0.0
 10
-17.10388976377953
 20
10.58149212598425
 30
0.0
 10
-17.10673622047244
 20
10.58310236220473
 30
0.0
 10
-17.11015354330709
 20
10.58310236220473
 30
0.0
 10
-17.11015354330709
 20
10.58310236220473
 30
0.0
 10
-17.11352755905512
 20
10.58310236220473
 30
0.0
 10
-17.11620866141732
 20
10.58167322834646
 30
0.0
 10
-17.11822047244095
 20
10.57882677165354
 30
0.0
 10
-17.11822047244095
 20
10.57882677165354
 30
0.0
 10
-17.12073622047244
 20
10.57520078740158
 30
0.0
 10
-17.122
 20
10.56848031496063
 30
0.0
 10
-17.122
 20
10.55868897637795
 30
0.0
  0
SPLINE
  5
86
330
1F
100
AcDbEntity
  8
Layer 1
 62
   250
100
AcDbSpline
210
0.0
220
0.0
230
1.0
 70
    11
 71
     3
 72
    52
 73
    48
 74
     0
 42
0.0000000001
 43
0.0000000001
 40
0.0
 40
0.0
 40
0.0
 40
0.0
 40
0.0833333333333333
 40
0.0833333333333333
 40
0.0833333333333333
 40
0.0833333333333333
 40
0.1666666666666667
 40
0.1666666666666667
 40
0.1666666666666667
 40
0.1666666666666667
 40
0.25
 40
0.25
 40
0.25
 40
0.25
 40
0.3333333333333333
 40
0.3333333333333333
 40
0.3333333333333333
 40
0.3333333333333333
 40
0.4166666666666666
 40
0.4166666666666666
 40
0.4166666666666666
 40
0.4166666666666666
 40
0.4999999999999999
 40
0.4999999999999999
 40
0.4999999999999999
 40
0.4999999999999999
 40
0.5833333333333333
 40
0.5833333333333333
 40
0.5833333333333333
 40
0.5833333333333333
 40
0.6666666666666666
 40
0.6666666666666666
 40
0.6666666666666666
 40
0.6666666666666666
 40
0.75
 40
0.75
 40
0.75
 40
0.75
 40
0.8333333333333334
 40
0.8333333333333334
 40
0.8333333333333334
 40
0.8333333333333334
 40
0.9166666666666667
 40
0.9166666666666667
 40
0.9166666666666667
 40
0.9166666666666667
 40
1.0
 40
1.0
 40
1.0
 40
1.0
 10
-17.0831811023622
 20
10.55868897637795
 30
0.0
 10
-17.0831811023622
 20
10.56574409448819
 30
0.0
 10
-17.08245669291339
 20
10.57142125984252
 30
0.0
 10
-17.081
 20
10.57571653543307
 30
0.0
 10
-17.081
 20
10.57571653543307
 30
0.0
 10
-17.07955511811024
 20
10.58001968503937
 30
0.0
 10
-17.07738976377953
 20
10.58333858267716
 30
0.0
 10
-17.07452755905512
 20
10.58567322834646
 30
0.0
 10
-17.07452755905512
 20
10.58567322834646
 30
0.0
 10
-17.07166535433071
 20
10.58800787401575
 30
0.0
 10
-17.06807086614173
 20
10.58917322834646
 30
0.0
 10
-17.06373622047244
 20
10.58917322834646
 30
0.0
 10
-17.06373622047244
 20
10.58917322834646
 30
0.0
 10
-17.06052755905512
 20
10.58917322834646
 30
0.0
 10
-17.05772047244094
 20
10.58851968503937
 30
0.0
 10
-17.05530708661417
 20
10.58722834645669
 30
0.0
 10
-17.05530708661417
 20
10.58722834645669
 30
0.0
 10
-17.05288976377953
 20
10.58594881889764
 30
0.0
 10
-17.05090157480315
 20
10.5840905511811
 30
0.0
 10
-17.0493188976378
 20
10.58165748031496
 30
0.0
 10
-17.0493188976378
 20
10.58165748031496
 30
0.0
 10
-17.04775196850394
 20
10.57922834645669
 30
0.0
 10
-17.0465157480315
 20
10.57627165354331
 30
0.0
 10
-17.04562598425197
 20
10.57278346456693
 30
0.0
 10
-17.04562598425197
 20
10.57278346456693
 30
0.0
 10
-17.04472440944882
 20
10.56929921259843
 30
0.0
 10
-17.04427952755906
 20
10.56460236220472
 30
0.0
 10
-17.04427952755906
 20
10.55868897637795
 30
0.0
 10
-17.04427952755906
 20
10.55868897637795
 30
0.0
 10
-17.04427952755906
 20
10.55168897637795
 30
0.0
 10
-17.045
 20
10.54604724409449
 30
0.0
 10
-17.04642913385827
 20
10.54174409448819
 30
0.0
 10
-17.04642913385827
 20
10.54174409448819
 30
0.0
 10
-17.04787401574803
 20
10.53743700787401
 30
0.0
 10
-17.05002755905512
 20
10.53411811023622
 30
0.0
 10
-17.05288976377953
 20
10.53177165354331
 30
0.0
 10
-17.05288976377953
 20
10.53177165354331
 30
0.0
 10
-17.05574803149606
 20
10.52942519685039
 30
0.0
 10
-17.05936220472441
 20
10.52825590551181
 30
0.0
 10
-17.06373622047244
 20
10.52825590551181
 30
0.0
 10
-17.06373622047244
 20
10.52825590551181
 30
0.0
 10
-17.0694842519685
 20
10.52825590551181
 30
0.0
 10
-17.074
 20
10.53031496062992
 30
0.0
 10
-17.07727559055118
 20
10.53443700787402
 30
0.0
 10
-17.07727559055118
 20
10.53443700787402
 30
0.0
 10
-17.08120866141732
 20
10.53939763779528
 30
0.0
 10
-17.0831811023622
 20
10.54749212598425
 30
0.0
 10
-17.0831811023622
 20
10.55868897637795
 30
0.0
  0
SPLINE
  5
87
330
1F
100
AcDbEntity
  8
Layer 1
 62
   250
100
AcDbSpline
210
0.0
220
0.0
230
1.0
 70
    11
 71
     3
 72
    36
 73
    32
 74
     0
 42
0.0000000001
 43
0.0000000001
 40
0.0
 40
0.0
 40
0.0
 40
0.0
 40
0.125
 40
0.125
 40
0.125
 40
0.125
 40
0.25
 40
0.25
 40
0.25
 40
0.25
 40
0.375
 40
0.375
 40
0.375
 40
0.375
 40
0.5
 40
0.5
 40
0.5
 40
0.5
 40
0.625
 40
0.625
 40
0.625
 40
0.625
 40
0.75
 40
0.75
 40
0.75
 40
0.75
 40
0.875
 40
0.875
 40
0.875
 40
0.875
 40
1.0
 40
1.0
 40
1.0
 40
1.0
 10
-17.07565354330709
 20
10.55868897637795
 30
0.0
 10
-17.07565354330709
 20
10.54889763779528
 30
0.0
 10
-17.0745
 20
10.54238188976378
 30
0.0
 10
-17.07220866141732
 20
10.53913385826772
 30
0.0
 10
-17.07220866141732
 20
10.53913385826772
 30
0.0
 10
-17.06991732283464
 20
10.53589763779528
 30
0.0
 10
-17.06709842519685
 20
10.53427165354331
 30
0.0
 10
-17.06373622047244
 20
10.53427165354331
 30
0.0
 10
-17.06373622047244
 20
10.53427165354331
 30
0.0
 10
-17.06036220472441
 20
10.53427165354331
 30
0.0
 10
-17.05754330708661
 20
10.5359094488189
 30
0.0
 10
-17.05524803149606
 20
10.53916141732283
 30
0.0
 10
-17.05524803149606
 20
10.53916141732283
 30
0.0
 10
-17.05295669291339
 20
10.5424094488189
 30
0.0
 10
-17.05180708661417
 20
10.54892519685039
 30
0.0
 10
-17.05180708661417
 20
10.55868897637795
 30
0.0
 10
-17.05180708661417
 20
10.55868897637795
 30
0.0
 10
-17.05180708661417
 20
10.56850787401575
 30
0.0
 10
-17.05295669291339
 20
10.57503543307087
 30
0.0
 10
-17.05524803149606
 20
10.57825590551181
 30
0.0
 10
-17.05524803149606
 20
10.57825590551181
 30
0.0
 10
-17.05754330708661
 20
10.58149212598425
 30
0.0
 10
-17.06038976377953
 20
10.58310236220473
 30
0.0
 10
-17.06380708661417
 20
10.58310236220473
 30
0.0
 10
-17.06380708661417
 20
10.58310236220473
 30
0.0
 10
-17.06718110236221
 20
10.58310236220473
 30
0.0
 10
-17.06986220472441
 20
10.58167322834646
 30
0.0
 10
-17.07187401574803
 20
10.57882677165354
 30
0.0
 10
-17.07187401574803
 20
10.57882677165354
 30
0.0
 10
-17.07438976377953
 20
10.57520078740158
 30
0.0
 10
-17.07565354330709
 20
10.56848031496063
 30
0.0
 10
-17.07565354330709
 20
10.55868897637795
 30
0.0
  0
SPLINE
  5
88
330
1F
100
AcDbEntity
  8
Layer 1
 62
   250
100
AcDbSpline
210
0.0
220
0.0
230
1.0
 70
    11
 71
     3
 72
    52
 73
    48
 74
     0
 42
0.0000000001
 43
0.0000000001
 40
0.0
 40
0.0
 40
0.0
 40
0.0
 40
0.0833333333333333
 40
0.0833333333333333
 40
0.0833333333333333
 40
0.0833333333333333
 40
0.1666666666666667
 40
0.1666666666666667
 40
0.1666666666666667
 40
0.1666666666666667
 40
0.25
 40
0.25
 40
0.25
 40
0.25
 40
0.3333333333333333
 40
0.3333333333333333
 40
0.3333333333333333
 40
0.3333333333333333
 40
0.4166666666666666
 40
0.4166666666666666
 40
0.4166666666666666
 40
0.4166666666666666
 40
0.4999999999999999
 40
0.4999999999999999
 40
0.4999999999999999
 40
0.4999999999999999
 40
0.5833333333333333
 40
0.5833333333333333
 40
0.5833333333333333
 40
0.5833333333333333
 40
0.6666666666666666
 40
0.6666666666666666
 40
0.6666666666666666
 40
0.6666666666666666
 40
0.75
 40
0.75
 40
0.75
 40
0.75
 40
0.8333333333333334
 40
0.8333333333333334
 40
0.8333333333333334
 40
0.8333333333333334
 40
0.9166666666666667
 40
0.9166666666666667
 40
0.9166666666666667
 40
0.9166666666666667
 40
1.0
 40
1.0
 40
1.0
 40
1.0
 10
-17.03419291338583
 20
10.52927165354331
 30
0.0
 10
-17.03419291338583
 20
10.52927165354331
 30
0.0
 10
-17.03419291338583
 20
10.58892125984252
 30
0.0
 10
-17.03419291338583
 20
10.58892125984252
 30
0.0
 10
-17.03419291338583
 20
10.58892125984252
 30
0.0
 10
-17.03419291338583
 20
10.58892125984252
 30
0.0
 10
-17.02629133858268
 20
10.58892125984252
 30
0.0
 10
-17.02629133858268
 20
10.58892125984252
 30
0.0
 10
-17.02629133858268
 20
10.58892125984252
 30
0.0
 10
-17.02629133858268
 20
10.58892125984252
 30
0.0
 10
-17.02629133858268
 20
10.55933858267717
 30
0.0
 10
-17.02629133858268
 20
10.55933858267717
 30
0.0
 10
-17.02629133858268
 20
10.55933858267717
 30
0.0
 10
-17.02629133858268
 20
10.55933858267717
 30
0.0
 10
-16.99666929133858
 20
10.58892125984252
 30
0.0
 10
-16.99666929133858
 20
10.58892125984252
 30
0.0
 10
-16.99666929133858
 20
10.58892125984252
 30
0.0
 10
-16.99666929133858
 20
10.58892125984252
 30
0.0
 10
-16.98597244094488
 20
10.58892125984252
 30
0.0
 10
-16.98597244094488
 20
10.58892125984252
 30
0.0
 10
-16.98597244094488
 20
10.58892125984252
 30
0.0
 10
-16.98597244094488
 20
10.58892125984252
 30
0.0
 10
-17.011
 20
10.56475590551181
 30
0.0
 10
-17.011
 20
10.56475590551181
 30
0.0
 10
-17.011
 20
10.56475590551181
 30
0.0
 10
-17.011
 20
10.56475590551181
 30
0.0
 10
-16.98487795275591
 20
10.52927165354331
 30
0.0
 10
-16.98487795275591
 20
10.52927165354331
 30
0.0
 10
-16.98487795275591
 20
10.52927165354331
 30
0.0
 10
-16.98487795275591
 20
10.52927165354331
 30
0.0
 10
-16.99529133858268
 20
10.52927165354331
 30
0.0
 10
-16.99529133858268
 20
10.52927165354331
 30
0.0
 10
-16.99529133858268
 20
10.52927165354331
 30
0.0
 10
-16.99529133858268
 20
10.52927165354331
 30
0.0
 10
-17.01652755905512
 20
10.55946456692913
 30
0.0
 10
-17.01652755905512
 20
10.55946456692913
 30
0.0
 10
-17.01652755905512
 20
10.55946456692913
 30
0.0
 10
-17.01652755905512
 20
10.55946456692913
 30
0.0
 10
-17.02629133858268
 20
10.54993700787402
 30
0.0
 10
-17.02629133858268
 20
10.54993700787402
 30
0.0
 10
-17.02629133858268
 20
10.54993700787402
 30
0.0
 10
-17.02629133858268
 20
10.54993700787402
 30
0.0
 10
-17.02629133858268
 20
10.52927165354331
 30
0.0
 10
-17.02629133858268
 20
10.52927165354331
 30
0.0
 10
-17.02629133858268
 20
10.52927165354331
 30
0.0
 10
-17.02629133858268
 20
10.52927165354331
 30
0.0
 10
-17.03419291338583
 20
10.52927165354331
 30
0.0
 10
-17.03419291338583
 20
10.52927165354331
 30
0.0
  0
ELLIPSE
  5
89
330
1F
100
AcDbEntity
  8
Layer 1
 62
   250
370
     9
100
AcDbEllipse
 10
-16.63892913385827
 20
10.2088031496063
 30
0.0
 11
0.0
 21
0.0125
 31
0.0
210
0.0
220
0.0
230
1.0
 40
1.0
 41
0.0
 42
6.283185307179586
  0
ELLIPSE
  5
8A
330
1F
100
AcDbEntity
  8
Layer 1
 62
   250
370
     9
100
AcDbEllipse
 10
-16.77392913385827
 20
10.3088031496063
 30
0.0
 11
0.0
 21
0.0125
 31
0.0
210
0.0
220
0.0
230
1.0
 40
1.0
 41
0.0
 42
6.283185307179586
  0
ELLIPSE
  5
8B
330
1F
100
AcDbEntity
  8
Layer 1
 62
   250
370
     9
100
AcDbEllipse
 10
-17.01610236220472
 20
10.21429921259842
 30
0.0
 11
0.0
 21
0.0125
 31
0.0
210
0.0
220
0.0
230
1.0
 40
1.0
 41
0.0
 42
6.283185307179586
  0
ELLIPSE
  5
8C
330
1F
100
AcDbEntity
  8
Layer 1
 62
   250
370
     9
100
AcDbEllipse
 10
-17.01652362204725
 20
10.38205511811024
 30
0.0
 11
0.0
 21
0.0125
 31
0.0
210
0.0
220
0.0
230
1.0
 40
1.0
 41
0.0
 42
6.283185307179586
  0
ELLIPSE
  5
8D
330
1F
100
AcDbEntity
  8
Layer 1
 62
   250
370
     9
100
AcDbEllipse
 10
-16.24897244094488
 20
10.20808267716535
 30
0.0
 11
0.0
 21
0.0125
 31
0.0
210
0.0
220
0.0
230
1.0
 40
1.0
 41
0.0
 42
6.283185307179586
  0
SPLINE
  5
8E
330
1F
100
AcDbEntity
  8
Layer 1
 62
   250
370
    18
100
AcDbSpline
210
0.0
220
0.0
230
1.0
 70
    24
 71
     3
 72
     8
 73
     4
 74
     0
 42
0.0000000001
 43
0.0000000001
 40
0.0
 40
0.0
 40
0.0
 40
0.0
 40
1.0
 40
1.0
 40
1.0
 40
1.0
 10
-17.01659842519685
 20
11.22683464566929
 30
0.0
 10
-17.01659842519685
 20
11.22683464566929
 30
0.0
 10
-17.01659842519685
 20
11.12964173228347
 30
0.0
 10
-17.01659842519685
 20
11.12964173228347
 30
0.0
  0
ELLIPSE
  5
8F
330
1F
100
AcDbEntity
  8
Layer 1
 62
   250
370
     9
100
AcDbEllipse
 10
-16.86932677165354
 20
10.18915748031496
 30
0.0
 11
0.0
 21
0.04
 31
0.0
210
0.0
220
0.0
230
1.0
 40
1.0
 41
0.0
 42
6.283185307179586
  0
SPLINE
  5
90
330
1F
100
AcDbEntity
  8
Layer 1
 62
   250
100
AcDbSpline
210
0.0
220
0.0
230
1.0
 70
    11
 71
     3
 72
    92
 73
    88
 74
     0
 42
0.0000000001
 43
0.0000000001
 40
0.0
 40
0.0
 40
0.0
 40
0.0
 40
0.0454545454545455
 40
0.0454545454545455
 40
0.0454545454545455
 40
0.0454545454545455
 40
0.0909090909090909
 40
0.0909090909090909
 40
0.0909090909090909
 40
0.0909090909090909
 40
0.1363636363636364
 40
0.1363636363636364
 40
0.1363636363636364
 40
0.1363636363636364
 40
0.1818181818181818
 40
0.1818181818181818
 40
0.1818181818181818
 40
0.1818181818181818
 40
0.2272727272727273
 40
0.2272727272727273
 40
0.2272727272727273
 40
0.2272727272727273
 40
0.2727272727272728
 40
0.2727272727272728
 40
0.2727272727272728
 40
0.2727272727272728
 40
0.3181818181818182
 40
0.3181818181818182
 40
0.3181818181818182
 40
0.3181818181818182
 40
0.3636363636363637
 40
0.3636363636363637
 40
0.3636363636363637
 40
0.3636363636363637
 40
0.4090909090909092
 40
0.4090909090909092
 40
0.4090909090909092
 40
0.4090909090909092
 40
0.4545454545454546
 40
0.4545454545454546
 40
0.4545454545454546
 40
0.4545454545454546
 40
0.5000000000000001
 40
0.5000000000000001
 40
0.5000000000000001
 40
0.5000000000000001
 40
0.5454545454545455
 40
0.5454545454545455
 40
0.5454545454545455
 40
0.5454545454545455
 40
0.5909090909090909
 40
0.5909090909090909
 40
0.5909090909090909
 40
0.5909090909090909
 40
0.6363636363636364
 40
0.6363636363636364
 40
0.6363636363636364
 40
0.6363636363636364
 40
0.6818181818181818
 40
0.6818181818181818
 40
0.6818181818181818
 40
0.6818181818181818
 40
0.7272727272727272
 40
0.7272727272727272
 40
0.7272727272727272
 40
0.7272727272727272
 40
0.7727272727272726
 40
0.7727272727272726
 40
0.7727272727272726
 40
0.7727272727272726
 40
0.818181818181818
 40
0.818181818181818
 40
0.818181818181818
 40
0.818181818181818
 40
0.8636363636363634
 40
0.8636363636363634
 40
0.8636363636363634
 40
0.8636363636363634
 40
0.9090909090909088
 40
0.9090909090909088
 40
0.9090909090909088
 40
0.9090909090909088
 40
0.9545454545454543
 40
0.9545454545454543
 40
0.9545454545454543
 40
0.9545454545454543
 40
1.0
 40
1.0
 40
1.0
 40
1.0
 10
-17.25435826771654
 20
11.20356299212598
 30
0.0
 10
-17.25435826771654
 20
11.20356299212598
 30
0.0
 10
-17.25435826771654
 20
11.19417322834646
 30
0.0
 10
-17.25435826771654
 20
11.19417322834646
 30
0.0
 10
-17.25435826771654
 20
11.19417322834646
 30
0.0
 10
-17.25435826771654
 20
11.19417322834646
 30
0.0
 10
-17.30693307086614
 20
11.19417322834646
 30
0.0
 10
-17.30693307086614
 20
11.19417322834646
 30
0.0
 10
-17.30693307086614
 20
11.19417322834646
 30
0.0
 10
-17.30700787401575
 20
11.19652362204724
 30
0.0
 10
-17.30663779527559
 20
11.19878346456693
 30
0.0
 10
-17.3058031496063
 20
11.20095275590551
 30
0.0
 10
-17.3058031496063
 20
11.20095275590551
 30
0.0
 10
-17.30446850393701
 20
11.20454330708661
 30
0.0
 10
-17.30232283464567
 20
11.20806299212598
 30
0.0
 10
-17.2993779527559
 20
11.21154330708661
 30
0.0
 10
-17.2993779527559
 20
11.21154330708661
 30
0.0
 10
-17.29641338582677
 20
11.21500787401575
 30
0.0
 10
-17.29215354330709
 20
11.21902362204724
 30
0.0
 10
-17.28659842519685
 20
11.22357874015748
 30
0.0
 10
-17.28659842519685
 20
11.22357874015748
 30
0.0
 10
-17.27795275590551
 20
11.23067322834646
 30
0.0
 10
-17.27209842519685
 20
11.23628346456693
 30
0.0
 10
-17.26906299212598
 20
11.24043307086614
 30
0.0
 10
-17.26906299212598
 20
11.24043307086614
 30
0.0
 10
-17.26602755905512
 20
11.24456299212599
 30
0.0
 10
-17.26450787401575
 20
11.24848818897638
 30
0.0
 10
-17.26450787401575
 20
11.25217322834646
 30
0.0
 10
-17.26450787401575
 20
11.25217322834646
 30
0.0
 10
-17.26450787401575
 20
11.25604330708661
 30
0.0
 10
-17.26589763779528
 20
11.2593031496063
 30
0.0
 10
-17.26865354330709
 20
11.26196850393701
 30
0.0
 10
-17.26865354330709
 20
11.26196850393701
 30
0.0
 10
-17.27143307086614
 20
11.26461811023622
 30
0.0
 10
-17.27504330708662
 20
11.26594881889764
 30
0.0
 10
-17.27948818897638
 20
11.26594881889764
 30
0.0
 10
-17.27948818897638
 20
11.26594881889764
 30
0.0
 10
-17.28419291338583
 20
11.26594881889764
 30
0.0
 10
-17.28795275590551
 20
11.26454330708661
 30
0.0
 10
-17.29076771653543
 20
11.26170866141732
 30
0.0
 10
-17.29076771653543
 20
11.26170866141732
 30
0.0
 10
-17.29359842519685
 20
11.2588937007874
 30
0.0
 10
-17.29502362204724
 20
11.25498818897638
 30
0.0
 10
-17.29506299212598
 20
11.25000787401575
 30
0.0
 10
-17.29506299212598
 20
11.25000787401575
 30
0.0
 10
-17.29506299212598
 20
11.25000787401575
 30
0.0
 10
-17.30509842519685
 20
11.25102362204724
 30
0.0
 10
-17.30509842519685
 20
11.25102362204724
 30
0.0
 10
-17.30509842519685
 20
11.25102362204724
 30
0.0
 10
-17.30441338582677
 20
11.25852362204724
 30
0.0
 10
-17.30182283464567
 20
11.26422834645669
 30
0.0
 10
-17.29733858267717
 20
11.26815354330709
 30
0.0
 10
-17.29733858267717
 20
11.26815354330709
 30
0.0
 10
-17.29285826771654
 20
11.27207874015748
 30
0.0
 10
-17.28682283464567
 20
11.27404330708661
 30
0.0
 10
-17.27926771653543
 20
11.27404330708661
 30
0.0
 10
-17.27926771653543
 20
11.27404330708661
 30
0.0
 10
-17.27163779527559
 20
11.27404330708661
 30
0.0
 10
-17.26559842519685
 20
11.27191338582677
 30
0.0
 10
-17.26115354330708
 20
11.26769291338583
 30
0.0
 10
-17.26115354330708
 20
11.26769291338583
 30
0.0
 10
-17.25669291338583
 20
11.26344881889764
 30
0.0
 10
-17.25446850393701
 20
11.25820866141732
 30
0.0
 10
-17.25446850393701
 20
11.25194881889764
 30
0.0
 10
-17.25446850393701
 20
11.25194881889764
 30
0.0
 10
-17.25446850393701
 20
11.24876377952756
 30
0.0
 10
-17.25511811023622
 20
11.24563385826772
 30
0.0
 10
-17.25643307086614
 20
11.24256299212598
 30
0.0
 10
-17.25643307086614
 20
11.24256299212598
 30
0.0
 10
-17.25772834645669
 20
11.23948818897638
 30
0.0
 10
-17.25989763779528
 20
11.23624803149606
 30
0.0
 10
-17.26291338582677
 20
11.23285826771654
 30
0.0
 10
-17.26291338582677
 20
11.23285826771654
 30
0.0
 10
-17.26593307086614
 20
11.22944881889764
 30
0.0
 10
-17.27095275590551
 20
11.22478346456693
 30
0.0
 10
-17.27796850393701
 20
11.21885826771654
 30
0.0
 10
-17.27796850393701
 20
11.21885826771654
 30
0.0
 10
-17.28382283464567
 20
11.21393307086614
 30
0.0
 10
-17.28758267716535
 20
11.21059842519685
 30
0.0
 10
-17.28924803149606
 20
11.20883858267717
 30
0.0
 10
-17.28924803149606
 20
11.20883858267717
 30
0.0
 10
-17.29091338582677
 20
11.20709842519685
 30
0.0
 10
-17.29228346456693
 20
11.20533858267716
 30
0.0
 10
-17.2933779527559
 20
11.20356299212598
 30
0.0
 10
-17.2933779527559
 20
11.20356299212598
 30
0.0
 10
-17.2933779527559
 20
11.20356299212598
 30
0.0
 10
-17.25435826771654
 20
11.20356299212598
 30
0.0
 10
-17.25435826771654
 20
11.20356299212598
 30
0.0
  0
SPLINE
  5
91
330
1F
100
AcDbEntity
  8
Layer 1
 62
   250
100
AcDbSpline
210
0.0
220
0.0
230
1.0
 70
    11
 71
     3
 72
    20
 73
    16
 74
     0
 42
0.0000000001
 43
0.0000000001
 40
0.0
 40
0.0
 40
0.0
 40
0.0
 40
0.25
 40
0.25
 40
0.25
 40
0.25
 40
0.5
 40
0.5
 40
0.5
 40
0.5
 40
0.75
 40
0.75
 40
0.75
 40
0.75
 40
1.0
 40
1.0
 40
1.0
 40
1.0
 10
-17.23841732283465
 20
11.19417322834646
 30
0.0
 10
-17.23841732283465
 20
11.19417322834646
 30
0.0
 10
-17.23841732283465
 20
11.2053031496063
 30
0.0
 10
-17.23841732283465
 20
11.2053031496063
 30
0.0
 10
-17.23841732283465
 20
11.2053031496063
 30
0.0
 10
-17.23841732283465
 20
11.2053031496063
 30
0.0
 10
-17.2272874015748
 20
11.2053031496063
 30
0.0
 10
-17.2272874015748
 20
11.2053031496063
 30
0.0
 10
-17.2272874015748
 20
11.2053031496063
 30
0.0
 10
-17.2272874015748
 20
11.2053031496063
 30
0.0
 10
-17.2272874015748
 20
11.19417322834646
 30
0.0
 10
-17.2272874015748
 20
11.19417322834646
 30
0.0
 10
-17.2272874015748
 20
11.19417322834646
 30
0.0
 10
-17.2272874015748
 20
11.19417322834646
 30
0.0
 10
-17.23841732283465
 20
11.19417322834646
 30
0.0
 10
-17.23841732283465
 20
11.19417322834646
 30
0.0
  0
SPLINE
  5
92
330
1F
100
AcDbEntity
  8
Layer 1
 62
   250
100
AcDbSpline
210
0.0
220
0.0
230
1.0
 70
    11
 71
     3
 72
    92
 73
    88
 74
     0
 42
0.0000000001
 43
0.0000000001
 40
0.0
 40
0.0
 40
0.0
 40
0.0
 40
0.0454545454545455
 40
0.0454545454545455
 40
0.0454545454545455
 40
0.0454545454545455
 40
0.0909090909090909
 40
0.0909090909090909
 40
0.0909090909090909
 40
0.0909090909090909
 40
0.1363636363636364
 40
0.1363636363636364
 40
0.1363636363636364
 40
0.1363636363636364
 40
0.1818181818181818
 40
0.1818181818181818
 40
0.1818181818181818
 40
0.1818181818181818
 40
0.2272727272727273
 40
0.2272727272727273
 40
0.2272727272727273
 40
0.2272727272727273
 40
0.2727272727272728
 40
0.2727272727272728
 40
0.2727272727272728
 40
0.2727272727272728
 40
0.3181818181818182
 40
0.3181818181818182
 40
0.3181818181818182
 40
0.3181818181818182
 40
0.3636363636363637
 40
0.3636363636363637
 40
0.3636363636363637
 40
0.3636363636363637
 40
0.4090909090909092
 40
0.4090909090909092
 40
0.4090909090909092
 40
0.4090909090909092
 40
0.4545454545454546
 40
0.4545454545454546
 40
0.4545454545454546
 40
0.4545454545454546
 40
0.5000000000000001
 40
0.5000000000000001
 40
0.5000000000000001
 40
0.5000000000000001
 40
0.5454545454545455
 40
0.5454545454545455
 40
0.5454545454545455
 40
0.5454545454545455
 40
0.5909090909090909
 40
0.5909090909090909
 40
0.5909090909090909
 40
0.5909090909090909
 40
0.6363636363636364
 40
0.6363636363636364
 40
0.6363636363636364
 40
0.6363636363636364
 40
0.6818181818181818
 40
0.6818181818181818
 40
0.6818181818181818
 40
0.6818181818181818
 40
0.7272727272727272
 40
0.7272727272727272
 40
0.7272727272727272
 40
0.7272727272727272
 40
0.7727272727272726
 40
0.7727272727272726
 40
0.7727272727272726
 40
0.7727272727272726
 40
0.818181818181818
 40
0.818181818181818
 40
0.818181818181818
 40
0.818181818181818
 40
0.8636363636363634
 40
0.8636363636363634
 40
0.8636363636363634
 40
0.8636363636363634
 40
0.9090909090909088
 40
0.9090909090909088
 40
0.9090909090909088
 40
0.9090909090909088
 40
0.9545454545454543
 40
0.9545454545454543
 40
0.9545454545454543
 40
0.9545454545454543
 40
1.0
 40
1.0
 40
1.0
 40
1.0
 10
-17.16169291338583
 20
11.20356299212598
 30
0.0
 10
-17.16169291338583
 20
11.20356299212598
 30
0.0
 10
-17.16169291338583
 20
11.19417322834646
 30
0.0
 10
-17.16169291338583
 20
11.19417322834646
 30
0.0
 10
-17.16169291338583
 20
11.19417322834646
 30
0.0
 10
-17.16169291338583
 20
11.19417322834646
 30
0.0
 10
-17.21426771653543
 20
11.19417322834646
 30
0.0
 10
-17.21426771653543
 20
11.19417322834646
 30
0.0
 10
-17.21426771653543
 20
11.19417322834646
 30
0.0
 10
-17.21434251968504
 20
11.19652362204724
 30
0.0
 10
-17.21397244094488
 20
11.19878346456693
 30
0.0
 10
-17.21313779527559
 20
11.20095275590551
 30
0.0
 10
-17.21313779527559
 20
11.20095275590551
 30
0.0
 10
-17.2118031496063
 20
11.20454330708661
 30
0.0
 10
-17.20965748031496
 20
11.20806299212598
 30
0.0
 10
-17.2067125984252
 20
11.21154330708661
 30
0.0
 10
-17.2067125984252
 20
11.21154330708661
 30
0.0
 10
-17.20374803149606
 20
11.21500787401575
 30
0.0
 10
-17.19948818897638
 20
11.21902362204724
 30
0.0
 10
-17.19393307086614
 20
11.22357874015748
 30
0.0
 10
-17.19393307086614
 20
11.22357874015748
 30
0.0
 10
-17.1852874015748
 20
11.23067322834646
 30
0.0
 10
-17.17943307086614
 20
11.23628346456693
 30
0.0
 10
-17.17639763779528
 20
11.24043307086614
 30
0.0
 10
-17.17639763779528
 20
11.24043307086614
 30
0.0
 10
-17.17336220472441
 20
11.24456299212599
 30
0.0
 10
-17.17184251968504
 20
11.24848818897638
 30
0.0
 10
-17.17184251968504
 20
11.25217322834646
 30
0.0
 10
-17.17184251968504
 20
11.25217322834646
 30
0.0
 10
-17.17184251968504
 20
11.25604330708661
 30
0.0
 10
-17.17323228346457
 20
11.2593031496063
 30
0.0
 10
-17.17598818897638
 20
11.26196850393701
 30
0.0
 10
-17.17598818897638
 20
11.26196850393701
 30
0.0
 10
-17.17876771653543
 20
11.26461811023622
 30
0.0
 10
-17.18237795275591
 20
11.26594881889764
 30
0.0
 10
-17.18682283464567
 20
11.26594881889764
 30
0.0
 10
-17.18682283464567
 20
11.26594881889764
 30
0.0
 10
-17.19152755905512
 20
11.26594881889764
 30
0.0
 10
-17.1952874015748
 20
11.26454330708661
 30
0.0
 10
-17.19810236220473
 20
11.26170866141732
 30
0.0
 10
-17.19810236220473
 20
11.26170866141732
 30
0.0
 10
-17.20093307086614
 20
11.2588937007874
 30
0.0
 10
-17.20235826771654
 20
11.25498818897638
 30
0.0
 10
-17.20239763779528
 20
11.25000787401575
 30
0.0
 10
-17.20239763779528
 20
11.25000787401575
 30
0.0
 10
-17.20239763779528
 20
11.25000787401575
 30
0.0
 10
-17.21243307086614
 20
11.25102362204724
 30
0.0
 10
-17.21243307086614
 20
11.25102362204724
 30
0.0
 10
-17.21243307086614
 20
11.25102362204724
 30
0.0
 10
-17.21174803149606
 20
11.25852362204724
 30
0.0
 10
-17.20915748031496
 20
11.26422834645669
 30
0.0
 10
-17.20467322834646
 20
11.26815354330709
 30
0.0
 10
-17.20467322834646
 20
11.26815354330709
 30
0.0
 10
-17.20019291338583
 20
11.27207874015748
 30
0.0
 10
-17.19415748031496
 20
11.27404330708661
 30
0.0
 10
-17.18660236220472
 20
11.27404330708661
 30
0.0
 10
-17.18660236220472
 20
11.27404330708661
 30
0.0
 10
-17.17897244094488
 20
11.27404330708661
 30
0.0
 10
-17.17293307086614
 20
11.27191338582677
 30
0.0
 10
-17.16848818897638
 20
11.26769291338583
 30
0.0
 10
-17.16848818897638
 20
11.26769291338583
 30
0.0
 10
-17.16402755905512
 20
11.26344881889764
 30
0.0
 10
-17.1618031496063
 20
11.25820866141732
 30
0.0
 10
-17.1618031496063
 20
11.25194881889764
 30
0.0
 10
-17.1618031496063
 20
11.25194881889764
 30
0.0
 10
-17.1618031496063
 20
11.24876377952756
 30
0.0
 10
-17.16245275590551
 20
11.24563385826772
 30
0.0
 10
-17.16376771653543
 20
11.24256299212598
 30
0.0
 10
-17.16376771653543
 20
11.24256299212598
 30
0.0
 10
-17.16506299212599
 20
11.23948818897638
 30
0.0
 10
-17.16723228346457
 20
11.23624803149606
 30
0.0
 10
-17.17024803149606
 20
11.23285826771654
 30
0.0
 10
-17.17024803149606
 20
11.23285826771654
 30
0.0
 10
-17.17326771653543
 20
11.22944881889764
 30
0.0
 10
-17.1782874015748
 20
11.22478346456693
 30
0.0
 10
-17.1853031496063
 20
11.21885826771654
 30
0.0
 10
-17.1853031496063
 20
11.21885826771654
 30
0.0
 10
-17.19115748031496
 20
11.21393307086614
 30
0.0
 10
-17.19491732283464
 20
11.21059842519685
 30
0.0
 10
-17.19658267716536
 20
11.20883858267717
 30
0.0
 10
-17.19658267716536
 20
11.20883858267717
 30
0.0
 10
-17.19824803149606
 20
11.20709842519685
 30
0.0
 10
-17.19961811023622
 20
11.20533858267716
 30
0.0
 10
-17.2007125984252
 20
11.20356299212598
 30
0.0
 10
-17.2007125984252
 20
11.20356299212598
 30
0.0
 10
-17.2007125984252
 20
11.20356299212598
 30
0.0
 10
-17.16169291338583
 20
11.20356299212598
 30
0.0
 10
-17.16169291338583
 20
11.20356299212598
 30
0.0
  0
SPLINE
  5
93
330
1F
100
AcDbEntity
  8
Layer 1
 62
   250
100
AcDbSpline
210
0.0
220
0.0
230
1.0
 70
    11
 71
     3
 72
    80
 73
    76
 74
     0
 42
0.0000000001
 43
0.0000000001
 40
0.0
 40
0.0
 40
0.0
 40
0.0
 40
0.0526315789473684
 40
0.0526315789473684
 40
0.0526315789473684
 40
0.0526315789473684
 40
0.1052631578947368
 40
0.1052631578947368
 40
0.1052631578947368
 40
0.1052631578947368
 40
0.1578947368421053
 40
0.1578947368421053
 40
0.1578947368421053
 40
0.1578947368421053
 40
0.2105263157894737
 40
0.2105263157894737
 40
0.2105263157894737
 40
0.2105263157894737
 40
0.2631578947368421
 40
0.2631578947368421
 40
0.2631578947368421
 40
0.2631578947368421
 40
0.3157894736842105
 40
0.3157894736842105
 40
0.3157894736842105
 40
0.3157894736842105
 40
0.3684210526315789
 40
0.3684210526315789
 40
0.3684210526315789
 40
0.3684210526315789
 40
0.4210526315789473
 40
0.4210526315789473
 40
0.4210526315789473
 40
0.4210526315789473
 40
0.4736842105263158
 40
0.4736842105263158
 40
0.4736842105263158
 40
0.4736842105263158
 40
0.5263157894736842
 40
0.5263157894736842
 40
0.5263157894736842
 40
0.5263157894736842
 40
0.5789473684210527
 40
0.5789473684210527
 40
0.5789473684210527
 40
0.5789473684210527
 40
0.631578947368421
 40
0.631578947368421
 40
0.631578947368421
 40
0.631578947368421
 40
0.6842105263157894
 40
0.6842105263157894
 40
0.6842105263157894
 40
0.6842105263157894
 40
0.7368421052631577
 40
0.7368421052631577
 40
0.7368421052631577
 40
0.7368421052631577
 40
0.7894736842105261
 40
0.7894736842105261
 40
0.7894736842105261
 40
0.7894736842105261
 40
0.8421052631578945
 40
0.8421052631578945
 40
0.8421052631578945
 40
0.8421052631578945
 40
0.8947368421052628
 40
0.8947368421052628
 40
0.8947368421052628
 40
0.8947368421052628
 40
0.9473684210526312
 40
0.9473684210526312
 40
0.9473684210526312
 40
0.9473684210526312
 40
1.0
 40
1.0
 40
1.0
 40
1.0
 10
-17.11075196850394
 20
11.19417322834646
 30
0.0
 10
-17.11075196850394
 20
11.19417322834646
 30
0.0
 10
-17.11075196850394
 20
11.20263779527559
 30
0.0
 10
-17.11075196850394
 20
11.20263779527559
 30
0.0
 10
-17.11075196850394
 20
11.20263779527559
 30
0.0
 10
-17.11525196850394
 20
11.19611811023622
 30
0.0
 10
-17.12134251968504
 20
11.19287795275591
 30
0.0
 10
-17.12904724409449
 20
11.19287795275591
 30
0.0
 10
-17.12904724409449
 20
11.19287795275591
 30
0.0
 10
-17.13243700787402
 20
11.19287795275591
 30
0.0
 10
-17.13562204724409
 20
11.19352362204724
 30
0.0
 10
-17.13856299212598
 20
11.19482283464567
 30
0.0
 10
-17.13856299212598
 20
11.19482283464567
 30
0.0
 10
-17.14150787401575
 20
11.19611811023622
 30
0.0
 10
-17.14369291338583
 20
11.19776771653543
 30
0.0
 10
-17.14512204724409
 20
11.19972834645669
 30
0.0
 10
-17.14512204724409
 20
11.19972834645669
 30
0.0
 10
-17.14656299212598
 20
11.20170866141732
 30
0.0
 10
-17.14756299212598
 20
11.20411811023622
 30
0.0
 10
-17.14813779527559
 20
11.20696850393701
 30
0.0
 10
-17.14813779527559
 20
11.20696850393701
 30
0.0
 10
-17.14852755905512
 20
11.2088937007874
 30
0.0
 10
-17.14873228346457
 20
11.21193307086614
 30
0.0
 10
-17.14873228346457
 20
11.21609842519685
 30
0.0
 10
-17.14873228346457
 20
11.21609842519685
 30
0.0
 10
-17.14873228346457
 20
11.21609842519685
 30
0.0
 10
-17.14873228346457
 20
11.25178346456693
 30
0.0
 10
-17.14873228346457
 20
11.25178346456693
 30
0.0
 10
-17.14873228346457
 20
11.25178346456693
 30
0.0
 10
-17.14873228346457
 20
11.25178346456693
 30
0.0
 10
-17.13897244094488
 20
11.25178346456693
 30
0.0
 10
-17.13897244094488
 20
11.25178346456693
 30
0.0
 10
-17.13897244094488
 20
11.25178346456693
 30
0.0
 10
-17.13897244094488
 20
11.25178346456693
 30
0.0
 10
-17.13897244094488
 20
11.21983858267716
 30
0.0
 10
-17.13897244094488
 20
11.21983858267716
 30
0.0
 10
-17.13897244094488
 20
11.21983858267716
 30
0.0
 10
-17.13897244094488
 20
11.21472834645669
 30
0.0
 10
-17.13876771653543
 20
11.2113031496063
 30
0.0
 10
-17.13837795275591
 20
11.20952362204724
 30
0.0
 10
-17.13837795275591
 20
11.20952362204724
 30
0.0
 10
-17.13775196850394
 20
11.20695275590551
 30
0.0
 10
-17.13645275590551
 20
11.20495275590551
 30
0.0
 10
-17.13447244094488
 20
11.20346850393701
 30
0.0
 10
-17.13447244094488
 20
11.20346850393701
 30
0.0
 10
-17.13247244094488
 20
11.20200787401575
 30
0.0
 10
-17.13000787401575
 20
11.20128346456693
 30
0.0
 10
-17.12708267716535
 20
11.20128346456693
 30
0.0
 10
-17.12708267716535
 20
11.20128346456693
 30
0.0
 10
-17.12415748031496
 20
11.20128346456693
 30
0.0
 10
-17.12141732283465
 20
11.20202362204724
 30
0.0
 10
-17.11884251968504
 20
11.20352362204724
 30
0.0
 10
-17.11884251968504
 20
11.20352362204724
 30
0.0
 10
-17.11626771653543
 20
11.20502362204724
 30
0.0
 10
-17.11445275590551
 20
11.20707874015748
 30
0.0
 10
-17.11339763779528
 20
11.20965354330709
 30
0.0
 10
-17.11339763779528
 20
11.20965354330709
 30
0.0
 10
-17.11232283464567
 20
11.21224803149606
 30
0.0
 10
-17.1117874015748
 20
11.21600787401575
 30
0.0
 10
-17.1117874015748
 20
11.22091338582677
 30
0.0
 10
-17.1117874015748
 20
11.22091338582677
 30
0.0
 10
-17.1117874015748
 20
11.22091338582677
 30
0.0
 10
-17.1117874015748
 20
11.25178346456693
 30
0.0
 10
-17.1117874015748
 20
11.25178346456693
 30
0.0
 10
-17.1117874015748
 20
11.25178346456693
 30
0.0
 10
-17.1117874015748
 20
11.25178346456693
 30
0.0
 10
-17.10202755905512
 20
11.25178346456693
 30
0.0
 10
-17.10202755905512
 20
11.25178346456693
 30
0.0
 10
-17.10202755905512
 20
11.25178346456693
 30
0.0
 10
-17.10202755905512
 20
11.25178346456693
 30
0.0
 10
-17.10202755905512
 20
11.19417322834646
 30
0.0
 10
-17.10202755905512
 20
11.19417322834646
 30
0.0
 10
-17.10202755905512
 20
11.19417322834646
 30
0.0
 10
-17.10202755905512
 20
11.19417322834646
 30
0.0
 10
-17.11075196850394
 20
11.19417322834646
 30
0.0
 10
-17.11075196850394
 20
11.19417322834646
 30
0.0
  0
SPLINE
  5
94
330
1F
100
AcDbEntity
  8
Layer 1
 62
   250
100
AcDbSpline
210
0.0
220
0.0
230
1.0
 70
    11
 71
     3
 72
    44
 73
    40
 74
     0
 42
0.0000000001
 43
0.0000000001
 40
0.0
 40
0.0
 40
0.0
 40
0.0
 40
0.1
 40
0.1
 40
0.1
 40
0.1
 40
0.2
 40
0.2
 40
0.2
 40
0.2
 40
0.3
 40
0.3
 40
0.3
 40
0.3
 40
0.4
 40
0.4
 40
0.4
 40
0.4
 40
0.5
 40
0.5
 40
0.5
 40
0.5
 40
0.6
 40
0.6
 40
0.6
 40
0.6
 40
0.7
 40
0.7
 40
0.7
 40
0.7
 40
0.7999999999999999
 40
0.7999999999999999
 40
0.7999999999999999
 40
0.7999999999999999
 40
0.8999999999999999
 40
0.8999999999999999
 40
0.8999999999999999
 40
0.8999999999999999
 40
1.0
 40
1.0
 40
1.0
 40
1.0
 10
-17.08493700787401
 20
11.19417322834646
 30
0.0
 10
-17.08493700787401
 20
11.19417322834646
 30
0.0
 10
-17.08493700787401
 20
11.27370866141732
 30
0.0
 10
-17.08493700787401
 20
11.27370866141732
 30
0.0
 10
-17.08493700787401
 20
11.27370866141732
 30
0.0
 10
-17.08493700787401
 20
11.27370866141732
 30
0.0
 10
-17.03127165354331
 20
11.27370866141732
 30
0.0
 10
-17.03127165354331
 20
11.27370866141732
 30
0.0
 10
-17.03127165354331
 20
11.27370866141732
 30
0.0
 10
-17.03127165354331
 20
11.27370866141732
 30
0.0
 10
-17.03127165354331
 20
11.26431889763779
 30
0.0
 10
-17.03127165354331
 20
11.26431889763779
 30
0.0
 10
-17.03127165354331
 20
11.26431889763779
 30
0.0
 10
-17.03127165354331
 20
11.26431889763779
 30
0.0
 10
-17.07439763779528
 20
11.26431889763779
 30
0.0
 10
-17.07439763779528
 20
11.26431889763779
 30
0.0
 10
-17.07439763779528
 20
11.26431889763779
 30
0.0
 10
-17.07439763779528
 20
11.26431889763779
 30
0.0
 10
-17.07439763779528
 20
11.23969291338583
 30
0.0
 10
-17.07439763779528
 20
11.23969291338583
 30
0.0
 10
-17.07439763779528
 20
11.23969291338583
 30
0.0
 10
-17.07439763779528
 20
11.23969291338583
 30
0.0
 10
-17.03708661417323
 20
11.23969291338583
 30
0.0
 10
-17.03708661417323
 20
11.23969291338583
 30
0.0
 10
-17.03708661417323
 20
11.23969291338583
 30
0.0
 10
-17.03708661417323
 20
11.23969291338583
 30
0.0
 10
-17.03708661417323
 20
11.2303031496063
 30
0.0
 10
-17.03708661417323
 20
11.2303031496063
 30
0.0
 10
-17.03708661417323
 20
11.2303031496063
 30
0.0
 10
-17.03708661417323
 20
11.2303031496063
 30
0.0
 10
-17.07439763779528
 20
11.2303031496063
 30
0.0
 10
-17.07439763779528
 20
11.2303031496063
 30
0.0
 10
-17.07439763779528
 20
11.2303031496063
 30
0.0
 10
-17.07439763779528
 20
11.2303031496063
 30
0.0
 10
-17.07439763779528
 20
11.19417322834646
 30
0.0
 10
-17.07439763779528
 20
11.19417322834646
 30
0.0
 10
-17.07439763779528
 20
11.19417322834646
 30
0.0
 10
-17.07439763779528
 20
11.19417322834646
 30
0.0
 10
-17.08493700787401
 20
11.19417322834646
 30
0.0
 10
-17.08493700787401
 20
11.19417322834646
 30
0.0
  0
ELLIPSE
  5
95
330
1F
100
AcDbEntity
  8
Layer 1
 62
   250
370
     9
100
AcDbEllipse
 10
-16.70577559055118
 20
11.03990157480315
 30
0.0
 11
0.0
 21
0.0125
 31
0.0
210
0.0
220
0.0
230
1.0
 40
1.0
 41
0.0
 42
6.283185307179586
  0
SPLINE
  5
96
330
1F
100
AcDbEntity
  8
Layer 1
 62
   250
370
    18
100
AcDbSpline
210
0.0
220
0.0
230
1.0
 70
    24
 71
     3
 72
     8
 73
     4
 74
     0
 42
0.0000000001
 43
0.0000000001
 40
0.0
 40
0.0
 40
0.0
 40
0.0
 40
1.0
 40
1.0
 40
1.0
 40
1.0
 10
-16.77451181102362
 20
10.58277559055118
 30
0.0
 10
-16.77451181102362
 20
10.58277559055118
 30
0.0
 10
-16.77451181102362
 20
10.23652362204724
 30
0.0
 10
-16.77451181102362
 20
10.23652362204724
 30
0.0
  0
SPLINE
  5
97
330
1F
100
AcDbEntity
  8
Layer 1
 62
   250
100
AcDbSpline
210
0.0
220
0.0
230
1.0
 70
    11
 71
     3
 72
    92
 73
    88
 74
     0
 42
0.0000000001
 43
0.0000000001
 40
0.0
 40
0.0
 40
0.0
 40
0.0
 40
0.0454545454545455
 40
0.0454545454545455
 40
0.0454545454545455
 40
0.0454545454545455
 40
0.0909090909090909
 40
0.0909090909090909
 40
0.0909090909090909
 40
0.0909090909090909
 40
0.1363636363636364
 40
0.1363636363636364
 40
0.1363636363636364
 40
0.1363636363636364
 40
0.1818181818181818
 40
0.1818181818181818
 40
0.1818181818181818
 40
0.1818181818181818
 40
0.2272727272727273
 40
0.2272727272727273
 40
0.2272727272727273
 40
0.2272727272727273
 40
0.2727272727272728
 40
0.2727272727272728
 40
0.2727272727272728
 40
0.2727272727272728
 40
0.3181818181818182
 40
0.3181818181818182
 40
0.3181818181818182
 40
0.3181818181818182
 40
0.3636363636363637
 40
0.3636363636363637
 40
0.3636363636363637
 40
0.3636363636363637
 40
0.4090909090909092
 40
0.4090909090909092
 40
0.4090909090909092
 40
0.4090909090909092
 40
0.4545454545454546
 40
0.4545454545454546
 40
0.4545454545454546
 40
0.4545454545454546
 40
0.5000000000000001
 40
0.5000000000000001
 40
0.5000000000000001
 40
0.5000000000000001
 40
0.5454545454545455
 40
0.5454545454545455
 40
0.5454545454545455
 40
0.5454545454545455
 40
0.5909090909090909
 40
0.5909090909090909
 40
0.5909090909090909
 40
0.5909090909090909
 40
0.6363636363636364
 40
0.6363636363636364
 40
0.6363636363636364
 40
0.6363636363636364
 40
0.6818181818181818
 40
0.6818181818181818
 40
0.6818181818181818
 40
0.6818181818181818
 40
0.7272727272727272
 40
0.7272727272727272
 40
0.7272727272727272
 40
0.7272727272727272
 40
0.7727272727272726
 40
0.7727272727272726
 40
0.7727272727272726
 40
0.7727272727272726
 40
0.818181818181818
 40
0.818181818181818
 40
0.818181818181818
 40
0.818181818181818
 40
0.8636363636363634
 40
0.8636363636363634
 40
0.8636363636363634
 40
0.8636363636363634
 40
0.9090909090909088
 40
0.9090909090909088
 40
0.9090909090909088
 40
0.9090909090909088
 40
0.9545454545454543
 40
0.9545454545454543
 40
0.9545454545454543
 40
0.9545454545454543
 40
1.0
 40
1.0
 40
1.0
 40
1.0
 10
-16.89127165354331
 20
10.0586968503937
 30
0.0
 10
-16.89127165354331
 20
10.0586968503937
 30
0.0
 10
-16.88101181102362
 20
10.05956692913386
 30
0.0
 10
-16.88101181102362
 20
10.05956692913386
 30
0.0
 10
-16.88101181102362
 20
10.05956692913386
 30
0.0
 10
-16.88025196850394
 20
10.05456692913386
 30
0.0
 10
-16.87849212598425
 20
10.05082677165354
 30
0.0
 10
-16.87573228346457
 20
10.04830708661417
 30
0.0
 10
-16.87573228346457
 20
10.04830708661417
 30
0.0
 10
-16.87295669291339
 20
10.0457874015748
 30
0.0
 10
-16.86962204724409
 20
10.04452755905512
 30
0.0
 10
-16.86571653543307
 20
10.04452755905512
 30
0.0
 10
-16.86571653543307
 20
10.04452755905512
 30
0.0
 10
-16.86101181102362
 20
10.04452755905512
 30
0.0
 10
-16.85703149606299
 20
10.04630708661417
 30
0.0
 10
-16.85379133858268
 20
10.04984251968504
 30
0.0
 10
-16.85379133858268
 20
10.04984251968504
 30
0.0
 10
-16.85053149606299
 20
10.05339763779527
 30
0.0
 10
-16.84890157480315
 20
10.05810236220472
 30
0.0
 10
-16.84890157480315
 20
10.06395275590551
 30
0.0
 10
-16.84890157480315
 20
10.06395275590551
 30
0.0
 10
-16.84890157480315
 20
10.06952755905512
 30
0.0
 10
-16.85045669291339
 20
10.07391732283465
 30
0.0
 10
-16.85358661417323
 20
10.07713779527559
 30
0.0
 10
-16.85358661417323
 20
10.07713779527559
 30
0.0
 10
-16.85671653543307
 20
10.08036220472441
 30
0.0
 10
-16.86080708661417
 20
10.08197244094488
 30
0.0
 10
-16.86588188976378
 20
10.08197244094488
 30
0.0
 10
-16.86588188976378
 20
10.08197244094488
 30
0.0
 10
-16.86903149606299
 20
10.08197244094488
 30
0.0
 10
-16.87186220472441
 20
10.08125196850394
 30
0.0
 10
-16.87440157480315
 20
10.07982677165354
 30
0.0
 10
-16.87440157480315
 20
10.07982677165354
 30
0.0
 10
-16.87693700787402
 20
10.07839763779528
 30
0.0
 10
-16.87891732283465
 20
10.07654724409449
 30
0.0
 10
-16.88036220472441
 20
10.07426771653543
 30
0.0
 10
-16.88036220472441
 20
10.07426771653543
 30
0.0
 10
-16.88036220472441
 20
10.07426771653543
 30
0.0
 10
-16.88953149606299
 20
10.07545275590551
 30
0.0
 10
-16.88953149606299
 20
10.07545275590551
 30
0.0
 10
-16.88953149606299
 20
10.07545275590551
 30
0.0
 10
-16.88953149606299
 20
10.07545275590551
 30
0.0
 10
-16.88182677165354
 20
10.11630708661417
 30
0.0
 10
-16.88182677165354
 20
10.11630708661417
 30
0.0
 10
-16.88182677165354
 20
10.11630708661417
 30
0.0
 10
-16.88182677165354
 20
10.11630708661417
 30
0.0
 10
-16.84227165354331
 20
10.11630708661417
 30
0.0
 10
-16.84227165354331
 20
10.11630708661417
 30
0.0
 10
-16.84227165354331
 20
10.11630708661417
 30
0.0
 10
-16.84227165354331
 20
10.11630708661417
 30
0.0
 10
-16.84227165354331
 20
10.10697244094488
 30
0.0
 10
-16.84227165354331
 20
10.10697244094488
 30
0.0
 10
-16.84227165354331
 20
10.10697244094488
 30
0.0
 10
-16.84227165354331
 20
10.10697244094488
 30
0.0
 10
-16.87401181102362
 20
10.10697244094488
 30
0.0
 10
-16.87401181102362
 20
10.10697244094488
 30
0.0
 10
-16.87401181102362
 20
10.10697244094488
 30
0.0
 10
-16.87401181102362
 20
10.10697244094488
 30
0.0
 10
-16.87830708661417
 20
10.08560236220472
 30
0.0
 10
-16.87830708661417
 20
10.08560236220472
 30
0.0
 10
-16.87830708661417
 20
10.08560236220472
 30
0.0
 10
-16.87353149606299
 20
10.08893700787402
 30
0.0
 10
-16.86851181102362
 20
10.09060236220472
 30
0.0
 10
-16.86327165354331
 20
10.09060236220472
 30
0.0
 10
-16.86327165354331
 20
10.09060236220472
 30
0.0
 10
-16.85632677165354
 20
10.09060236220472
 30
0.0
 10
-16.85047637795276
 20
10.0881968503937
 30
0.0
 10
-16.8456968503937
 20
10.08338188976378
 30
0.0
 10
-16.8456968503937
 20
10.08338188976378
 30
0.0
 10
-16.84092125984252
 20
10.07856692913386
 30
0.0
 10
-16.83853149606299
 20
10.07238188976378
 30
0.0
 10
-16.83853149606299
 20
10.06482677165354
 30
0.0
 10
-16.83853149606299
 20
10.06482677165354
 30
0.0
 10
-16.83853149606299
 20
10.0576220472441
 30
0.0
 10
-16.84064173228347
 20
10.05139763779528
 30
0.0
 10
-16.84482677165354
 20
10.04615748031496
 30
0.0
 10
-16.84482677165354
 20
10.04615748031496
 30
0.0
 10
-16.84993700787401
 20
10.03973228346457
 30
0.0
 10
-16.85690157480315
 20
10.03651181102362
 30
0.0
 10
-16.86571653543307
 20
10.03651181102362
 30
0.0
 10
-16.86571653543307
 20
10.03651181102362
 30
0.0
 10
-16.87295669291339
 20
10.03651181102362
 30
0.0
 10
-16.87886220472441
 20
10.03852755905512
 30
0.0
 10
-16.88343700787402
 20
10.04258267716535
 30
0.0
 10
-16.88343700787402
 20
10.04258267716535
 30
0.0
 10
-16.88801181102362
 20
10.04664173228347
 30
0.0
 10
-16.89062204724409
 20
10.05201181102362
 30
0.0
 10
-16.89127165354331
 20
10.0586968503937
 30
0.0
  0
SPLINE
  5
98
330
1F
100
AcDbEntity
  8
Layer 1
 62
   250
100
AcDbSpline
210
0.0
220
0.0
230
1.0
 70
    11
 71
     3
 72
    52
 73
    48
 74
     0
 42
0.0000000001
 43
0.0000000001
 40
0.0
 40
0.0
 40
0.0
 40
0.0
 40
0.0833333333333333
 40
0.0833333333333333
 40
0.0833333333333333
 40
0.0833333333333333
 40
0.1666666666666667
 40
0.1666666666666667
 40
0.1666666666666667
 40
0.1666666666666667
 40
0.25
 40
0.25
 40
0.25
 40
0.25
 40
0.3333333333333333
 40
0.3333333333333333
 40
0.3333333333333333
 40
0.3333333333333333
 40
0.4166666666666666
 40
0.4166666666666666
 40
0.4166666666666666
 40
0.4166666666666666
 40
0.4999999999999999
 40
0.4999999999999999
 40
0.4999999999999999
 40
0.4999999999999999
 40
0.5833333333333333
 40
0.5833333333333333
 40
0.5833333333333333
 40
0.5833333333333333
 40
0.6666666666666666
 40
0.6666666666666666
 40
0.6666666666666666
 40
0.6666666666666666
 40
0.75
 40
0.75
 40
0.75
 40
0.75
 40
0.8333333333333334
 40
0.8333333333333334
 40
0.8333333333333334
 40
0.8333333333333334
 40
0.9166666666666667
 40
0.9166666666666667
 40
0.9166666666666667
 40
0.9166666666666667
 40
1.0
 40
1.0
 40
1.0
 40
1.0
 10
-16.82947637795275
 20
10.07708267716535
 30
0.0
 10
-16.82947637795275
 20
10.08649212598425
 30
0.0
 10
-16.82851181102362
 20
10.09406692913386
 30
0.0
 10
-16.82656692913386
 20
10.0997874015748
 30
0.0
 10
-16.82656692913386
 20
10.0997874015748
 30
0.0
 10
-16.82464173228346
 20
10.10552755905512
 30
0.0
 10
-16.82175196850394
 20
10.10995275590551
 30
0.0
 10
-16.81793700787401
 20
10.11306692913386
 30
0.0
 10
-16.81793700787401
 20
10.11306692913386
 30
0.0
 10
-16.81412204724409
 20
10.11617716535433
 30
0.0
 10
-16.80932677165355
 20
10.11773228346457
 30
0.0
 10
-16.80355118110236
 20
10.11773228346457
 30
0.0
 10
-16.80355118110236
 20
10.11773228346457
 30
0.0
 10
-16.79927165354331
 20
10.11773228346457
 30
0.0
 10
-16.79553149606299
 20
10.11686220472441
 30
0.0
 10
-16.79231102362205
 20
10.11513779527559
 30
0.0
 10
-16.79231102362205
 20
10.11513779527559
 30
0.0
 10
-16.78908661417323
 20
10.11343700787402
 30
0.0
 10
-16.78643700787402
 20
10.11095275590551
 30
0.0
 10
-16.78432677165354
 20
10.1077125984252
 30
0.0
 10
-16.78432677165354
 20
10.1077125984252
 30
0.0
 10
-16.78223622047244
 20
10.10447244094488
 30
0.0
 10
-16.78058661417323
 20
10.10052755905512
 30
0.0
 10
-16.77940157480315
 20
10.09588188976378
 30
0.0
 10
-16.77940157480315
 20
10.09588188976378
 30
0.0
 10
-16.7781968503937
 20
10.09123228346457
 30
0.0
 10
-16.7776062992126
 20
10.08497244094488
 30
0.0
 10
-16.7776062992126
 20
10.07708267716535
 30
0.0
 10
-16.7776062992126
 20
10.07708267716535
 30
0.0
 10
-16.7776062992126
 20
10.06775196850394
 30
0.0
 10
-16.77856692913386
 20
10.06023228346457
 30
0.0
 10
-16.78047637795276
 20
10.05449212598425
 30
0.0
 10
-16.78047637795276
 20
10.05449212598425
 30
0.0
 10
-16.78240157480315
 20
10.04875196850394
 30
0.0
 10
-16.78527165354331
 20
10.04432677165354
 30
0.0
 10
-16.78908661417323
 20
10.0411968503937
 30
0.0
 10
-16.78908661417323
 20
10.0411968503937
 30
0.0
 10
-16.79290157480315
 20
10.03806692913386
 30
0.0
 10
-16.79771653543307
 20
10.03651181102362
 30
0.0
 10
-16.80355118110236
 20
10.03651181102362
 30
0.0
 10
-16.80355118110236
 20
10.03651181102362
 30
0.0
 10
-16.81121653543307
 20
10.03651181102362
 30
0.0
 10
-16.81723622047244
 20
10.03925196850394
 30
0.0
 10
-16.8216062992126
 20
10.04475196850394
 30
0.0
 10
-16.8216062992126
 20
10.04475196850394
 30
0.0
 10
-16.82684645669291
 20
10.05136220472441
 30
0.0
 10
-16.82947637795275
 20
10.06215748031496
 30
0.0
 10
-16.82947637795275
 20
10.07708267716535
 30
0.0
  0
SPLINE
  5
99
330
1F
100
AcDbEntity
  8
Layer 1
 62
   250
100
AcDbSpline
210
0.0
220
0.0
230
1.0
 70
    11
 71
     3
 72
    36
 73
    32
 74
     0
 42
0.0000000001
 43
0.0000000001
 40
0.0
 40
0.0
 40
0.0
 40
0.0
 40
0.125
 40
0.125
 40
0.125
 40
0.125
 40
0.25
 40
0.25
 40
0.25
 40
0.25
 40
0.375
 40
0.375
 40
0.375
 40
0.375
 40
0.5
 40
0.5
 40
0.5
 40
0.5
 40
0.625
 40
0.625
 40
0.625
 40
0.625
 40
0.75
 40
0.75
 40
0.75
 40
0.75
 40
0.875
 40
0.875
 40
0.875
 40
0.875
 40
1.0
 40
1.0
 40
1.0
 40
1.0
 10
-16.81943700787401
 20
10.07708267716535
 30
0.0
 10
-16.81943700787401
 20
10.06402755905512
 30
0.0
 10
-16.81790157480315
 20
10.05534251968504
 30
0.0
 10
-16.81484645669291
 20
10.05101181102362
 30
0.0
 10
-16.81484645669291
 20
10.05101181102362
 30
0.0
 10
-16.81179133858268
 20
10.0466968503937
 30
0.0
 10
-16.80803149606299
 20
10.04452755905512
 30
0.0
 10
-16.80355118110236
 20
10.04452755905512
 30
0.0
 10
-16.80355118110236
 20
10.04452755905512
 30
0.0
 10
-16.79905118110236
 20
10.04452755905512
 30
0.0
 10
-16.79529133858268
 20
10.0467125984252
 30
0.0
 10
-16.79223622047244
 20
10.05104724409449
 30
0.0
 10
-16.79223622047244
 20
10.05104724409449
 30
0.0
 10
-16.7891811023622
 20
10.05538188976378
 30
0.0
 10
-16.78764173228346
 20
10.06406692913386
 30
0.0
 10
-16.78764173228346
 20
10.07708267716535
 30
0.0
 10
-16.78764173228346
 20
10.07708267716535
 30
0.0
 10
-16.78764173228346
 20
10.09017716535433
 30
0.0
 10
-16.7891811023622
 20
10.09888188976378
 30
0.0
 10
-16.79223622047244
 20
10.10317716535433
 30
0.0
 10
-16.79223622047244
 20
10.10317716535433
 30
0.0
 10
-16.79529133858268
 20
10.10749212598425
 30
0.0
 10
-16.79908661417323
 20
10.10963779527559
 30
0.0
 10
-16.80364173228346
 20
10.10963779527559
 30
0.0
 10
-16.80364173228346
 20
10.10963779527559
 30
0.0
 10
-16.80814173228346
 20
10.10963779527559
 30
0.0
 10
-16.81171653543307
 20
10.10773228346457
 30
0.0
 10
-16.81440157480315
 20
10.10393700787402
 30
0.0
 10
-16.81440157480315
 20
10.10393700787402
 30
0.0
 10
-16.81775196850394
 20
10.09910236220473
 30
0.0
 10
-16.81943700787401
 20
10.09013779527559
 30
0.0
 10
-16.81943700787401
 20
10.07708267716535
 30
0.0
  0
SPLINE
  5
9A
330
1F
100
AcDbEntity
  8
Layer 1
 62
   250
100
AcDbSpline
210
0.0
220
0.0
230
1.0
 70
    11
 71
     3
 72
    68
 73
    64
 74
     0
 42
0.0000000001
 43
0.0000000001
 40
0.0
 40
0.0
 40
0.0
 40
0.0
 40
0.0625
 40
0.0625
 40
0.0625
 40
0.0625
 40
0.125
 40
0.125
 40
0.125
 40
0.125
 40
0.1875
 40
0.1875
 40
0.1875
 40
0.1875
 40
0.25
 40
0.25
 40
0.25
 40
0.25
 40
0.3125
 40
0.3125
 40
0.3125
 40
0.3125
 40
0.375
 40
0.375
 40
0.375
 40
0.375
 40
0.4375
 40
0.4375
 40
0.4375
 40
0.4375
 40
0.5
 40
0.5
 40
0.5
 40
0.5
 40
0.5625
 40
0.5625
 40
0.5625
 40
0.5625
 40
0.625
 40
0.625
 40
0.625
 40
0.625
 40
0.6875
 40
0.6875
 40
0.6875
 40
0.6875
 40
0.75
 40
0.75
 40
0.75
 40
0.75
 40
0.8125
 40
0.8125
 40
0.8125
 40
0.8125
 40
0.875
 40
0.875
 40
0.875
 40
0.875
 40
0.9375
 40
0.9375
 40
0.9375
 40
0.9375
 40
1.0
 40
1.0
 40
1.0
 40
1.0
 10
-16.75264173228346
 20
10.08099212598425
 30
0.0
 10
-16.75670078740157
 20
10.08247244094488
 30
0.0
 10
-16.75970078740157
 20
10.08458267716535
 30
0.0
 10
-16.76166141732283
 20
10.08734251968504
 30
0.0
 10
-16.76166141732283
 20
10.08734251968504
 30
0.0
 10
-16.7636062992126
 20
10.09008267716535
 30
0.0
 10
-16.76458661417323
 20
10.09338188976378
 30
0.0
 10
-16.76458661417323
 20
10.0972125984252
 30
0.0
 10
-16.76458661417323
 20
10.0972125984252
 30
0.0
 10
-16.76458661417323
 20
10.10300787401575
 30
0.0
 10
-16.76251181102362
 20
10.10786220472441
 30
0.0
 10
-16.75834645669291
 20
10.11180708661417
 30
0.0
 10
-16.75834645669291
 20
10.11180708661417
 30
0.0
 10
-16.7541811023622
 20
10.11575196850394
 30
0.0
 10
-16.74866141732284
 20
10.11773228346457
 30
0.0
 10
-16.74175590551181
 20
10.11773228346457
 30
0.0
 10
-16.74175590551181
 20
10.11773228346457
 30
0.0
 10
-16.73481102362205
 20
10.11773228346457
 30
0.0
 10
-16.72921653543307
 20
10.1157125984252
 30
0.0
 10
-16.72497637795276
 20
10.11167716535433
 30
0.0
 10
-16.72497637795276
 20
10.11167716535433
 30
0.0
 10
-16.72075590551181
 20
10.10763779527559
 30
0.0
 10
-16.71864173228347
 20
10.10273228346457
 30
0.0
 10
-16.71864173228347
 20
10.09693700787402
 30
0.0
 10
-16.71864173228347
 20
10.09693700787402
 30
0.0
 10
-16.71864173228347
 20
10.09325196850394
 30
0.0
 10
-16.7196062992126
 20
10.09004724409449
 30
0.0
 10
-16.72153149606299
 20
10.08730708661417
 30
0.0
 10
-16.72153149606299
 20
10.08730708661417
 30
0.0
 10
-16.72347637795276
 20
10.08458267716535
 30
0.0
 10
-16.72640157480315
 20
10.08247244094488
 30
0.0
 10
-16.73034645669291
 20
10.08099212598425
 30
0.0
 10
-16.73034645669291
 20
10.08099212598425
 30
0.0
 10
-16.72547637795276
 20
10.07939763779528
 30
0.0
 10
-16.72175590551181
 20
10.07684251968504
 30
0.0
 10
-16.71920078740158
 20
10.0732874015748
 30
0.0
 10
-16.71920078740158
 20
10.0732874015748
 30
0.0
 10
-16.71666141732284
 20
10.06975196850394
 30
0.0
 10
-16.71538582677166
 20
10.06551181102362
 30
0.0
 10
-16.71538582677166
 20
10.06060236220472
 30
0.0
 10
-16.71538582677166
 20
10.06060236220472
 30
0.0
 10
-16.71538582677166
 20
10.0537874015748
 30
0.0
 10
-16.71779133858268
 20
10.04808267716535
 30
0.0
 10
-16.72258661417323
 20
10.04345669291339
 30
0.0
 10
-16.72258661417323
 20
10.04345669291339
 30
0.0
 10
-16.72740157480315
 20
10.03882677165354
 30
0.0
 10
-16.73373622047244
 20
10.03651181102362
 30
0.0
 10
-16.74158661417323
 20
10.03651181102362
 30
0.0
 10
-16.74158661417323
 20
10.03651181102362
 30
0.0
 10
-16.74944094488189
 20
10.03651181102362
 30
0.0
 10
-16.75575590551181
 20
10.03882677165354
 30
0.0
 10
-16.76057086614173
 20
10.04347244094488
 30
0.0
 10
-16.76057086614173
 20
10.04347244094488
 30
0.0
 10
-16.76538582677165
 20
10.04812204724409
 30
0.0
 10
-16.76779133858268
 20
10.05391732283465
 30
0.0
 10
-16.76779133858268
 20
10.06086220472441
 30
0.0
 10
-16.76779133858268
 20
10.06086220472441
 30
0.0
 10
-16.76779133858268
 20
10.06602755905512
 30
0.0
 10
-16.76647637795276
 20
10.07036220472441
 30
0.0
 10
-16.76384645669291
 20
10.07386220472441
 30
0.0
 10
-16.76384645669291
 20
10.07386220472441
 30
0.0
 10
-16.76123622047244
 20
10.07734251968504
 30
0.0
 10
-16.75749606299213
 20
10.07973228346457
 30
0.0
 10
-16.75264173228346
 20
10.08099212598425
 30
0.0
  0
SPLINE
  5
9B
330
1F
100
AcDbEntity
  8
Layer 1
 62
   250
100
AcDbSpline
210
0.0
220
0.0
230
1.0
 70
    11
 71
     3
 72
    36
 73
    32
 74
     0
 42
0.0000000001
 43
0.0000000001
 40
0.0
 40
0.0
 40
0.0
 40
0.0
 40
0.125
 40
0.125
 40
0.125
 40
0.125
 40
0.25
 40
0.25
 40
0.25
 40
0.25
 40
0.375
 40
0.375
 40
0.375
 40
0.375
 40
0.5
 40
0.5
 40
0.5
 40
0.5
 40
0.625
 40
0.625
 40
0.625
 40
0.625
 40
0.75
 40
0.75
 40
0.75
 40
0.75
 40
0.875
 40
0.875
 40
0.875
 40
0.875
 40
1.0
 40
1.0
 40
1.0
 40
1.0
 10
-16.7546062992126
 20
10.09754724409449
 30
0.0
 10
-16.7546062992126
 20
10.0937874015748
 30
0.0
 10
-16.75338582677165
 20
10.0907125984252
 30
0.0
 10
-16.75097637795276
 20
10.08832283464567
 30
0.0
 10
-16.75097637795276
 20
10.08832283464567
 30
0.0
 10
-16.74855118110236
 20
10.08593700787402
 30
0.0
 10
-16.74540157480315
 20
10.08473228346457
 30
0.0
 10
-16.74153149606299
 20
10.08473228346457
 30
0.0
 10
-16.74153149606299
 20
10.08473228346457
 30
0.0
 10
-16.73777165354331
 20
10.08473228346457
 30
0.0
 10
-16.73468110236221
 20
10.08591732283465
 30
0.0
 10
-16.73227165354331
 20
10.0882874015748
 30
0.0
 10
-16.73227165354331
 20
10.0882874015748
 30
0.0
 10
-16.72986614173228
 20
10.09065748031496
 30
0.0
 10
-16.72868110236221
 20
10.09356692913386
 30
0.0
 10
-16.72868110236221
 20
10.09699212598425
 30
0.0
 10
-16.72868110236221
 20
10.09699212598425
 30
0.0
 10
-16.72868110236221
 20
10.10058267716535
 30
0.0
 10
-16.72990157480315
 20
10.10358267716535
 30
0.0
 10
-16.73238582677165
 20
10.10602755905512
 30
0.0
 10
-16.73238582677165
 20
10.10602755905512
 30
0.0
 10
-16.73486614173228
 20
10.10847244094488
 30
0.0
 10
-16.73794094488189
 20
10.1096968503937
 30
0.0
 10
-16.74164173228347
 20
10.1096968503937
 30
0.0
 10
-16.74164173228347
 20
10.1096968503937
 30
0.0
 10
-16.74536614173228
 20
10.1096968503937
 30
0.0
 10
-16.74845669291339
 20
10.10849212598425
 30
0.0
 10
-16.75092125984252
 20
10.10612204724409
 30
0.0
 10
-16.75092125984252
 20
10.10612204724409
 30
0.0
 10
-16.75338582677165
 20
10.10373228346457
 30
0.0
 10
-16.7546062992126
 20
10.10086220472441
 30
0.0
 10
-16.7546062992126
 20
10.09754724409449
 30
0.0
  0
SPLINE
  5
9C
330
1F
100
AcDbEntity
  8
Layer 1
 62
   250
100
AcDbSpline
210
0.0
220
0.0
230
1.0
 70
    11
 71
     3
 72
    40
 73
    36
 74
     0
 42
0.0000000001
 43
0.0000000001
 40
0.0
 40
0.0
 40
0.0
 40
0.0
 40
0.1111111111111111
 40
0.1111111111111111
 40
0.1111111111111111
 40
0.1111111111111111
 40
0.2222222222222222
 40
0.2222222222222222
 40
0.2222222222222222
 40
0.2222222222222222
 40
0.3333333333333333
 40
0.3333333333333333
 40
0.3333333333333333
 40
0.3333333333333333
 40
0.4444444444444444
 40
0.4444444444444444
 40
0.4444444444444444
 40
0.4444444444444444
 40
0.5555555555555556
 40
0.5555555555555556
 40
0.5555555555555556
 40
0.5555555555555556
 40
0.6666666666666667
 40
0.6666666666666667
 40
0.6666666666666667
 40
0.6666666666666667
 40
0.7777777777777779
 40
0.7777777777777779
 40
0.7777777777777779
 40
0.7777777777777779
 40
0.8888888888888891
 40
0.8888888888888891
 40
0.8888888888888891
 40
0.8888888888888891
 40
1.0
 40
1.0
 40
1.0
 40
1.0
 10
-16.75775590551181
 20
10.06080708661417
 30
0.0
 10
-16.75775590551181
 20
10.05802755905512
 30
0.0
 10
-16.75708661417323
 20
10.05532677165354
 30
0.0
 10
-16.75577165354331
 20
10.05273228346457
 30
0.0
 10
-16.75577165354331
 20
10.05273228346457
 30
0.0
 10
-16.75445669291339
 20
10.05012204724409
 30
0.0
 10
-16.75249606299213
 20
10.04810236220472
 30
0.0
 10
-16.74988582677165
 20
10.04667716535433
 30
0.0
 10
-16.74988582677165
 20
10.04667716535433
 30
0.0
 10
-16.74727165354331
 20
10.04525196850394
 30
0.0
 10
-16.74447637795276
 20
10.04452755905512
 30
0.0
 10
-16.74147637795276
 20
10.04452755905512
 30
0.0
 10
-16.74147637795276
 20
10.04452755905512
 30
0.0
 10
-16.73681102362205
 20
10.04452755905512
 30
0.0
 10
-16.73295669291339
 20
10.04602755905512
 30
0.0
 10
-16.72992125984252
 20
10.04904724409449
 30
0.0
 10
-16.72992125984252
 20
10.04904724409449
 30
0.0
 10
-16.72688582677165
 20
10.05204724409449
 30
0.0
 10
-16.72536614173228
 20
10.05586220472441
 30
0.0
 10
-16.72536614173228
 20
10.06049212598425
 30
0.0
 10
-16.72536614173228
 20
10.06049212598425
 30
0.0
 10
-16.72536614173228
 20
10.0651968503937
 30
0.0
 10
-16.72692125984252
 20
10.06908267716535
 30
0.0
 10
-16.73005118110236
 20
10.07215748031496
 30
0.0
 10
-16.73005118110236
 20
10.07215748031496
 30
0.0
 10
-16.73318110236221
 20
10.07523228346457
 30
0.0
 10
-16.7371062992126
 20
10.07676771653543
 30
0.0
 10
-16.74181102362205
 20
10.07676771653543
 30
0.0
 10
-16.74181102362205
 20
10.07676771653543
 30
0.0
 10
-16.74640157480315
 20
10.07676771653543
 30
0.0
 10
-16.75020078740157
 20
10.07525196850394
 30
0.0
 10
-16.75321653543307
 20
10.0722125984252
 30
0.0
 10
-16.75321653543307
 20
10.0722125984252
 30
0.0
 10
-16.75623622047244
 20
10.06915748031496
 30
0.0
 10
-16.75775590551181
 20
10.06536220472441
 30
0.0
 10
-16.75775590551181
 20
10.06080708661417
 30
0.0
  0
SPLINE
  5
9D
330
1F
100
AcDbEntity
  8
Layer 1
 62
   250
100
AcDbSpline
210
0.0
220
0.0
230
1.0
 70
    11
 71
     3
 72
    68
 73
    64
 74
     0
 42
0.0000000001
 43
0.0000000001
 40
0.0
 40
0.0
 40
0.0
 40
0.0
 40
0.0625
 40
0.0625
 40
0.0625
 40
0.0625
 40
0.125
 40
0.125
 40
0.125
 40
0.125
 40
0.1875
 40
0.1875
 40
0.1875
 40
0.1875
 40
0.25
 40
0.25
 40
0.25
 40
0.25
 40
0.3125
 40
0.3125
 40
0.3125
 40
0.3125
 40
0.375
 40
0.375
 40
0.375
 40
0.375
 40
0.4375
 40
0.4375
 40
0.4375
 40
0.4375
 40
0.5
 40
0.5
 40
0.5
 40
0.5
 40
0.5625
 40
0.5625
 40
0.5625
 40
0.5625
 40
0.625
 40
0.625
 40
0.625
 40
0.625
 40
0.6875
 40
0.6875
 40
0.6875
 40
0.6875
 40
0.75
 40
0.75
 40
0.75
 40
0.75
 40
0.8125
 40
0.8125
 40
0.8125
 40
0.8125
 40
0.875
 40
0.875
 40
0.875
 40
0.875
 40
0.9375
 40
0.9375
 40
0.9375
 40
0.9375
 40
1.0
 40
1.0
 40
1.0
 40
1.0
 10
-16.69084645669291
 20
10.08099212598425
 30
0.0
 10
-16.69490551181102
 20
10.08247244094488
 30
0.0
 10
-16.69790551181102
 20
10.08458267716535
 30
0.0
 10
-16.69986614173228
 20
10.08734251968504
 30
0.0
 10
-16.69986614173228
 20
10.08734251968504
 30
0.0
 10
-16.70181102362205
 20
10.09008267716535
 30
0.0
 10
-16.70279133858268
 20
10.09338188976378
 30
0.0
 10
-16.70279133858268
 20
10.0972125984252
 30
0.0
 10
-16.70279133858268
 20
10.0972125984252
 30
0.0
 10
-16.70279133858268
 20
10.10300787401575
 30
0.0
 10
-16.70071653543307
 20
10.10786220472441
 30
0.0
 10
-16.69655118110236
 20
10.11180708661417
 30
0.0
 10
-16.69655118110236
 20
10.11180708661417
 30
0.0
 10
-16.69238582677165
 20
10.11575196850394
 30
0.0
 10
-16.68686614173228
 20
10.11773228346457
 30
0.0
 10
-16.67996062992126
 20
10.11773228346457
 30
0.0
 10
-16.67996062992126
 20
10.11773228346457
 30
0.0
 10
-16.6730157480315
 20
10.11773228346457
 30
0.0
 10
-16.66742125984252
 20
10.1157125984252
 30
0.0
 10
-16.66318110236221
 20
10.11167716535433
 30
0.0
 10
-16.66318110236221
 20
10.11167716535433
 30
0.0
 10
-16.65896062992126
 20
10.10763779527559
 30
0.0
 10
-16.65684645669291
 20
10.10273228346457
 30
0.0
 10
-16.65684645669291
 20
10.09693700787402
 30
0.0
 10
-16.65684645669291
 20
10.09693700787402
 30
0.0
 10
-16.65684645669291
 20
10.09325196850394
 30
0.0
 10
-16.65781102362205
 20
10.09004724409449
 30
0.0
 10
-16.65973622047244
 20
10.08730708661417
 30
0.0
 10
-16.65973622047244
 20
10.08730708661417
 30
0.0
 10
-16.66168110236221
 20
10.08458267716535
 30
0.0
 10
-16.6646062992126
 20
10.08247244094488
 30
0.0
 10
-16.66855118110236
 20
10.08099212598425
 30
0.0
 10
-16.66855118110236
 20
10.08099212598425
 30
0.0
 10
-16.6636811023622
 20
10.07939763779528
 30
0.0
 10
-16.65996062992126
 20
10.07684251968504
 30
0.0
 10
-16.65740551181102
 20
10.0732874015748
 30
0.0
 10
-16.65740551181102
 20
10.0732874015748
 30
0.0
 10
-16.65486614173228
 20
10.06975196850394
 30
0.0
 10
-16.6535905511811
 20
10.06551181102362
 30
0.0
 10
-16.6535905511811
 20
10.06060236220472
 30
0.0
 10
-16.6535905511811
 20
10.06060236220472
 30
0.0
 10
-16.6535905511811
 20
10.0537874015748
 30
0.0
 10
-16.65599606299213
 20
10.04808267716535
 30
0.0
 10
-16.66079133858268
 20
10.04345669291339
 30
0.0
 10
-16.66079133858268
 20
10.04345669291339
 30
0.0
 10
-16.6656062992126
 20
10.03882677165354
 30
0.0
 10
-16.67194094488189
 20
10.03651181102362
 30
0.0
 10
-16.67979133858268
 20
10.03651181102362
 30
0.0
 10
-16.67979133858268
 20
10.03651181102362
 30
0.0
 10
-16.68764566929134
 20
10.03651181102362
 30
0.0
 10
-16.69396062992126
 20
10.03882677165354
 30
0.0
 10
-16.69877559055118
 20
10.04347244094488
 30
0.0
 10
-16.69877559055118
 20
10.04347244094488
 30
0.0
 10
-16.7035905511811
 20
10.04812204724409
 30
0.0
 10
-16.70599606299212
 20
10.05391732283465
 30
0.0
 10
-16.70599606299212
 20
10.06086220472441
 30
0.0
 10
-16.70599606299212
 20
10.06086220472441
 30
0.0
 10
-16.70599606299212
 20
10.06602755905512
 30
0.0
 10
-16.7046811023622
 20
10.07036220472441
 30
0.0
 10
-16.70205118110236
 20
10.07386220472441
 30
0.0
 10
-16.70205118110236
 20
10.07386220472441
 30
0.0
 10
-16.69944094488189
 20
10.07734251968504
 30
0.0
 10
-16.69570078740157
 20
10.07973228346457
 30
0.0
 10
-16.69084645669291
 20
10.08099212598425
 30
0.0
  0
SPLINE
  5
9E
330
1F
100
AcDbEntity
  8
Layer 1
 62
   250
100
AcDbSpline
210
0.0
220
0.0
230
1.0
 70
    11
 71
     3
 72
    36
 73
    32
 74
     0
 42
0.0000000001
 43
0.0000000001
 40
0.0
 40
0.0
 40
0.0
 40
0.0
 40
0.125
 40
0.125
 40
0.125
 40
0.125
 40
0.25
 40
0.25
 40
0.25
 40
0.25
 40
0.375
 40
0.375
 40
0.375
 40
0.375
 40
0.5
 40
0.5
 40
0.5
 40
0.5
 40
0.625
 40
0.625
 40
0.625
 40
0.625
 40
0.75
 40
0.75
 40
0.75
 40
0.75
 40
0.875
 40
0.875
 40
0.875
 40
0.875
 40
1.0
 40
1.0
 40
1.0
 40
1.0
 10
-16.69281102362205
 20
10.09754724409449
 30
0.0
 10
-16.69281102362205
 20
10.0937874015748
 30
0.0
 10
-16.6915905511811
 20
10.0907125984252
 30
0.0
 10
-16.68918110236221
 20
10.08832283464567
 30
0.0
 10
-16.68918110236221
 20
10.08832283464567
 30
0.0
 10
-16.68675590551181
 20
10.08593700787402
 30
0.0
 10
-16.6836062992126
 20
10.08473228346457
 30
0.0
 10
-16.67973622047244
 20
10.08473228346457
 30
0.0
 10
-16.67973622047244
 20
10.08473228346457
 30
0.0
 10
-16.67597637795276
 20
10.08473228346457
 30
0.0
 10
-16.67288582677165
 20
10.08591732283465
 30
0.0
 10
-16.67047637795276
 20
10.0882874015748
 30
0.0
 10
-16.67047637795276
 20
10.0882874015748
 30
0.0
 10
-16.66807086614173
 20
10.09065748031496
 30
0.0
 10
-16.66688582677165
 20
10.09356692913386
 30
0.0
 10
-16.66688582677165
 20
10.09699212598425
 30
0.0
 10
-16.66688582677165
 20
10.09699212598425
 30
0.0
 10
-16.66688582677165
 20
10.10058267716535
 30
0.0
 10
-16.6681062992126
 20
10.10358267716535
 30
0.0
 10
-16.6705905511811
 20
10.10602755905512
 30
0.0
 10
-16.6705905511811
 20
10.10602755905512
 30
0.0
 10
-16.67307086614173
 20
10.10847244094488
 30
0.0
 10
-16.67614566929134
 20
10.1096968503937
 30
0.0
 10
-16.67984645669291
 20
10.1096968503937
 30
0.0
 10
-16.67984645669291
 20
10.1096968503937
 30
0.0
 10
-16.68357086614173
 20
10.1096968503937
 30
0.0
 10
-16.68666141732283
 20
10.10849212598425
 30
0.0
 10
-16.68912598425197
 20
10.10612204724409
 30
0.0
 10
-16.68912598425197
 20
10.10612204724409
 30
0.0
 10
-16.6915905511811
 20
10.10373228346457
 30
0.0
 10
-16.69281102362205
 20
10.10086220472441
 30
0.0
 10
-16.69281102362205
 20
10.09754724409449
 30
0.0
  0
SPLINE
  5
9F
330
1F
100
AcDbEntity
  8
Layer 1
 62
   250
100
AcDbSpline
210
0.0
220
0.0
230
1.0
 70
    11
 71
     3
 72
    40
 73
    36
 74
     0
 42
0.0000000001
 43
0.0000000001
 40
0.0
 40
0.0
 40
0.0
 40
0.0
 40
0.1111111111111111
 40
0.1111111111111111
 40
0.1111111111111111
 40
0.1111111111111111
 40
0.2222222222222222
 40
0.2222222222222222
 40
0.2222222222222222
 40
0.2222222222222222
 40
0.3333333333333333
 40
0.3333333333333333
 40
0.3333333333333333
 40
0.3333333333333333
 40
0.4444444444444444
 40
0.4444444444444444
 40
0.4444444444444444
 40
0.4444444444444444
 40
0.5555555555555556
 40
0.5555555555555556
 40
0.5555555555555556
 40
0.5555555555555556
 40
0.6666666666666667
 40
0.6666666666666667
 40
0.6666666666666667
 40
0.6666666666666667
 40
0.7777777777777779
 40
0.7777777777777779
 40
0.7777777777777779
 40
0.7777777777777779
 40
0.8888888888888891
 40
0.8888888888888891
 40
0.8888888888888891
 40
0.8888888888888891
 40
1.0
 40
1.0
 40
1.0
 40
1.0
 10
-16.69596062992126
 20
10.06080708661417
 30
0.0
 10
-16.69596062992126
 20
10.05802755905512
 30
0.0
 10
-16.69529133858268
 20
10.05532677165354
 30
0.0
 10
-16.69397637795275
 20
10.05273228346457
 30
0.0
 10
-16.69397637795275
 20
10.05273228346457
 30
0.0
 10
-16.69266141732284
 20
10.05012204724409
 30
0.0
 10
-16.69070078740157
 20
10.04810236220472
 30
0.0
 10
-16.6880905511811
 20
10.04667716535433
 30
0.0
 10
-16.6880905511811
 20
10.04667716535433
 30
0.0
 10
-16.68547637795276
 20
10.04525196850394
 30
0.0
 10
-16.68268110236221
 20
10.04452755905512
 30
0.0
 10
-16.67968110236221
 20
10.04452755905512
 30
0.0
 10
-16.67968110236221
 20
10.04452755905512
 30
0.0
 10
-16.67501574803149
 20
10.04452755905512
 30
0.0
 10
-16.67116141732284
 20
10.04602755905512
 30
0.0
 10
-16.66812598425197
 20
10.04904724409449
 30
0.0
 10
-16.66812598425197
 20
10.04904724409449
 30
0.0
 10
-16.6650905511811
 20
10.05204724409449
 30
0.0
 10
-16.66357086614173
 20
10.05586220472441
 30
0.0
 10
-16.66357086614173
 20
10.06049212598425
 30
0.0
 10
-16.66357086614173
 20
10.06049212598425
 30
0.0
 10
-16.66357086614173
 20
10.0651968503937
 30
0.0
 10
-16.66512598425197
 20
10.06908267716535
 30
0.0
 10
-16.66825590551181
 20
10.07215748031496
 30
0.0
 10
-16.66825590551181
 20
10.07215748031496
 30
0.0
 10
-16.67138582677165
 20
10.07523228346457
 30
0.0
 10
-16.67531102362205
 20
10.07676771653543
 30
0.0
 10
-16.6800157480315
 20
10.07676771653543
 30
0.0
 10
-16.6800157480315
 20
10.07676771653543
 30
0.0
 10
-16.6846062992126
 20
10.07676771653543
 30
0.0
 10
-16.68840551181102
 20
10.07525196850394
 30
0.0
 10
-16.69142125984252
 20
10.0722125984252
 30
0.0
 10
-16.69142125984252
 20
10.0722125984252
 30
0.0
 10
-16.69444094488189
 20
10.06915748031496
 30
0.0
 10
-16.69596062992126
 20
10.06536220472441
 30
0.0
 10
-16.69596062992126
 20
10.06080708661417
 30
0.0
  0
SPLINE
  5
A0
330
1F
100
AcDbEntity
  8
Layer 1
 62
   250
100
AcDbSpline
210
0.0
220
0.0
230
1.0
 70
    11
 71
     3
 72
    40
 73
    36
 74
     0
 42
0.0000000001
 43
0.0000000001
 40
0.0
 40
0.0
 40
0.0
 40
0.0
 40
0.1111111111111111
 40
0.1111111111111111
 40
0.1111111111111111
 40
0.1111111111111111
 40
0.2222222222222222
 40
0.2222222222222222
 40
0.2222222222222222
 40
0.2222222222222222
 40
0.3333333333333333
 40
0.3333333333333333
 40
0.3333333333333333
 40
0.3333333333333333
 40
0.4444444444444444
 40
0.4444444444444444
 40
0.4444444444444444
 40
0.4444444444444444
 40
0.5555555555555556
 40
0.5555555555555556
 40
0.5555555555555556
 40
0.5555555555555556
 40
0.6666666666666667
 40
0.6666666666666667
 40
0.6666666666666667
 40
0.6666666666666667
 40
0.7777777777777779
 40
0.7777777777777779
 40
0.7777777777777779
 40
0.7777777777777779
 40
0.8888888888888891
 40
0.8888888888888891
 40
0.8888888888888891
 40
0.8888888888888891
 40
1.0
 40
1.0
 40
1.0
 40
1.0
 10
-16.55806299212598
 20
10.28139763779528
 30
0.0
 10
-16.55806299212598
 20
10.28139763779528
 30
0.0
 10
-16.56782283464567
 20
10.28139763779528
 30
0.0
 10
-16.56782283464567
 20
10.28139763779528
 30
0.0
 10
-16.56782283464567
 20
10.28139763779528
 30
0.0
 10
-16.56782283464567
 20
10.28139763779528
 30
0.0
 10
-16.56782283464567
 20
10.34361811023622
 30
0.0
 10
-16.56782283464567
 20
10.34361811023622
 30
0.0
 10
-16.56782283464567
 20
10.34361811023622
 30
0.0
 10
-16.57017716535433
 20
10.34137795275591
 30
0.0
 10
-16.57324803149606
 20
10.33913779527559
 30
0.0
 10
-16.57706299212598
 20
10.33689763779527
 30
0.0
 10
-16.57706299212598
 20
10.33689763779527
 30
0.0
 10
-16.58089763779527
 20
10.33465748031496
 30
0.0
 10
-16.58432283464567
 20
10.33297244094488
 30
0.0
 10
-16.58736220472441
 20
10.33185826771654
 30
0.0
 10
-16.58736220472441
 20
10.33185826771654
 30
0.0
 10
-16.58736220472441
 20
10.33185826771654
 30
0.0
 10
-16.58736220472441
 20
10.3412874015748
 30
0.0
 10
-16.58736220472441
 20
10.3412874015748
 30
0.0
 10
-16.58736220472441
 20
10.3412874015748
 30
0.0
 10
-16.58189763779528
 20
10.34385826771654
 30
0.0
 10
-16.57711811023622
 20
10.34697244094488
 30
0.0
 10
-16.57302755905512
 20
10.35061811023622
 30
0.0
 10
-16.57302755905512
 20
10.35061811023622
 30
0.0
 10
-16.56895275590551
 20
10.3542874015748
 30
0.0
 10
-16.56604724409449
 20
10.35782283464567
 30
0.0
 10
-16.56434251968504
 20
10.36126771653543
 30
0.0
 10
-16.56434251968504
 20
10.36126771653543
 30
0.0
 10
-16.56434251968504
 20
10.36126771653543
 30
0.0
 10
-16.55806299212598
 20
10.36126771653543
 30
0.0
 10
-16.55806299212598
 20
10.36126771653543
 30
0.0
 10
-16.55806299212598
 20
10.36126771653543
 30
0.0
 10
-16.55806299212598
 20
10.36126771653543
 30
0.0
 10
-16.55806299212598
 20
10.28139763779528
 30
0.0
 10
-16.55806299212598
 20
10.28139763779528
 30
0.0
  0
SPLINE
  5
A1
330
1F
100
AcDbEntity
  8
Layer 1
 62
   250
100
AcDbSpline
210
0.0
220
0.0
230
1.0
 70
    11
 71
     3
 72
    52
 73
    48
 74
     0
 42
0.0000000001
 43
0.0000000001
 40
0.0
 40
0.0
 40
0.0
 40
0.0
 40
0.0833333333333333
 40
0.0833333333333333
 40
0.0833333333333333
 40
0.0833333333333333
 40
0.1666666666666667
 40
0.1666666666666667
 40
0.1666666666666667
 40
0.1666666666666667
 40
0.25
 40
0.25
 40
0.25
 40
0.25
 40
0.3333333333333333
 40
0.3333333333333333
 40
0.3333333333333333
 40
0.3333333333333333
 40
0.4166666666666666
 40
0.4166666666666666
 40
0.4166666666666666
 40
0.4166666666666666
 40
0.4999999999999999
 40
0.4999999999999999
 40
0.4999999999999999
 40
0.4999999999999999
 40
0.5833333333333333
 40
0.5833333333333333
 40
0.5833333333333333
 40
0.5833333333333333
 40
0.6666666666666666
 40
0.6666666666666666
 40
0.6666666666666666
 40
0.6666666666666666
 40
0.75
 40
0.75
 40
0.75
 40
0.75
 40
0.8333333333333334
 40
0.8333333333333334
 40
0.8333333333333334
 40
0.8333333333333334
 40
0.9166666666666667
 40
0.9166666666666667
 40
0.9166666666666667
 40
0.9166666666666667
 40
1.0
 40
1.0
 40
1.0
 40
1.0
 10
-16.53304724409449
 20
10.32061811023622
 30
0.0
 10
-16.53304724409449
 20
10.33002755905512
 30
0.0
 10
-16.53208267716536
 20
10.33760236220473
 30
0.0
 10
-16.53013779527559
 20
10.34332283464567
 30
0.0
 10
-16.53013779527559
 20
10.34332283464567
 30
0.0
 10
-16.5282125984252
 20
10.34906299212598
 30
0.0
 10
-16.52532283464567
 20
10.35348818897638
 30
0.0
 10
-16.52150787401575
 20
10.35660236220472
 30
0.0
 10
-16.52150787401575
 20
10.35660236220472
 30
0.0
 10
-16.51769291338583
 20
10.3597125984252
 30
0.0
 10
-16.51289763779528
 20
10.36126771653543
 30
0.0
 10
-16.5071220472441
 20
10.36126771653543
 30
0.0
 10
-16.5071220472441
 20
10.36126771653543
 30
0.0
 10
-16.50284251968504
 20
10.36126771653543
 30
0.0
 10
-16.49910236220472
 20
10.36039763779528
 30
0.0
 10
-16.49588188976378
 20
10.35867322834646
 30
0.0
 10
-16.49588188976378
 20
10.35867322834646
 30
0.0
 10
-16.49265748031496
 20
10.35697244094488
 30
0.0
 10
-16.49000787401575
 20
10.35448818897638
 30
0.0
 10
-16.48789763779527
 20
10.35124803149606
 30
0.0
 10
-16.48789763779527
 20
10.35124803149606
 30
0.0
 10
-16.48580708661417
 20
10.34800787401575
 30
0.0
 10
-16.48415748031496
 20
10.34406299212598
 30
0.0
 10
-16.48297244094488
 20
10.33941732283465
 30
0.0
 10
-16.48297244094488
 20
10.33941732283465
 30
0.0
 10
-16.48176771653543
 20
10.33476771653543
 30
0.0
 10
-16.48117716535433
 20
10.32850787401575
 30
0.0
 10
-16.48117716535433
 20
10.32061811023622
 30
0.0
 10
-16.48117716535433
 20
10.32061811023622
 30
0.0
 10
-16.48117716535433
 20
10.3112874015748
 30
0.0
 10
-16.48213779527559
 20
10.30376771653543
 30
0.0
 10
-16.48404724409449
 20
10.29802755905512
 30
0.0
 10
-16.48404724409449
 20
10.29802755905512
 30
0.0
 10
-16.48597244094488
 20
10.2922874015748
 30
0.0
 10
-16.48884251968504
 20
10.28786220472441
 30
0.0
 10
-16.49265748031496
 20
10.28473228346457
 30
0.0
 10
-16.49265748031496
 20
10.28473228346457
 30
0.0
 10
-16.49647244094488
 20
10.28160236220472
 30
0.0
 10
-16.5012874015748
 20
10.28004724409449
 30
0.0
 10
-16.5071220472441
 20
10.28004724409449
 30
0.0
 10
-16.5071220472441
 20
10.28004724409449
 30
0.0
 10
-16.5147874015748
 20
10.28004724409449
 30
0.0
 10
-16.52080708661417
 20
10.2827874015748
 30
0.0
 10
-16.52517716535433
 20
10.2882874015748
 30
0.0
 10
-16.52517716535433
 20
10.2882874015748
 30
0.0
 10
-16.53041732283464
 20
10.29489763779528
 30
0.0
 10
-16.53304724409449
 20
10.30569291338583
 30
0.0
 10
-16.53304724409449
 20
10.32061811023622
 30
0.0
  0
SPLINE
  5
A2
330
1F
100
AcDbEntity
  8
Layer 1
 62
   250
100
AcDbSpline
210
0.0
220
0.0
230
1.0
 70
    11
 71
     3
 72
    36
 73
    32
 74
     0
 42
0.0000000001
 43
0.0000000001
 40
0.0
 40
0.0
 40
0.0
 40
0.0
 40
0.125
 40
0.125
 40
0.125
 40
0.125
 40
0.25
 40
0.25
 40
0.25
 40
0.25
 40
0.375
 40
0.375
 40
0.375
 40
0.375
 40
0.5
 40
0.5
 40
0.5
 40
0.5
 40
0.625
 40
0.625
 40
0.625
 40
0.625
 40
0.75
 40
0.75
 40
0.75
 40
0.75
 40
0.875
 40
0.875
 40
0.875
 40
0.875
 40
1.0
 40
1.0
 40
1.0
 40
1.0
 10
-16.52300787401575
 20
10.32061811023622
 30
0.0
 10
-16.52300787401575
 20
10.30756299212598
 30
0.0
 10
-16.52147244094488
 20
10.29887795275591
 30
0.0
 10
-16.51841732283465
 20
10.29454724409449
 30
0.0
 10
-16.51841732283465
 20
10.29454724409449
 30
0.0
 10
-16.51536220472441
 20
10.29023228346457
 30
0.0
 10
-16.51160236220472
 20
10.28806299212598
 30
0.0
 10
-16.5071220472441
 20
10.28806299212598
 30
0.0
 10
-16.5071220472441
 20
10.28806299212598
 30
0.0
 10
-16.5026220472441
 20
10.28806299212598
 30
0.0
 10
-16.49886220472441
 20
10.29024803149606
 30
0.0
 10
-16.49580708661417
 20
10.29458267716536
 30
0.0
 10
-16.49580708661417
 20
10.29458267716536
 30
0.0
 10
-16.49275196850394
 20
10.29891732283465
 30
0.0
 10
-16.4912125984252
 20
10.30760236220472
 30
0.0
 10
-16.4912125984252
 20
10.32061811023622
 30
0.0
 10
-16.4912125984252
 20
10.32061811023622
 30
0.0
 10
-16.4912125984252
 20
10.3337125984252
 30
0.0
 10
-16.49275196850394
 20
10.34241732283465
 30
0.0
 10
-16.49580708661417
 20
10.3467125984252
 30
0.0
 10
-16.49580708661417
 20
10.3467125984252
 30
0.0
 10
-16.49886220472441
 20
10.35102755905512
 30
0.0
 10
-16.50265748031496
 20
10.35317322834646
 30
0.0
 10
-16.5072125984252
 20
10.35317322834646
 30
0.0
 10
-16.5072125984252
 20
10.35317322834646
 30
0.0
 10
-16.5117125984252
 20
10.35317322834646
 30
0.0
 10
-16.5152874015748
 20
10.35126771653543
 30
0.0
 10
-16.51797244094488
 20
10.34747244094488
 30
0.0
 10
-16.51797244094488
 20
10.34747244094488
 30
0.0
 10
-16.52132283464567
 20
10.34263779527559
 30
0.0
 10
-16.52300787401575
 20
10.33367322834646
 30
0.0
 10
-16.52300787401575
 20
10.32061811023622
 30
0.0
  0
SPLINE
  5
A3
330
1F
100
AcDbEntity
  8
Layer 1
 62
   250
100
AcDbSpline
210
0.0
220
0.0
230
1.0
 70
    11
 71
     3
 72
    52
 73
    48
 74
     0
 42
0.0000000001
 43
0.0000000001
 40
0.0
 40
0.0
 40
0.0
 40
0.0
 40
0.0833333333333333
 40
0.0833333333333333
 40
0.0833333333333333
 40
0.0833333333333333
 40
0.1666666666666667
 40
0.1666666666666667
 40
0.1666666666666667
 40
0.1666666666666667
 40
0.25
 40
0.25
 40
0.25
 40
0.25
 40
0.3333333333333333
 40
0.3333333333333333
 40
0.3333333333333333
 40
0.3333333333333333
 40
0.4166666666666666
 40
0.4166666666666666
 40
0.4166666666666666
 40
0.4166666666666666
 40
0.4999999999999999
 40
0.4999999999999999
 40
0.4999999999999999
 40
0.4999999999999999
 40
0.5833333333333333
 40
0.5833333333333333
 40
0.5833333333333333
 40
0.5833333333333333
 40
0.6666666666666666
 40
0.6666666666666666
 40
0.6666666666666666
 40
0.6666666666666666
 40
0.75
 40
0.75
 40
0.75
 40
0.75
 40
0.8333333333333334
 40
0.8333333333333334
 40
0.8333333333333334
 40
0.8333333333333334
 40
0.9166666666666667
 40
0.9166666666666667
 40
0.9166666666666667
 40
0.9166666666666667
 40
1.0
 40
1.0
 40
1.0
 40
1.0
 10
-16.47125196850394
 20
10.32061811023622
 30
0.0
 10
-16.47125196850394
 20
10.33002755905512
 30
0.0
 10
-16.4702874015748
 20
10.33760236220473
 30
0.0
 10
-16.46834251968504
 20
10.34332283464567
 30
0.0
 10
-16.46834251968504
 20
10.34332283464567
 30
0.0
 10
-16.46641732283464
 20
10.34906299212598
 30
0.0
 10
-16.46352755905512
 20
10.35348818897638
 30
0.0
 10
-16.4597125984252
 20
10.35660236220472
 30
0.0
 10
-16.4597125984252
 20
10.35660236220472
 30
0.0
 10
-16.45589763779527
 20
10.3597125984252
 30
0.0
 10
-16.45110236220473
 20
10.36126771653543
 30
0.0
 10
-16.44532677165354
 20
10.36126771653543
 30
0.0
 10
-16.44532677165354
 20
10.36126771653543
 30
0.0
 10
-16.44104724409449
 20
10.36126771653543
 30
0.0
 10
-16.43730708661417
 20
10.36039763779528
 30
0.0
 10
-16.43408661417323
 20
10.35867322834646
 30
0.0
 10
-16.43408661417323
 20
10.35867322834646
 30
0.0
 10
-16.43086220472441
 20
10.35697244094488
 30
0.0
 10
-16.4282125984252
 20
10.35448818897638
 30
0.0
 10
-16.42610236220472
 20
10.35124803149606
 30
0.0
 10
-16.42610236220472
 20
10.35124803149606
 30
0.0
 10
-16.42401181102362
 20
10.34800787401575
 30
0.0
 10
-16.42236220472441
 20
10.34406299212598
 30
0.0
 10
-16.42117716535433
 20
10.33941732283465
 30
0.0
 10
-16.42117716535433
 20
10.33941732283465
 30
0.0
 10
-16.41997244094488
 20
10.33476771653543
 30
0.0
 10
-16.41938188976378
 20
10.32850787401575
 30
0.0
 10
-16.41938188976378
 20
10.32061811023622
 30
0.0
 10
-16.41938188976378
 20
10.32061811023622
 30
0.0
 10
-16.41938188976378
 20
10.3112874015748
 30
0.0
 10
-16.42034251968504
 20
10.30376771653543
 30
0.0
 10
-16.42225196850394
 20
10.29802755905512
 30
0.0
 10
-16.42225196850394
 20
10.29802755905512
 30
0.0
 10
-16.42417716535433
 20
10.2922874015748
 30
0.0
 10
-16.42704724409449
 20
10.28786220472441
 30
0.0
 10
-16.43086220472441
 20
10.28473228346457
 30
0.0
 10
-16.43086220472441
 20
10.28473228346457
 30
0.0
 10
-16.43467716535433
 20
10.28160236220472
 30
0.0
 10
-16.43949212598425
 20
10.28004724409449
 30
0.0
 10
-16.44532677165354
 20
10.28004724409449
 30
0.0
 10
-16.44532677165354
 20
10.28004724409449
 30
0.0
 10
-16.45299212598425
 20
10.28004724409449
 30
0.0
 10
-16.45901181102362
 20
10.2827874015748
 30
0.0
 10
-16.46338188976378
 20
10.2882874015748
 30
0.0
 10
-16.46338188976378
 20
10.2882874015748
 30
0.0
 10
-16.46862204724409
 20
10.29489763779528
 30
0.0
 10
-16.47125196850394
 20
10.30569291338583
 30
0.0
 10
-16.47125196850394
 20
10.32061811023622
 30
0.0
  0
SPLINE
  5
A4
330
1F
100
AcDbEntity
  8
Layer 1
 62
   250
100
AcDbSpline
210
0.0
220
0.0
230
1.0
 70
    11
 71
     3
 72
    36
 73
    32
 74
     0
 42
0.0000000001
 43
0.0000000001
 40
0.0
 40
0.0
 40
0.0
 40
0.0
 40
0.125
 40
0.125
 40
0.125
 40
0.125
 40
0.25
 40
0.25
 40
0.25
 40
0.25
 40
0.375
 40
0.375
 40
0.375
 40
0.375
 40
0.5
 40
0.5
 40
0.5
 40
0.5
 40
0.625
 40
0.625
 40
0.625
 40
0.625
 40
0.75
 40
0.75
 40
0.75
 40
0.75
 40
0.875
 40
0.875
 40
0.875
 40
0.875
 40
1.0
 40
1.0
 40
1.0
 40
1.0
 10
-16.4612125984252
 20
10.32061811023622
 30
0.0
 10
-16.4612125984252
 20
10.30756299212598
 30
0.0
 10
-16.45967716535433
 20
10.29887795275591
 30
0.0
 10
-16.4566220472441
 20
10.29454724409449
 30
0.0
 10
-16.4566220472441
 20
10.29454724409449
 30
0.0
 10
-16.45356692913386
 20
10.29023228346457
 30
0.0
 10
-16.44980708661417
 20
10.28806299212598
 30
0.0
 10
-16.44532677165354
 20
10.28806299212598
 30
0.0
 10
-16.44532677165354
 20
10.28806299212598
 30
0.0
 10
-16.44082677165354
 20
10.28806299212598
 30
0.0
 10
-16.43706692913386
 20
10.29024803149606
 30
0.0
 10
-16.43401181102362
 20
10.29458267716536
 30
0.0
 10
-16.43401181102362
 20
10.29458267716536
 30
0.0
 10
-16.43095669291339
 20
10.29891732283465
 30
0.0
 10
-16.42941732283465
 20
10.30760236220472
 30
0.0
 10
-16.42941732283465
 20
10.32061811023622
 30
0.0
 10
-16.42941732283465
 20
10.32061811023622
 30
0.0
 10
-16.42941732283465
 20
10.3337125984252
 30
0.0
 10
-16.43095669291339
 20
10.34241732283465
 30
0.0
 10
-16.43401181102362
 20
10.3467125984252
 30
0.0
 10
-16.43401181102362
 20
10.3467125984252
 30
0.0
 10
-16.43706692913386
 20
10.35102755905512
 30
0.0
 10
-16.44086220472441
 20
10.35317322834646
 30
0.0
 10
-16.44541732283465
 20
10.35317322834646
 30
0.0
 10
-16.44541732283465
 20
10.35317322834646
 30
0.0
 10
-16.44991732283465
 20
10.35317322834646
 30
0.0
 10
-16.45349212598425
 20
10.35126771653543
 30
0.0
 10
-16.45617716535433
 20
10.34747244094488
 30
0.0
 10
-16.45617716535433
 20
10.34747244094488
 30
0.0
 10
-16.45952755905512
 20
10.34263779527559
 30
0.0
 10
-16.4612125984252
 20
10.33367322834646
 30
0.0
 10
-16.4612125984252
 20
10.32061811023622
 30
0.0
  0
SPLINE
  5
A5
330
1F
100
AcDbEntity
  8
Layer 1
 62
   250
100
AcDbSpline
210
0.0
220
0.0
230
1.0
 70
    11
 71
     3
 72
    52
 73
    48
 74
     0
 42
0.0000000001
 43
0.0000000001
 40
0.0
 40
0.0
 40
0.0
 40
0.0
 40
0.0833333333333333
 40
0.0833333333333333
 40
0.0833333333333333
 40
0.0833333333333333
 40
0.1666666666666667
 40
0.1666666666666667
 40
0.1666666666666667
 40
0.1666666666666667
 40
0.25
 40
0.25
 40
0.25
 40
0.25
 40
0.3333333333333333
 40
0.3333333333333333
 40
0.3333333333333333
 40
0.3333333333333333
 40
0.4166666666666666
 40
0.4166666666666666
 40
0.4166666666666666
 40
0.4166666666666666
 40
0.4999999999999999
 40
0.4999999999999999
 40
0.4999999999999999
 40
0.4999999999999999
 40
0.5833333333333333
 40
0.5833333333333333
 40
0.5833333333333333
 40
0.5833333333333333
 40
0.6666666666666666
 40
0.6666666666666666
 40
0.6666666666666666
 40
0.6666666666666666
 40
0.75
 40
0.75
 40
0.75
 40
0.75
 40
0.8333333333333334
 40
0.8333333333333334
 40
0.8333333333333334
 40
0.8333333333333334
 40
0.9166666666666667
 40
0.9166666666666667
 40
0.9166666666666667
 40
0.9166666666666667
 40
1.0
 40
1.0
 40
1.0
 40
1.0
 10
-16.40593700787402
 20
10.28139763779528
 30
0.0
 10
-16.40593700787402
 20
10.28139763779528
 30
0.0
 10
-16.40593700787402
 20
10.36093307086614
 30
0.0
 10
-16.40593700787402
 20
10.36093307086614
 30
0.0
 10
-16.40593700787402
 20
10.36093307086614
 30
0.0
 10
-16.40593700787402
 20
10.36093307086614
 30
0.0
 10
-16.39540157480315
 20
10.36093307086614
 30
0.0
 10
-16.39540157480315
 20
10.36093307086614
 30
0.0
 10
-16.39540157480315
 20
10.36093307086614
 30
0.0
 10
-16.39540157480315
 20
10.36093307086614
 30
0.0
 10
-16.39540157480315
 20
10.32148818897638
 30
0.0
 10
-16.39540157480315
 20
10.32148818897638
 30
0.0
 10
-16.39540157480315
 20
10.32148818897638
 30
0.0
 10
-16.39540157480315
 20
10.32148818897638
 30
0.0
 10
-16.35590157480315
 20
10.36093307086614
 30
0.0
 10
-16.35590157480315
 20
10.36093307086614
 30
0.0
 10
-16.35590157480315
 20
10.36093307086614
 30
0.0
 10
-16.35590157480315
 20
10.36093307086614
 30
0.0
 10
-16.34164173228346
 20
10.36093307086614
 30
0.0
 10
-16.34164173228346
 20
10.36093307086614
 30
0.0
 10
-16.34164173228346
 20
10.36093307086614
 30
0.0
 10
-16.34164173228346
 20
10.36093307086614
 30
0.0
 10
-16.37501181102362
 20
10.3287125984252
 30
0.0
 10
-16.37501181102362
 20
10.3287125984252
 30
0.0
 10
-16.37501181102362
 20
10.3287125984252
 30
0.0
 10
-16.37501181102362
 20
10.3287125984252
 30
0.0
 10
-16.34017716535433
 20
10.28139763779528
 30
0.0
 10
-16.34017716535433
 20
10.28139763779528
 30
0.0
 10
-16.34017716535433
 20
10.28139763779528
 30
0.0
 10
-16.34017716535433
 20
10.28139763779528
 30
0.0
 10
-16.35406692913386
 20
10.28139763779528
 30
0.0
 10
-16.35406692913386
 20
10.28139763779528
 30
0.0
 10
-16.35406692913386
 20
10.28139763779528
 30
0.0
 10
-16.35406692913386
 20
10.28139763779528
 30
0.0
 10
-16.38238188976378
 20
10.32165748031496
 30
0.0
 10
-16.38238188976378
 20
10.32165748031496
 30
0.0
 10
-16.38238188976378
 20
10.32165748031496
 30
0.0
 10
-16.38238188976378
 20
10.32165748031496
 30
0.0
 10
-16.39540157480315
 20
10.30895275590551
 30
0.0
 10
-16.39540157480315
 20
10.30895275590551
 30
0.0
 10
-16.39540157480315
 20
10.30895275590551
 30
0.0
 10
-16.39540157480315
 20
10.30895275590551
 30
0.0
 10
-16.39540157480315
 20
10.28139763779528
 30
0.0
 10
-16.39540157480315
 20
10.28139763779528
 30
0.0
 10
-16.39540157480315
 20
10.28139763779528
 30
0.0
 10
-16.39540157480315
 20
10.28139763779528
 30
0.0
 10
-16.40593700787402
 20
10.28139763779528
 30
0.0
 10
-16.40593700787402
 20
10.28139763779528
 30
0.0
  0
SPLINE
  5
A6
330
1F
100
AcDbEntity
  8
Layer 1
 62
   250
370
    18
100
AcDbSpline
210
0.0
220
0.0
230
1.0
 70
    24
 71
     3
 72
     8
 73
     4
 74
     0
 42
0.0000000001
 43
0.0000000001
 40
0.0
 40
0.0
 40
0.0
 40
0.0
 40
1.0
 40
1.0
 40
1.0
 40
1.0
 10
-16.48154724409449
 20
10.6328188976378
 30
0.0
 10
-16.48154724409449
 20
10.6328188976378
 30
0.0
 10
-16.26874803149606
 20
10.84562204724409
 30
0.0
 10
-16.26874803149606
 20
10.84562204724409
 30
0.0
  0
SPLINE
  5
A7
330
1F
100
AcDbEntity
  8
Layer 1
 62
   250
100
AcDbSpline
210
0.0
220
0.0
230
1.0
 70
    11
 71
     3
 72
    40
 73
    36
 74
     0
 42
0.0000000001
 43
0.0000000001
 40
0.0
 40
0.0
 40
0.0
 40
0.0
 40
0.1111111111111111
 40
0.1111111111111111
 40
0.1111111111111111
 40
0.1111111111111111
 40
0.2222222222222222
 40
0.2222222222222222
 40
0.2222222222222222
 40
0.2222222222222222
 40
0.3333333333333333
 40
0.3333333333333333
 40
0.3333333333333333
 40
0.3333333333333333
 40
0.4444444444444444
 40
0.4444444444444444
 40
0.4444444444444444
 40
0.4444444444444444
 40
0.5555555555555556
 40
0.5555555555555556
 40
0.5555555555555556
 40
0.5555555555555556
 40
0.6666666666666667
 40
0.6666666666666667
 40
0.6666666666666667
 40
0.6666666666666667
 40
0.7777777777777779
 40
0.7777777777777779
 40
0.7777777777777779
 40
0.7777777777777779
 40
0.8888888888888891
 40
0.8888888888888891
 40
0.8888888888888891
 40
0.8888888888888891
 40
1.0
 40
1.0
 40
1.0
 40
1.0
 10
-16.45429527559055
 20
10.6925
 30
0.0
 10
-16.45429527559055
 20
10.6925
 30
0.0
 10
-16.46120472440945
 20
10.6855905511811
 30
0.0
 10
-16.46120472440945
 20
10.6855905511811
 30
0.0
 10
-16.46120472440945
 20
10.6855905511811
 30
0.0
 10
-16.46120472440945
 20
10.6855905511811
 30
0.0
 10
-16.50520472440945
 20
10.7295905511811
 30
0.0
 10
-16.50520472440945
 20
10.7295905511811
 30
0.0
 10
-16.50520472440945
 20
10.7295905511811
 30
0.0
 10
-16.50529921259843
 20
10.72635039370079
 30
0.0
 10
-16.50588976377953
 20
10.72257086614173
 30
0.0
 10
-16.507
 20
10.71829527559055
 30
0.0
 10
-16.507
 20
10.71829527559055
 30
0.0
 10
-16.50811023622047
 20
10.7140157480315
 30
0.0
 10
-16.50935039370079
 20
10.71040551181102
 30
0.0
 10
-16.51070472440945
 20
10.70746062992126
 30
0.0
 10
-16.51070472440945
 20
10.70746062992126
 30
0.0
 10
-16.51070472440945
 20
10.70746062992126
 30
0.0
 10
-16.51737007874016
 20
10.71412598425197
 30
0.0
 10
-16.51737007874016
 20
10.71412598425197
 30
0.0
 10
-16.51737007874016
 20
10.71412598425197
 30
0.0
 10
-16.51533464566929
 20
10.71981102362205
 30
0.0
 10
-16.51414960629921
 20
10.72538582677165
 30
0.0
 10
-16.51385039370079
 20
10.73087007874016
 30
0.0
 10
-16.51385039370079
 20
10.73087007874016
 30
0.0
 10
-16.51353543307087
 20
10.73633070866142
 30
0.0
 10
-16.514
 20
10.74088976377953
 30
0.0
 10
-16.51522047244094
 20
10.7445157480315
 30
0.0
 10
-16.51522047244094
 20
10.7445157480315
 30
0.0
 10
-16.51522047244094
 20
10.7445157480315
 30
0.0
 10
-16.51077952755906
 20
10.74895669291339
 30
0.0
 10
-16.51077952755906
 20
10.74895669291339
 30
0.0
 10
-16.51077952755906
 20
10.74895669291339
 30
0.0
 10
-16.51077952755906
 20
10.74895669291339
 30
0.0
 10
-16.45429527559055
 20
10.6925
 30
0.0
 10
-16.45429527559055
 20
10.6925
 30
0.0
  0
SPLINE
  5
A8
330
1F
100
AcDbEntity
  8
Layer 1
 62
   250
100
AcDbSpline
210
0.0
220
0.0
230
1.0
 70
    11
 71
     3
 72
    52
 73
    48
 74
     0
 42
0.0000000001
 43
0.0000000001
 40
0.0
 40
0.0
 40
0.0
 40
0.0
 40
0.0833333333333333
 40
0.0833333333333333
 40
0.0833333333333333
 40
0.0833333333333333
 40
0.1666666666666667
 40
0.1666666666666667
 40
0.1666666666666667
 40
0.1666666666666667
 40
0.25
 40
0.25
 40
0.25
 40
0.25
 40
0.3333333333333333
 40
0.3333333333333333
 40
0.3333333333333333
 40
0.3333333333333333
 40
0.4166666666666666
 40
0.4166666666666666
 40
0.4166666666666666
 40
0.4166666666666666
 40
0.4999999999999999
 40
0.4999999999999999
 40
0.4999999999999999
 40
0.4999999999999999
 40
0.5833333333333333
 40
0.5833333333333333
 40
0.5833333333333333
 40
0.5833333333333333
 40
0.6666666666666666
 40
0.6666666666666666
 40
0.6666666666666666
 40
0.6666666666666666
 40
0.75
 40
0.75
 40
0.75
 40
0.75
 40
0.8333333333333334
 40
0.8333333333333334
 40
0.8333333333333334
 40
0.8333333333333334
 40
0.9166666666666667
 40
0.9166666666666667
 40
0.9166666666666667
 40
0.9166666666666667
 40
1.0
 40
1.0
 40
1.0
 40
1.0
 10
-16.46435826771653
 20
10.73791732283465
 30
0.0
 10
-16.47100787401575
 20
10.74456692913386
 30
0.0
 10
-16.47567322834646
 20
10.75060236220472
 30
0.0
 10
-16.47835826771654
 20
10.75602755905512
 30
0.0
 10
-16.47835826771654
 20
10.75602755905512
 30
0.0
 10
-16.48104724409449
 20
10.76145275590551
 30
0.0
 10
-16.48213779527559
 20
10.76660236220472
 30
0.0
 10
-16.48163779527559
 20
10.77150787401575
 30
0.0
 10
-16.48163779527559
 20
10.77150787401575
 30
0.0
 10
-16.48113385826772
 20
10.77639763779528
 30
0.0
 10
-16.47884251968504
 20
10.78089763779528
 30
0.0
 10
-16.47474803149606
 20
10.78499212598425
 30
0.0
 10
-16.47474803149606
 20
10.78499212598425
 30
0.0
 10
-16.47172834645669
 20
10.78800787401575
 30
0.0
 10
-16.46848818897638
 20
10.79004724409449
 30
0.0
 10
-16.46498818897638
 20
10.79111811023622
 30
0.0
 10
-16.46498818897638
 20
10.79111811023622
 30
0.0
 10
-16.46148818897638
 20
10.79217322834646
 30
0.0
 10
-16.45785826771654
 20
10.79230708661417
 30
0.0
 10
-16.45410236220473
 20
10.79148818897638
 30
0.0
 10
-16.45410236220473
 20
10.79148818897638
 30
0.0
 10
-16.45032283464567
 20
10.7906968503937
 30
0.0
 10
-16.44635826771654
 20
10.78906299212598
 30
0.0
 10
-16.44222834645669
 20
10.78661811023622
 30
0.0
 10
-16.44222834645669
 20
10.78661811023622
 30
0.0
 10
-16.43810236220472
 20
10.78417716535433
 30
0.0
 10
-16.43324803149606
 20
10.78017322834646
 30
0.0
 10
-16.42767716535433
 20
10.77460236220472
 30
0.0
 10
-16.42767716535433
 20
10.77460236220472
 30
0.0
 10
-16.42108267716536
 20
10.76798818897638
 30
0.0
 10
-16.41643307086614
 20
10.76199212598425
 30
0.0
 10
-16.41372834645669
 20
10.75658267716535
 30
0.0
 10
-16.41372834645669
 20
10.75658267716535
 30
0.0
 10
-16.41102755905512
 20
10.75117716535433
 30
0.0
 10
-16.40993307086614
 20
10.74600787401575
 30
0.0
 10
-16.41041732283465
 20
10.74109842519685
 30
0.0
 10
-16.41041732283465
 20
10.74109842519685
 30
0.0
 10
-16.4108937007874
 20
10.7361968503937
 30
0.0
 10
-16.41319291338583
 20
10.73167716535433
 30
0.0
 10
-16.4173188976378
 20
10.72756692913386
 30
0.0
 10
-16.4173188976378
 20
10.72756692913386
 30
0.0
 10
-16.42274409448819
 20
10.72213779527559
 30
0.0
 10
-16.42895275590551
 20
10.71982677165354
 30
0.0
 10
-16.43593307086614
 20
10.72062204724409
 30
0.0
 10
-16.43593307086614
 20
10.72062204724409
 30
0.0
 10
-16.44432283464567
 20
10.72158267716535
 30
0.0
 10
-16.4537874015748
 20
10.72736220472441
 30
0.0
 10
-16.46435826771653
 20
10.73791732283465
 30
0.0
  0
SPLINE
  5
A9
330
1F
100
AcDbEntity
  8
Layer 1
 62
   250
100
AcDbSpline
210
0.0
220
0.0
230
1.0
 70
    11
 71
     3
 72
    36
 73
    32
 74
     0
 42
0.0000000001
 43
0.0000000001
 40
0.0
 40
0.0
 40
0.0
 40
0.0
 40
0.125
 40
0.125
 40
0.125
 40
0.125
 40
0.25
 40
0.25
 40
0.25
 40
0.25
 40
0.375
 40
0.375
 40
0.375
 40
0.375
 40
0.5
 40
0.5
 40
0.5
 40
0.5
 40
0.625
 40
0.625
 40
0.625
 40
0.625
 40
0.75
 40
0.75
 40
0.75
 40
0.75
 40
0.875
 40
0.875
 40
0.875
 40
0.875
 40
1.0
 40
1.0
 40
1.0
 40
1.0
 10
-16.45726771653543
 20
10.74500787401575
 30
0.0
 10
-16.44802755905512
 20
10.7357874015748
 30
0.0
 10
-16.4408031496063
 20
10.7307125984252
 30
0.0
 10
-16.43558267716535
 20
10.72982677165354
 30
0.0
 10
-16.43558267716535
 20
10.72982677165354
 30
0.0
 10
-16.43035826771654
 20
10.72893307086614
 30
0.0
 10
-16.42617322834646
 20
10.73006692913386
 30
0.0
 10
-16.42298818897638
 20
10.73323228346457
 30
0.0
 10
-16.42298818897638
 20
10.73323228346457
 30
0.0
 10
-16.41982283464567
 20
10.73641338582677
 30
0.0
 10
-16.41869291338583
 20
10.74060236220472
 30
0.0
 10
-16.41959842519685
 20
10.74584251968504
 30
0.0
 10
-16.41959842519685
 20
10.74584251968504
 30
0.0
 10
-16.42050787401575
 20
10.75106299212598
 30
0.0
 10
-16.42556299212599
 20
10.75828346456693
 30
0.0
 10
-16.43476771653543
 20
10.76748818897638
 30
0.0
 10
-16.43476771653543
 20
10.76748818897638
 30
0.0
 10
-16.44402755905512
 20
10.77674803149606
 30
0.0
 10
-16.45126771653543
 20
10.78182283464567
 30
0.0
 10
-16.45646850393701
 20
10.7827125984252
 30
0.0
 10
-16.45646850393701
 20
10.7827125984252
 30
0.0
 10
-16.46167322834646
 20
10.78358267716535
 30
0.0
 10
-16.46589763779528
 20
10.78241732283464
 30
0.0
 10
-16.46911811023622
 20
10.7791968503937
 30
0.0
 10
-16.46911811023622
 20
10.7791968503937
 30
0.0
 10
-16.47228346456693
 20
10.77602755905512
 30
0.0
 10
-16.47347244094488
 20
10.77215748031496
 30
0.0
 10
-16.47267322834645
 20
10.76756299212598
 30
0.0
 10
-16.47267322834645
 20
10.76756299212598
 30
0.0
 10
-16.47163779527559
 20
10.76177165354331
 30
0.0
 10
-16.46648818897638
 20
10.75425196850394
 30
0.0
 10
-16.45726771653543
 20
10.74500787401575
 30
0.0
  0
SPLINE
  5
AA
330
1F
100
AcDbEntity
  8
Layer 1
 62
   250
100
AcDbSpline
210
0.0
220
0.0
230
1.0
 70
    11
 71
     3
 72
    52
 73
    48
 74
     0
 42
0.0000000001
 43
0.0000000001
 40
0.0
 40
0.0
 40
0.0
 40
0.0
 40
0.0833333333333333
 40
0.0833333333333333
 40
0.0833333333333333
 40
0.0833333333333333
 40
0.1666666666666667
 40
0.1666666666666667
 40
0.1666666666666667
 40
0.1666666666666667
 40
0.25
 40
0.25
 40
0.25
 40
0.25
 40
0.3333333333333333
 40
0.3333333333333333
 40
0.3333333333333333
 40
0.3333333333333333
 40
0.4166666666666666
 40
0.4166666666666666
 40
0.4166666666666666
 40
0.4166666666666666
 40
0.4999999999999999
 40
0.4999999999999999
 40
0.4999999999999999
 40
0.4999999999999999
 40
0.5833333333333333
 40
0.5833333333333333
 40
0.5833333333333333
 40
0.5833333333333333
 40
0.6666666666666666
 40
0.6666666666666666
 40
0.6666666666666666
 40
0.6666666666666666
 40
0.75
 40
0.75
 40
0.75
 40
0.75
 40
0.8333333333333334
 40
0.8333333333333334
 40
0.8333333333333334
 40
0.8333333333333334
 40
0.9166666666666667
 40
0.9166666666666667
 40
0.9166666666666667
 40
0.9166666666666667
 40
1.0
 40
1.0
 40
1.0
 40
1.0
 10
-16.39042519685039
 20
10.75637007874016
 30
0.0
 10
-16.39042519685039
 20
10.75637007874016
 30
0.0
 10
-16.44666535433071
 20
10.81261023622047
 30
0.0
 10
-16.44666535433071
 20
10.81261023622047
 30
0.0
 10
-16.44666535433071
 20
10.81261023622047
 30
0.0
 10
-16.44666535433071
 20
10.81261023622047
 30
0.0
 10
-16.43923622047244
 20
10.82005511811024
 30
0.0
 10
-16.43923622047244
 20
10.82005511811024
 30
0.0
 10
-16.43923622047244
 20
10.82005511811024
 30
0.0
 10
-16.43923622047244
 20
10.82005511811024
 30
0.0
 10
-16.41133070866142
 20
10.79216535433071
 30
0.0
 10
-16.41133070866142
 20
10.79216535433071
 30
0.0
 10
-16.41133070866142
 20
10.79216535433071
 30
0.0
 10
-16.41133070866142
 20
10.79216535433071
 30
0.0
 10
-16.41129527559055
 20
10.84798031496063
 30
0.0
 10
-16.41129527559055
 20
10.84798031496063
 30
0.0
 10
-16.41129527559055
 20
10.84798031496063
 30
0.0
 10
-16.41129527559055
 20
10.84798031496063
 30
0.0
 10
-16.40120472440945
 20
10.85807086614173
 30
0.0
 10
-16.40120472440945
 20
10.85807086614173
 30
0.0
 10
-16.40120472440945
 20
10.85807086614173
 30
0.0
 10
-16.40120472440945
 20
10.85807086614173
 30
0.0
 10
-16.40201968503937
 20
10.8116811023622
 30
0.0
 10
-16.40201968503937
 20
10.8116811023622
 30
0.0
 10
-16.40201968503937
 20
10.8116811023622
 30
0.0
 10
-16.40201968503937
 20
10.8116811023622
 30
0.0
 10
-16.34392519685039
 20
10.80287007874016
 30
0.0
 10
-16.34392519685039
 20
10.80287007874016
 30
0.0
 10
-16.34392519685039
 20
10.80287007874016
 30
0.0
 10
-16.34392519685039
 20
10.80287007874016
 30
0.0
 10
-16.35375984251969
 20
10.79303543307087
 30
0.0
 10
-16.35375984251969
 20
10.79303543307087
 30
0.0
 10
-16.35375984251969
 20
10.79303543307087
 30
0.0
 10
-16.35375984251969
 20
10.79303543307087
 30
0.0
 10
-16.40224015748031
 20
10.80148031496063
 30
0.0
 10
-16.40224015748031
 20
10.80148031496063
 30
0.0
 10
-16.40224015748031
 20
10.80148031496063
 30
0.0
 10
-16.40224015748031
 20
10.80148031496063
 30
0.0
 10
-16.40248031496063
 20
10.78329527559055
 30
0.0
 10
-16.40248031496063
 20
10.78329527559055
 30
0.0
 10
-16.40248031496063
 20
10.78329527559055
 30
0.0
 10
-16.40248031496063
 20
10.78329527559055
 30
0.0
 10
-16.38298031496063
 20
10.76381496062992
 30
0.0
 10
-16.38298031496063
 20
10.76381496062992
 30
0.0
 10
-16.38298031496063
 20
10.76381496062992
 30
0.0
 10
-16.38298031496063
 20
10.76381496062992
 30
0.0
 10
-16.39042519685039
 20
10.75637007874016
 30
0.0
 10
-16.39042519685039
 20
10.75637007874016
 30
0.0
  0
SPLINE
  5
AB
330
1F
100
AcDbEntity
  8
Layer 1
 62
   250
370
    18
100
AcDbSpline
210
0.0
220
0.0
230
1.0
 70
    24
 71
     3
 72
     8
 73
     4
 74
     0
 42
0.0000000001
 43
0.0000000001
 40
0.0
 40
0.0
 40
0.0
 40
0.0
 40
1.0
 40
1.0
 40
1.0
 40
1.0
 10
-16.63711023622047
 20
10.8311811023622
 30
0.0
 10
-16.63711023622047
 20
10.8311811023622
 30
0.0
 10
-16.63711023622047
 20
10.24201968503937
 30
0.0
 10
-16.63711023622047
 20
10.24201968503937
 30
0.0
  0
SPLINE
  5
AC
330
1F
100
AcDbEntity
  8
Layer 1
 62
   250
370
    18
100
AcDbSpline
210
0.0
220
0.0
230
1.0
 70
    24
 71
     3
 72
     8
 73
     4
 74
     0
 42
0.0000000001
 43
0.0000000001
 40
0.0
 40
0.0
 40
0.0
 40
0.0
 40
1.0
 40
1.0
 40
1.0
 40
1.0
 10
-16.94488976377953
 20
10.60201181102362
 30
0.0
 10
-16.94488976377953
 20
10.60201181102362
 30
0.0
 10
-17.02183464566929
 20
10.60750787401575
 30
0.0
 10
-17.02183464566929
 20
10.60750787401575
 30
0.0
  0
SPLINE
  5
AD
330
1F
100
AcDbEntity
  8
Layer 1
 62
   250
100
AcDbSpline
210
0.0
220
0.0
230
1.0
 70
    11
 71
     3
 72
    52
 73
    48
 74
     0
 42
0.0000000001
 43
0.0000000001
 40
0.0
 40
0.0
 40
0.0
 40
0.0
 40
0.0833333333333333
 40
0.0833333333333333
 40
0.0833333333333333
 40
0.0833333333333333
 40
0.1666666666666667
 40
0.1666666666666667
 40
0.1666666666666667
 40
0.1666666666666667
 40
0.25
 40
0.25
 40
0.25
 40
0.25
 40
0.3333333333333333
 40
0.3333333333333333
 40
0.3333333333333333
 40
0.3333333333333333
 40
0.4166666666666666
 40
0.4166666666666666
 40
0.4166666666666666
 40
0.4166666666666666
 40
0.4999999999999999
 40
0.4999999999999999
 40
0.4999999999999999
 40
0.4999999999999999
 40
0.5833333333333333
 40
0.5833333333333333
 40
0.5833333333333333
 40
0.5833333333333333
 40
0.6666666666666666
 40
0.6666666666666666
 40
0.6666666666666666
 40
0.6666666666666666
 40
0.75
 40
0.75
 40
0.75
 40
0.75
 40
0.8333333333333334
 40
0.8333333333333334
 40
0.8333333333333334
 40
0.8333333333333334
 40
0.9166666666666667
 40
0.9166666666666667
 40
0.9166666666666667
 40
0.9166666666666667
 40
1.0
 40
1.0
 40
1.0
 40
1.0
 10
-17.10087007874016
 20
10.65809448818898
 30
0.0
 10
-17.10087007874016
 20
10.66514960629921
 30
0.0
 10
-17.10014566929134
 20
10.67082677165354
 30
0.0
 10
-17.09868897637795
 20
10.67512204724409
 30
0.0
 10
-17.09868897637795
 20
10.67512204724409
 30
0.0
 10
-17.09724409448819
 20
10.67942519685039
 30
0.0
 10
-17.09507874015748
 20
10.68274409448819
 30
0.0
 10
-17.09221653543307
 20
10.68507874015748
 30
0.0
 10
-17.09221653543307
 20
10.68507874015748
 30
0.0
 10
-17.08935433070866
 20
10.68741338582677
 30
0.0
 10
-17.08575984251969
 20
10.68857874015748
 30
0.0
 10
-17.08142519685039
 20
10.68857874015748
 30
0.0
 10
-17.08142519685039
 20
10.68857874015748
 30
0.0
 10
-17.07821653543307
 20
10.68857874015748
 30
0.0
 10
-17.0754094488189
 20
10.68792519685039
 30
0.0
 10
-17.07299606299213
 20
10.68663385826772
 30
0.0
 10
-17.07299606299213
 20
10.68663385826772
 30
0.0
 10
-17.07057874015748
 20
10.68535433070866
 30
0.0
 10
-17.0685905511811
 20
10.68349606299213
 30
0.0
 10
-17.06700787401575
 20
10.68106299212598
 30
0.0
 10
-17.06700787401575
 20
10.68106299212598
 30
0.0
 10
-17.06544094488189
 20
10.67863385826772
 30
0.0
 10
-17.06420472440945
 20
10.67567716535433
 30
0.0
 10
-17.06331496062992
 20
10.67218897637795
 30
0.0
 10
-17.06331496062992
 20
10.67218897637795
 30
0.0
 10
-17.06241338582677
 20
10.66870472440945
 30
0.0
 10
-17.06196850393701
 20
10.66400787401575
 30
0.0
 10
-17.06196850393701
 20
10.65809448818898
 30
0.0
 10
-17.06196850393701
 20
10.65809448818898
 30
0.0
 10
-17.06196850393701
 20
10.65109448818898
 30
0.0
 10
-17.06268897637795
 20
10.64545275590551
 30
0.0
 10
-17.06411811023622
 20
10.64114960629921
 30
0.0
 10
-17.06411811023622
 20
10.64114960629921
 30
0.0
 10
-17.06556299212598
 20
10.63684251968504
 30
0.0
 10
-17.06771653543307
 20
10.63352362204724
 30
0.0
 10
-17.07057874015748
 20
10.63117716535433
 30
0.0
 10
-17.07057874015748
 20
10.63117716535433
 30
0.0
 10
-17.07343700787402
 20
10.62883070866142
 30
0.0
 10
-17.07705118110236
 20
10.62766141732283
 30
0.0
 10
-17.08142519685039
 20
10.62766141732283
 30
0.0
 10
-17.08142519685039
 20
10.62766141732283
 30
0.0
 10
-17.08717322834646
 20
10.62766141732283
 30
0.0
 10
-17.09168897637795
 20
10.62972047244095
 30
0.0
 10
-17.09496456692913
 20
10.63384251968504
 30
0.0
 10
-17.09496456692913
 20
10.63384251968504
 30
0.0
 10
-17.09889763779528
 20
10.6388031496063
 30
0.0
 10
-17.10087007874016
 20
10.64689763779528
 30
0.0
 10
-17.10087007874016
 20
10.65809448818898
 30
0.0
  0
SPLINE
  5
AE
330
1F
100
AcDbEntity
  8
Layer 1
 62
   250
100
AcDbSpline
210
0.0
220
0.0
230
1.0
 70
    11
 71
     3
 72
    36
 73
    32
 74
     0
 42
0.0000000001
 43
0.0000000001
 40
0.0
 40
0.0
 40
0.0
 40
0.0
 40
0.125
 40
0.125
 40
0.125
 40
0.125
 40
0.25
 40
0.25
 40
0.25
 40
0.25
 40
0.375
 40
0.375
 40
0.375
 40
0.375
 40
0.5
 40
0.5
 40
0.5
 40
0.5
 40
0.625
 40
0.625
 40
0.625
 40
0.625
 40
0.75
 40
0.75
 40
0.75
 40
0.75
 40
0.875
 40
0.875
 40
0.875
 40
0.875
 40
1.0
 40
1.0
 40
1.0
 40
1.0
 10
-17.09334251968504
 20
10.65809448818898
 30
0.0
 10
-17.09334251968504
 20
10.6483031496063
 30
0.0
 10
-17.09218897637795
 20
10.6417874015748
 30
0.0
 10
-17.08989763779527
 20
10.63853937007874
 30
0.0
 10
-17.08989763779527
 20
10.63853937007874
 30
0.0
 10
-17.0876062992126
 20
10.6353031496063
 30
0.0
 10
-17.0847874015748
 20
10.63367716535433
 30
0.0
 10
-17.08142519685039
 20
10.63367716535433
 30
0.0
 10
-17.08142519685039
 20
10.63367716535433
 30
0.0
 10
-17.07805118110236
 20
10.63367716535433
 30
0.0
 10
-17.07523228346457
 20
10.63531496062992
 30
0.0
 10
-17.07293700787402
 20
10.63856692913386
 30
0.0
 10
-17.07293700787402
 20
10.63856692913386
 30
0.0
 10
-17.07064566929134
 20
10.64181496062992
 30
0.0
 10
-17.06949606299213
 20
10.64833070866142
 30
0.0
 10
-17.06949606299213
 20
10.65809448818898
 30
0.0
 10
-17.06949606299213
 20
10.65809448818898
 30
0.0
 10
-17.06949606299213
 20
10.66791338582677
 30
0.0
 10
-17.07064566929134
 20
10.67444094488189
 30
0.0
 10
-17.07293700787402
 20
10.67766141732283
 30
0.0
 10
-17.07293700787402
 20
10.67766141732283
 30
0.0
 10
-17.07523228346457
 20
10.68089763779528
 30
0.0
 10
-17.07807874015748
 20
10.68250787401575
 30
0.0
 10
-17.08149606299213
 20
10.68250787401575
 30
0.0
 10
-17.08149606299213
 20
10.68250787401575
 30
0.0
 10
-17.08487007874016
 20
10.68250787401575
 30
0.0
 10
-17.08755118110236
 20
10.68107874015748
 30
0.0
 10
-17.08956299212598
 20
10.67823228346457
 30
0.0
 10
-17.08956299212598
 20
10.67823228346457
 30
0.0
 10
-17.09207874015748
 20
10.6746062992126
 30
0.0
 10
-17.09334251968504
 20
10.66788582677165
 30
0.0
 10
-17.09334251968504
 20
10.65809448818898
 30
0.0
  0
SPLINE
  5
AF
330
1F
100
AcDbEntity
  8
Layer 1
 62
   250
100
AcDbSpline
210
0.0
220
0.0
230
1.0
 70
    11
 71
     3
 72
    20
 73
    16
 74
     0
 42
0.0000000001
 43
0.0000000001
 40
0.0
 40
0.0
 40
0.0
 40
0.0
 40
0.25
 40
0.25
 40
0.25
 40
0.25
 40
0.5
 40
0.5
 40
0.5
 40
0.5
 40
0.75
 40
0.75
 40
0.75
 40
0.75
 40
1.0
 40
1.0
 40
1.0
 40
1.0
 10
-17.0504094488189
 20
10.62867716535433
 30
0.0
 10
-17.0504094488189
 20
10.62867716535433
 30
0.0
 10
-17.0504094488189
 20
10.63702362204724
 30
0.0
 10
-17.0504094488189
 20
10.63702362204724
 30
0.0
 10
-17.0504094488189
 20
10.63702362204724
 30
0.0
 10
-17.0504094488189
 20
10.63702362204724
 30
0.0
 10
-17.04206299212598
 20
10.63702362204724
 30
0.0
 10
-17.04206299212598
 20
10.63702362204724
 30
0.0
 10
-17.04206299212598
 20
10.63702362204724
 30
0.0
 10
-17.04206299212598
 20
10.63702362204724
 30
0.0
 10
-17.04206299212598
 20
10.62867716535433
 30
0.0
 10
-17.04206299212598
 20
10.62867716535433
 30
0.0
 10
-17.04206299212598
 20
10.62867716535433
 30
0.0
 10
-17.04206299212598
 20
10.62867716535433
 30
0.0
 10
-17.0504094488189
 20
10.62867716535433
 30
0.0
 10
-17.0504094488189
 20
10.62867716535433
 30
0.0
  0
SPLINE
  5
B0
330
1F
100
AcDbEntity
  8
Layer 1
 62
   250
100
AcDbSpline
210
0.0
220
0.0
230
1.0
 70
    11
 71
     3
 72
    40
 73
    36
 74
     0
 42
0.0000000001
 43
0.0000000001
 40
0.0
 40
0.0
 40
0.0
 40
0.0
 40
0.1111111111111111
 40
0.1111111111111111
 40
0.1111111111111111
 40
0.1111111111111111
 40
0.2222222222222222
 40
0.2222222222222222
 40
0.2222222222222222
 40
0.2222222222222222
 40
0.3333333333333333
 40
0.3333333333333333
 40
0.3333333333333333
 40
0.3333333333333333
 40
0.4444444444444444
 40
0.4444444444444444
 40
0.4444444444444444
 40
0.4444444444444444
 40
0.5555555555555556
 40
0.5555555555555556
 40
0.5555555555555556
 40
0.5555555555555556
 40
0.6666666666666667
 40
0.6666666666666667
 40
0.6666666666666667
 40
0.6666666666666667
 40
0.7777777777777779
 40
0.7777777777777779
 40
0.7777777777777779
 40
0.7777777777777779
 40
0.8888888888888891
 40
0.8888888888888891
 40
0.8888888888888891
 40
0.8888888888888891
 40
1.0
 40
1.0
 40
1.0
 40
1.0
 10
-17.0037874015748
 20
10.62867716535433
 30
0.0
 10
-17.0037874015748
 20
10.62867716535433
 30
0.0
 10
-17.0111062992126
 20
10.62867716535433
 30
0.0
 10
-17.0111062992126
 20
10.62867716535433
 30
0.0
 10
-17.0111062992126
 20
10.62867716535433
 30
0.0
 10
-17.0111062992126
 20
10.62867716535433
 30
0.0
 10
-17.0111062992126
 20
10.67534251968504
 30
0.0
 10
-17.0111062992126
 20
10.67534251968504
 30
0.0
 10
-17.0111062992126
 20
10.67534251968504
 30
0.0
 10
-17.01287007874016
 20
10.67366141732284
 30
0.0
 10
-17.01517322834646
 20
10.67198031496063
 30
0.0
 10
-17.01803543307087
 20
10.67029921259843
 30
0.0
 10
-17.01803543307087
 20
10.67029921259843
 30
0.0
 10
-17.0209094488189
 20
10.66862204724409
 30
0.0
 10
-17.02348031496063
 20
10.66735826771654
 30
0.0
 10
-17.02575590551181
 20
10.66652362204724
 30
0.0
 10
-17.02575590551181
 20
10.66652362204724
 30
0.0
 10
-17.02575590551181
 20
10.66652362204724
 30
0.0
 10
-17.02575590551181
 20
10.6735905511811
 30
0.0
 10
-17.02575590551181
 20
10.6735905511811
 30
0.0
 10
-17.02575590551181
 20
10.6735905511811
 30
0.0
 10
-17.02166141732284
 20
10.67552362204724
 30
0.0
 10
-17.01807874015748
 20
10.67785433070866
 30
0.0
 10
-17.01500787401575
 20
10.6805905511811
 30
0.0
 10
-17.01500787401575
 20
10.6805905511811
 30
0.0
 10
-17.01195275590551
 20
10.68334251968504
 30
0.0
 10
-17.00977165354331
 20
10.68599606299213
 30
0.0
 10
-17.00849606299213
 20
10.68857874015748
 30
0.0
 10
-17.00849606299213
 20
10.68857874015748
 30
0.0
 10
-17.00849606299213
 20
10.68857874015748
 30
0.0
 10
-17.0037874015748
 20
10.68857874015748
 30
0.0
 10
-17.0037874015748
 20
10.68857874015748
 30
0.0
 10
-17.0037874015748
 20
10.68857874015748
 30
0.0
 10
-17.0037874015748
 20
10.68857874015748
 30
0.0
 10
-17.0037874015748
 20
10.62867716535433
 30
0.0
 10
-17.0037874015748
 20
10.62867716535433
 30
0.0
  0
SPLINE
  5
B1
330
1F
100
AcDbEntity
  8
Layer 1
 62
   250
100
AcDbSpline
210
0.0
220
0.0
230
1.0
 70
    11
 71
     3
 72
    80
 73
    76
 74
     0
 42
0.0000000001
 43
0.0000000001
 40
0.0
 40
0.0
 40
0.0
 40
0.0
 40
0.0526315789473684
 40
0.0526315789473684
 40
0.0526315789473684
 40
0.0526315789473684
 40
0.1052631578947368
 40
0.1052631578947368
 40
0.1052631578947368
 40
0.1052631578947368
 40
0.1578947368421053
 40
0.1578947368421053
 40
0.1578947368421053
 40
0.1578947368421053
 40
0.2105263157894737
 40
0.2105263157894737
 40
0.2105263157894737
 40
0.2105263157894737
 40
0.2631578947368421
 40
0.2631578947368421
 40
0.2631578947368421
 40
0.2631578947368421
 40
0.3157894736842105
 40
0.3157894736842105
 40
0.3157894736842105
 40
0.3157894736842105
 40
0.3684210526315789
 40
0.3684210526315789
 40
0.3684210526315789
 40
0.3684210526315789
 40
0.4210526315789473
 40
0.4210526315789473
 40
0.4210526315789473
 40
0.4210526315789473
 40
0.4736842105263158
 40
0.4736842105263158
 40
0.4736842105263158
 40
0.4736842105263158
 40
0.5263157894736842
 40
0.5263157894736842
 40
0.5263157894736842
 40
0.5263157894736842
 40
0.5789473684210527
 40
0.5789473684210527
 40
0.5789473684210527
 40
0.5789473684210527
 40
0.631578947368421
 40
0.631578947368421
 40
0.631578947368421
 40
0.631578947368421
 40
0.6842105263157894
 40
0.6842105263157894
 40
0.6842105263157894
 40
0.6842105263157894
 40
0.7368421052631577
 40
0.7368421052631577
 40
0.7368421052631577
 40
0.7368421052631577
 40
0.7894736842105261
 40
0.7894736842105261
 40
0.7894736842105261
 40
0.7894736842105261
 40
0.8421052631578945
 40
0.8421052631578945
 40
0.8421052631578945
 40
0.8421052631578945
 40
0.8947368421052628
 40
0.8947368421052628
 40
0.8947368421052628
 40
0.8947368421052628
 40
0.9473684210526312
 40
0.9473684210526312
 40
0.9473684210526312
 40
0.9473684210526312
 40
1.0
 40
1.0
 40
1.0
 40
1.0
 10
-16.95466141732284
 20
10.62867716535433
 30
0.0
 10
-16.95466141732284
 20
10.62867716535433
 30
0.0
 10
-16.95466141732284
 20
10.63502362204724
 30
0.0
 10
-16.95466141732284
 20
10.63502362204724
 30
0.0
 10
-16.95466141732284
 20
10.63502362204724
 30
0.0
 10
-16.95803543307087
 20
10.63013385826772
 30
0.0
 10
-16.9626062992126
 20
10.62770472440945
 30
0.0
 10
-16.96838188976378
 20
10.62770472440945
 30
0.0
 10
-16.96838188976378
 20
10.62770472440945
 30
0.0
 10
-16.97092519685039
 20
10.62770472440945
 30
0.0
 10
-16.97331496062992
 20
10.62819291338583
 30
0.0
 10
-16.97552362204724
 20
10.62916141732283
 30
0.0
 10
-16.97552362204724
 20
10.62916141732283
 30
0.0
 10
-16.97773228346457
 20
10.63013385826772
 30
0.0
 10
-16.97937007874016
 20
10.63137007874016
 30
0.0
 10
-16.98043700787402
 20
10.63284251968504
 30
0.0
 10
-16.98043700787402
 20
10.63284251968504
 30
0.0
 10
-16.98152362204724
 20
10.63433070866142
 30
0.0
 10
-16.98227165354331
 20
10.63613385826772
 30
0.0
 10
-16.98270078740158
 20
10.63827559055118
 30
0.0
 10
-16.98270078740158
 20
10.63827559055118
 30
0.0
 10
-16.98299606299213
 20
10.63971653543307
 30
0.0
 10
-16.98314566929134
 20
10.64199606299213
 30
0.0
 10
-16.98314566929134
 20
10.64512204724409
 30
0.0
 10
-16.98314566929134
 20
10.64512204724409
 30
0.0
 10
-16.98314566929134
 20
10.64512204724409
 30
0.0
 10
-16.98314566929134
 20
10.67188582677165
 30
0.0
 10
-16.98314566929134
 20
10.67188582677165
 30
0.0
 10
-16.98314566929134
 20
10.67188582677165
 30
0.0
 10
-16.98314566929134
 20
10.67188582677165
 30
0.0
 10
-16.97582677165354
 20
10.67188582677165
 30
0.0
 10
-16.97582677165354
 20
10.67188582677165
 30
0.0
 10
-16.97582677165354
 20
10.67188582677165
 30
0.0
 10
-16.97582677165354
 20
10.67188582677165
 30
0.0
 10
-16.97582677165354
 20
10.64792519685039
 30
0.0
 10
-16.97582677165354
 20
10.64792519685039
 30
0.0
 10
-16.97582677165354
 20
10.64792519685039
 30
0.0
 10
-16.97582677165354
 20
10.64409448818898
 30
0.0
 10
-16.97567322834646
 20
10.64152362204724
 30
0.0
 10
-16.97538188976378
 20
10.64018897637795
 30
0.0
 10
-16.97538188976378
 20
10.64018897637795
 30
0.0
 10
-16.9749094488189
 20
10.63825984251969
 30
0.0
 10
-16.97394094488189
 20
10.63675984251969
 30
0.0
 10
-16.97245275590551
 20
10.63564960629921
 30
0.0
 10
-16.97245275590551
 20
10.63564960629921
 30
0.0
 10
-16.97095275590551
 20
10.63455118110236
 30
0.0
 10
-16.9691062992126
 20
10.63401181102362
 30
0.0
 10
-16.96691338582677
 20
10.63401181102362
 30
0.0
 10
-16.96691338582677
 20
10.63401181102362
 30
0.0
 10
-16.96471653543307
 20
10.63401181102362
 30
0.0
 10
-16.96266141732283
 20
10.63456692913386
 30
0.0
 10
-16.96073228346457
 20
10.63568897637795
 30
0.0
 10
-16.96073228346457
 20
10.63568897637795
 30
0.0
 10
-16.95879921259843
 20
10.63681496062992
 30
0.0
 10
-16.95744094488189
 20
10.63835826771654
 30
0.0
 10
-16.95664960629921
 20
10.6402874015748
 30
0.0
 10
-16.95664960629921
 20
10.6402874015748
 30
0.0
 10
-16.95584251968504
 20
10.64223228346457
 30
0.0
 10
-16.95544094488189
 20
10.64505118110236
 30
0.0
 10
-16.95544094488189
 20
10.64873228346457
 30
0.0
 10
-16.95544094488189
 20
10.64873228346457
 30
0.0
 10
-16.95544094488189
 20
10.64873228346457
 30
0.0
 10
-16.95544094488189
 20
10.67188582677165
 30
0.0
 10
-16.95544094488189
 20
10.67188582677165
 30
0.0
 10
-16.95544094488189
 20
10.67188582677165
 30
0.0
 10
-16.95544094488189
 20
10.67188582677165
 30
0.0
 10
-16.94812204724409
 20
10.67188582677165
 30
0.0
 10
-16.94812204724409
 20
10.67188582677165
 30
0.0
 10
-16.94812204724409
 20
10.67188582677165
 30
0.0
 10
-16.94812204724409
 20
10.67188582677165
 30
0.0
 10
-16.94812204724409
 20
10.62867716535433
 30
0.0
 10
-16.94812204724409
 20
10.62867716535433
 30
0.0
 10
-16.94812204724409
 20
10.62867716535433
 30
0.0
 10
-16.94812204724409
 20
10.62867716535433
 30
0.0
 10
-16.95466141732284
 20
10.62867716535433
 30
0.0
 10
-16.95466141732284
 20
10.62867716535433
 30
0.0
  0
SPLINE
  5
B2
330
1F
100
AcDbEntity
  8
Layer 1
 62
   250
100
AcDbSpline
210
0.0
220
0.0
230
1.0
 70
    11
 71
     3
 72
    44
 73
    40
 74
     0
 42
0.0000000001
 43
0.0000000001
 40
0.0
 40
0.0
 40
0.0
 40
0.0
 40
0.1
 40
0.1
 40
0.1
 40
0.1
 40
0.2
 40
0.2
 40
0.2
 40
0.2
 40
0.3
 40
0.3
 40
0.3
 40
0.3
 40
0.4
 40
0.4
 40
0.4
 40
0.4
 40
0.5
 40
0.5
 40
0.5
 40
0.5
 40
0.6
 40
0.6
 40
0.6
 40
0.6
 40
0.7
 40
0.7
 40
0.7
 40
0.7
 40
0.7999999999999999
 40
0.7999999999999999
 40
0.7999999999999999
 40
0.7999999999999999
 40
0.8999999999999999
 40
0.8999999999999999
 40
0.8999999999999999
 40
0.8999999999999999
 40
1.0
 40
1.0
 40
1.0
 40
1.0
 10
-16.93529921259843
 20
10.62867716535433
 30
0.0
 10
-16.93529921259843
 20
10.62867716535433
 30
0.0
 10
-16.93529921259843
 20
10.68832677165354
 30
0.0
 10
-16.93529921259843
 20
10.68832677165354
 30
0.0
 10
-16.93529921259843
 20
10.68832677165354
 30
0.0
 10
-16.93529921259843
 20
10.68832677165354
 30
0.0
 10
-16.89505118110236
 20
10.68832677165354
 30
0.0
 10
-16.89505118110236
 20
10.68832677165354
 30
0.0
 10
-16.89505118110236
 20
10.68832677165354
 30
0.0
 10
-16.89505118110236
 20
10.68832677165354
 30
0.0
 10
-16.89505118110236
 20
10.6812874015748
 30
0.0
 10
-16.89505118110236
 20
10.6812874015748
 30
0.0
 10
-16.89505118110236
 20
10.6812874015748
 30
0.0
 10
-16.89505118110236
 20
10.6812874015748
 30
0.0
 10
-16.92739763779528
 20
10.6812874015748
 30
0.0
 10
-16.92739763779528
 20
10.6812874015748
 30
0.0
 10
-16.92739763779528
 20
10.6812874015748
 30
0.0
 10
-16.92739763779528
 20
10.6812874015748
 30
0.0
 10
-16.92739763779528
 20
10.66281496062992
 30
0.0
 10
-16.92739763779528
 20
10.66281496062992
 30
0.0
 10
-16.92739763779528
 20
10.66281496062992
 30
0.0
 10
-16.92739763779528
 20
10.66281496062992
 30
0.0
 10
-16.89941338582677
 20
10.66281496062992
 30
0.0
 10
-16.89941338582677
 20
10.66281496062992
 30
0.0
 10
-16.89941338582677
 20
10.66281496062992
 30
0.0
 10
-16.89941338582677
 20
10.66281496062992
 30
0.0
 10
-16.89941338582677
 20
10.65577165354331
 30
0.0
 10
-16.89941338582677
 20
10.65577165354331
 30
0.0
 10
-16.89941338582677
 20
10.65577165354331
 30
0.0
 10
-16.89941338582677
 20
10.65577165354331
 30
0.0
 10
-16.92739763779528
 20
10.65577165354331
 30
0.0
 10
-16.92739763779528
 20
10.65577165354331
 30
0.0
 10
-16.92739763779528
 20
10.65577165354331
 30
0.0
 10
-16.92739763779528
 20
10.65577165354331
 30
0.0
 10
-16.92739763779528
 20
10.62867716535433
 30
0.0
 10
-16.92739763779528
 20
10.62867716535433
 30
0.0
 10
-16.92739763779528
 20
10.62867716535433
 30
0.0
 10
-16.92739763779528
 20
10.62867716535433
 30
0.0
 10
-16.93529921259843
 20
10.62867716535433
 30
0.0
 10
-16.93529921259843
 20
10.62867716535433
 30
0.0
  0
ELLIPSE
  5
B3
330
1F
100
AcDbEntity
  8
Layer 1
 62
   250
370
     9
100
AcDbEllipse
 10
-17.05712992125984
 20
10.47731102362205
 30
0.0
 11
0.0
 21
0.0125
 31
0.0
210
0.0
220
0.0
230
1.0
 40
1.0
 41
0.0
 42
6.283185307179586
  0
SPLINE
  5
B4
330
1F
100
AcDbEntity
  8
Layer 1
 62
   250
370
    18
100
AcDbSpline
210
0.0
220
0.0
230
1.0
 70
    24
 71
     3
 72
     8
 73
     4
 74
     0
 42
0.0000000001
 43
0.0000000001
 40
0.0
 40
0.0
 40
0.0
 40
0.0
 40
1.0
 40
1.0
 40
1.0
 40
1.0
 10
-17.24518897637795
 20
10.74391732283465
 30
0.0
 10
-17.24518897637795
 20
10.74391732283465
 30
0.0
 10
-17.08030708661417
 20
10.51033464566929
 30
0.0
 10
-17.08030708661417
 20
10.51033464566929
 30
0.0
  0
ELLIPSE
  5
B5
330
1F
100
AcDbEntity
  8
Layer 1
 62
   250
370
     9
100
AcDbEllipse
 10
-17.3243031496063
 20
10.6376220472441
 30
0.0
 11
0.0
 21
0.0125
 31
0.0
210
0.0
220
0.0
230
1.0
 40
1.0
 41
0.0
 42
6.283185307179586
  0
SPLINE
  5
B6
330
1F
100
AcDbEntity
  8
Layer 1
 62
   250
370
    18
100
AcDbSpline
210
0.0
220
0.0
230
1.0
 70
    24
 71
     3
 72
     8
 73
     4
 74
     0
 42
0.0000000001
 43
0.0000000001
 40
0.0
 40
0.0
 40
0.0
 40
0.0
 40
1.0
 40
1.0
 40
1.0
 40
1.0
 10
-17.31862204724409
 20
10.61300393700787
 30
0.0
 10
-17.31862204724409
 20
10.61300393700787
 30
0.0
 10
-17.03282677165354
 20
10.25301181102362
 30
0.0
 10
-17.03282677165354
 20
10.25301181102362
 30
0.0
  0
SPLINE
  5
B7
330
1F
100
AcDbEntity
  8
Layer 1
 62
   250
100
AcDbSpline
210
0.0
220
0.0
230
1.0
 70
    11
 71
     3
 72
    40
 73
    36
 74
     0
 42
0.0000000001
 43
0.0000000001
 40
0.0
 40
0.0
 40
0.0
 40
0.0
 40
0.1111111111111111
 40
0.1111111111111111
 40
0.1111111111111111
 40
0.1111111111111111
 40
0.2222222222222222
 40
0.2222222222222222
 40
0.2222222222222222
 40
0.2222222222222222
 40
0.3333333333333333
 40
0.3333333333333333
 40
0.3333333333333333
 40
0.3333333333333333
 40
0.4444444444444444
 40
0.4444444444444444
 40
0.4444444444444444
 40
0.4444444444444444
 40
0.5555555555555556
 40
0.5555555555555556
 40
0.5555555555555556
 40
0.5555555555555556
 40
0.6666666666666667
 40
0.6666666666666667
 40
0.6666666666666667
 40
0.6666666666666667
 40
0.7777777777777779
 40
0.7777777777777779
 40
0.7777777777777779
 40
0.7777777777777779
 40
0.8888888888888891
 40
0.8888888888888891
 40
0.8888888888888891
 40
0.8888888888888891
 40
1.0
 40
1.0
 40
1.0
 40
1.0
 10
-17.29866929133858
 20
10.32965748031496
 30
0.0
 10
-17.29866929133858
 20
10.32965748031496
 30
0.0
 10
-17.30598818897638
 20
10.32965748031496
 30
0.0
 10
-17.30598818897638
 20
10.32965748031496
 30
0.0
 10
-17.30598818897638
 20
10.32965748031496
 30
0.0
 10
-17.30598818897638
 20
10.32965748031496
 30
0.0
 10
-17.30598818897638
 20
10.37632283464567
 30
0.0
 10
-17.30598818897638
 20
10.37632283464567
 30
0.0
 10
-17.30598818897638
 20
10.37632283464567
 30
0.0
 10
-17.30775196850394
 20
10.37464173228346
 30
0.0
 10
-17.31005511811023
 20
10.37296062992126
 30
0.0
 10
-17.31291732283465
 20
10.37127952755906
 30
0.0
 10
-17.31291732283465
 20
10.37127952755906
 30
0.0
 10
-17.31579133858268
 20
10.36960236220472
 30
0.0
 10
-17.31836220472441
 20
10.36833858267716
 30
0.0
 10
-17.32063779527559
 20
10.36750393700787
 30
0.0
 10
-17.32063779527559
 20
10.36750393700787
 30
0.0
 10
-17.32063779527559
 20
10.36750393700787
 30
0.0
 10
-17.32063779527559
 20
10.37457086614173
 30
0.0
 10
-17.32063779527559
 20
10.37457086614173
 30
0.0
 10
-17.32063779527559
 20
10.37457086614173
 30
0.0
 10
-17.31654330708662
 20
10.37650393700787
 30
0.0
 10
-17.31296062992126
 20
10.37883464566929
 30
0.0
 10
-17.30988976377953
 20
10.38157086614173
 30
0.0
 10
-17.30988976377953
 20
10.38157086614173
 30
0.0
 10
-17.30683464566929
 20
10.38432283464567
 30
0.0
 10
-17.30465354330709
 20
10.38697637795276
 30
0.0
 10
-17.30337795275591
 20
10.38955905511811
 30
0.0
 10
-17.30337795275591
 20
10.38955905511811
 30
0.0
 10
-17.30337795275591
 20
10.38955905511811
 30
0.0
 10
-17.29866929133858
 20
10.38955905511811
 30
0.0
 10
-17.29866929133858
 20
10.38955905511811
 30
0.0
 10
-17.29866929133858
 20
10.38955905511811
 30
0.0
 10
-17.29866929133858
 20
10.38955905511811
 30
0.0
 10
-17.29866929133858
 20
10.32965748031496
 30
0.0
 10
-17.29866929133858
 20
10.32965748031496
 30
0.0
  0
SPLINE
  5
B8
330
1F
100
AcDbEntity
  8
Layer 1
 62
   250
100
AcDbSpline
210
0.0
220
0.0
230
1.0
 70
    11
 71
     3
 72
    20
 73
    16
 74
     0
 42
0.0000000001
 43
0.0000000001
 40
0.0
 40
0.0
 40
0.0
 40
0.0
 40
0.25
 40
0.25
 40
0.25
 40
0.25
 40
0.5
 40
0.5
 40
0.5
 40
0.5
 40
0.75
 40
0.75
 40
0.75
 40
0.75
 40
1.0
 40
1.0
 40
1.0
 40
1.0
 10
-17.27579133858268
 20
10.32965748031496
 30
0.0
 10
-17.27579133858268
 20
10.32965748031496
 30
0.0
 10
-17.27579133858268
 20
10.33800393700787
 30
0.0
 10
-17.27579133858268
 20
10.33800393700787
 30
0.0
 10
-17.27579133858268
 20
10.33800393700787
 30
0.0
 10
-17.27579133858268
 20
10.33800393700787
 30
0.0
 10
-17.26744488188976
 20
10.33800393700787
 30
0.0
 10
-17.26744488188976
 20
10.33800393700787
 30
0.0
 10
-17.26744488188976
 20
10.33800393700787
 30
0.0
 10
-17.26744488188976
 20
10.33800393700787
 30
0.0
 10
-17.26744488188976
 20
10.32965748031496
 30
0.0
 10
-17.26744488188976
 20
10.32965748031496
 30
0.0
 10
-17.26744488188976
 20
10.32965748031496
 30
0.0
 10
-17.26744488188976
 20
10.32965748031496
 30
0.0
 10
-17.27579133858268
 20
10.32965748031496
 30
0.0
 10
-17.27579133858268
 20
10.32965748031496
 30
0.0
  0
SPLINE
  5
B9
330
1F
100
AcDbEntity
  8
Layer 1
 62
   250
100
AcDbSpline
210
0.0
220
0.0
230
1.0
 70
    11
 71
     3
 72
    92
 73
    88
 74
     0
 42
0.0000000001
 43
0.0000000001
 40
0.0
 40
0.0
 40
0.0
 40
0.0
 40
0.0454545454545455
 40
0.0454545454545455
 40
0.0454545454545455
 40
0.0454545454545455
 40
0.0909090909090909
 40
0.0909090909090909
 40
0.0909090909090909
 40
0.0909090909090909
 40
0.1363636363636364
 40
0.1363636363636364
 40
0.1363636363636364
 40
0.1363636363636364
 40
0.1818181818181818
 40
0.1818181818181818
 40
0.1818181818181818
 40
0.1818181818181818
 40
0.2272727272727273
 40
0.2272727272727273
 40
0.2272727272727273
 40
0.2272727272727273
 40
0.2727272727272728
 40
0.2727272727272728
 40
0.2727272727272728
 40
0.2727272727272728
 40
0.3181818181818182
 40
0.3181818181818182
 40
0.3181818181818182
 40
0.3181818181818182
 40
0.3636363636363637
 40
0.3636363636363637
 40
0.3636363636363637
 40
0.3636363636363637
 40
0.4090909090909092
 40
0.4090909090909092
 40
0.4090909090909092
 40
0.4090909090909092
 40
0.4545454545454546
 40
0.4545454545454546
 40
0.4545454545454546
 40
0.4545454545454546
 40
0.5000000000000001
 40
0.5000000000000001
 40
0.5000000000000001
 40
0.5000000000000001
 40
0.5454545454545455
 40
0.5454545454545455
 40
0.5454545454545455
 40
0.5454545454545455
 40
0.5909090909090909
 40
0.5909090909090909
 40
0.5909090909090909
 40
0.5909090909090909
 40
0.6363636363636364
 40
0.6363636363636364
 40
0.6363636363636364
 40
0.6363636363636364
 40
0.6818181818181818
 40
0.6818181818181818
 40
0.6818181818181818
 40
0.6818181818181818
 40
0.7272727272727272
 40
0.7272727272727272
 40
0.7272727272727272
 40
0.7272727272727272
 40
0.7727272727272726
 40
0.7727272727272726
 40
0.7727272727272726
 40
0.7727272727272726
 40
0.818181818181818
 40
0.818181818181818
 40
0.818181818181818
 40
0.818181818181818
 40
0.8636363636363634
 40
0.8636363636363634
 40
0.8636363636363634
 40
0.8636363636363634
 40
0.9090909090909088
 40
0.9090909090909088
 40
0.9090909090909088
 40
0.9090909090909088
 40
0.9545454545454543
 40
0.9545454545454543
 40
0.9545454545454543
 40
0.9545454545454543
 40
1.0
 40
1.0
 40
1.0
 40
1.0
 10
-17.21825196850394
 20
10.33670078740158
 30
0.0
 10
-17.21825196850394
 20
10.33670078740158
 30
0.0
 10
-17.21825196850394
 20
10.32965748031496
 30
0.0
 10
-17.21825196850394
 20
10.32965748031496
 30
0.0
 10
-17.21825196850394
 20
10.32965748031496
 30
0.0
 10
-17.21825196850394
 20
10.32965748031496
 30
0.0
 10
-17.25768110236221
 20
10.32965748031496
 30
0.0
 10
-17.25768110236221
 20
10.32965748031496
 30
0.0
 10
-17.25768110236221
 20
10.32965748031496
 30
0.0
 10
-17.25773622047244
 20
10.33142125984252
 30
0.0
 10
-17.25746062992126
 20
10.33311417322835
 30
0.0
 10
-17.25683464566929
 20
10.33474015748032
 30
0.0
 10
-17.25683464566929
 20
10.33474015748032
 30
0.0
 10
-17.25583464566929
 20
10.33743307086614
 30
0.0
 10
-17.25422440944882
 20
10.34007480314961
 30
0.0
 10
-17.2520157480315
 20
10.34268503937008
 30
0.0
 10
-17.2520157480315
 20
10.34268503937008
 30
0.0
 10
-17.24979133858268
 20
10.34528346456693
 30
0.0
 10
-17.24659842519685
 20
10.34829527559055
 30
0.0
 10
-17.24243307086614
 20
10.3517125984252
 30
0.0
 10
-17.24243307086614
 20
10.3517125984252
 30
0.0
 10
-17.23594488188976
 20
10.35703149606299
 30
0.0
 10
-17.23155511811024
 20
10.36124015748032
 30
0.0
 10
-17.22927952755905
 20
10.36435039370079
 30
0.0
 10
-17.22927952755905
 20
10.36435039370079
 30
0.0
 10
-17.227
 20
10.36744881889764
 30
0.0
 10
-17.22586220472441
 20
10.3703937007874
 30
0.0
 10
-17.22586220472441
 20
10.37315748031496
 30
0.0
 10
-17.22586220472441
 20
10.37315748031496
 30
0.0
 10
-17.22586220472441
 20
10.37605905511811
 30
0.0
 10
-17.22690551181102
 20
10.37850393700787
 30
0.0
 10
-17.22897244094488
 20
10.38050393700787
 30
0.0
 10
-17.22897244094488
 20
10.38050393700787
 30
0.0
 10
-17.23105511811024
 20
10.38248818897638
 30
0.0
 10
-17.23376377952756
 20
10.38348818897638
 30
0.0
 10
-17.23709842519685
 20
10.38348818897638
 30
0.0
 10
-17.23709842519685
 20
10.38348818897638
 30
0.0
 10
-17.24062598425197
 20
10.38348818897638
 30
0.0
 10
-17.24344488188976
 20
10.38243307086614
 30
0.0
 10
-17.24555511811024
 20
10.38030708661417
 30
0.0
 10
-17.24555511811024
 20
10.38030708661417
 30
0.0
 10
-17.2476811023622
 20
10.3781968503937
 30
0.0
 10
-17.24875196850394
 20
10.37526771653543
 30
0.0
 10
-17.24877952755905
 20
10.37153149606299
 30
0.0
 10
-17.24877952755905
 20
10.37153149606299
 30
0.0
 10
-17.24877952755905
 20
10.37153149606299
 30
0.0
 10
-17.25630708661417
 20
10.37229527559055
 30
0.0
 10
-17.25630708661417
 20
10.37229527559055
 30
0.0
 10
-17.25630708661417
 20
10.37229527559055
 30
0.0
 10
-17.25579133858268
 20
10.37792125984252
 30
0.0
 10
-17.25384645669291
 20
10.3821968503937
 30
0.0
 10
-17.25048818897638
 20
10.38514173228346
 30
0.0
 10
-17.25048818897638
 20
10.38514173228346
 30
0.0
 10
-17.24712598425197
 20
10.38808661417323
 30
0.0
 10
-17.24259842519685
 20
10.38955905511811
 30
0.0
 10
-17.23693307086614
 20
10.38955905511811
 30
0.0
 10
-17.23693307086614
 20
10.38955905511811
 30
0.0
 10
-17.23120866141732
 20
10.38955905511811
 30
0.0
 10
-17.2266811023622
 20
10.38796062992126
 30
0.0
 10
-17.22335039370079
 20
10.38479527559055
 30
0.0
 10
-17.22335039370079
 20
10.38479527559055
 30
0.0
 10
-17.22
 20
10.38161417322835
 30
0.0
 10
-17.21833464566929
 20
10.37768503937008
 30
0.0
 10
-17.21833464566929
 20
10.37298818897638
 30
0.0
 10
-17.21833464566929
 20
10.37298818897638
 30
0.0
 10
-17.21833464566929
 20
10.37060236220472
 30
0.0
 10
-17.21882283464567
 20
10.36825196850394
 30
0.0
 10
-17.21980708661417
 20
10.36594881889764
 30
0.0
 10
-17.21980708661417
 20
10.36594881889764
 30
0.0
 10
-17.22077952755906
 20
10.36364173228347
 30
0.0
 10
-17.22240551181102
 20
10.3612125984252
 30
0.0
 10
-17.22466929133858
 20
10.35866929133858
 30
0.0
 10
-17.22466929133858
 20
10.35866929133858
 30
0.0
 10
-17.22693307086614
 20
10.35611417322835
 30
0.0
 10
-17.2306968503937
 20
10.35261417322835
 30
0.0
 10
-17.23596062992126
 20
10.34816929133858
 30
0.0
 10
-17.23596062992126
 20
10.34816929133858
 30
0.0
 10
-17.24034645669291
 20
10.34447637795276
 30
0.0
 10
-17.24316929133858
 20
10.34197637795276
 30
0.0
 10
-17.24441732283465
 20
10.34065748031496
 30
0.0
 10
-17.24441732283465
 20
10.34065748031496
 30
0.0
 10
-17.24566929133858
 20
10.33935039370079
 30
0.0
 10
-17.2466968503937
 20
10.33803149606299
 30
0.0
 10
-17.2475157480315
 20
10.33670078740158
 30
0.0
 10
-17.2475157480315
 20
10.33670078740158
 30
0.0
 10
-17.2475157480315
 20
10.33670078740158
 30
0.0
 10
-17.21825196850394
 20
10.33670078740158
 30
0.0
 10
-17.21825196850394
 20
10.33670078740158
 30
0.0
  0
SPLINE
  5
BA
330
1F
100
AcDbEntity
  8
Layer 1
 62
   250
100
AcDbSpline
210
0.0
220
0.0
230
1.0
 70
    11
 71
     3
 72
    52
 73
    48
 74
     0
 42
0.0000000001
 43
0.0000000001
 40
0.0
 40
0.0
 40
0.0
 40
0.0
 40
0.0833333333333333
 40
0.0833333333333333
 40
0.0833333333333333
 40
0.0833333333333333
 40
0.1666666666666667
 40
0.1666666666666667
 40
0.1666666666666667
 40
0.1666666666666667
 40
0.25
 40
0.25
 40
0.25
 40
0.25
 40
0.3333333333333333
 40
0.3333333333333333
 40
0.3333333333333333
 40
0.3333333333333333
 40
0.4166666666666666
 40
0.4166666666666666
 40
0.4166666666666666
 40
0.4166666666666666
 40
0.4999999999999999
 40
0.4999999999999999
 40
0.4999999999999999
 40
0.4999999999999999
 40
0.5833333333333333
 40
0.5833333333333333
 40
0.5833333333333333
 40
0.5833333333333333
 40
0.6666666666666666
 40
0.6666666666666666
 40
0.6666666666666666
 40
0.6666666666666666
 40
0.75
 40
0.75
 40
0.75
 40
0.75
 40
0.8333333333333334
 40
0.8333333333333334
 40
0.8333333333333334
 40
0.8333333333333334
 40
0.9166666666666667
 40
0.9166666666666667
 40
0.9166666666666667
 40
0.9166666666666667
 40
1.0
 40
1.0
 40
1.0
 40
1.0
 10
-17.20776377952756
 20
10.32965748031496
 30
0.0
 10
-17.20776377952756
 20
10.32965748031496
 30
0.0
 10
-17.20776377952756
 20
10.38930708661417
 30
0.0
 10
-17.20776377952756
 20
10.38930708661417
 30
0.0
 10
-17.20776377952756
 20
10.38930708661417
 30
0.0
 10
-17.20776377952756
 20
10.38930708661417
 30
0.0
 10
-17.19986220472441
 20
10.38930708661417
 30
0.0
 10
-17.19986220472441
 20
10.38930708661417
 30
0.0
 10
-17.19986220472441
 20
10.38930708661417
 30
0.0
 10
-17.19986220472441
 20
10.38930708661417
 30
0.0
 10
-17.19986220472441
 20
10.35972440944882
 30
0.0
 10
-17.19986220472441
 20
10.35972440944882
 30
0.0
 10
-17.19986220472441
 20
10.35972440944882
 30
0.0
 10
-17.19986220472441
 20
10.35972440944882
 30
0.0
 10
-17.17024015748031
 20
10.38930708661417
 30
0.0
 10
-17.17024015748031
 20
10.38930708661417
 30
0.0
 10
-17.17024015748031
 20
10.38930708661417
 30
0.0
 10
-17.17024015748031
 20
10.38930708661417
 30
0.0
 10
-17.15954330708662
 20
10.38930708661417
 30
0.0
 10
-17.15954330708662
 20
10.38930708661417
 30
0.0
 10
-17.15954330708662
 20
10.38930708661417
 30
0.0
 10
-17.15954330708662
 20
10.38930708661417
 30
0.0
 10
-17.18457086614173
 20
10.36514173228347
 30
0.0
 10
-17.18457086614173
 20
10.36514173228347
 30
0.0
 10
-17.18457086614173
 20
10.36514173228347
 30
0.0
 10
-17.18457086614173
 20
10.36514173228347
 30
0.0
 10
-17.15844881889764
 20
10.32965748031496
 30
0.0
 10
-17.15844881889764
 20
10.32965748031496
 30
0.0
 10
-17.15844881889764
 20
10.32965748031496
 30
0.0
 10
-17.15844881889764
 20
10.32965748031496
 30
0.0
 10
-17.16886220472441
 20
10.32965748031496
 30
0.0
 10
-17.16886220472441
 20
10.32965748031496
 30
0.0
 10
-17.16886220472441
 20
10.32965748031496
 30
0.0
 10
-17.16886220472441
 20
10.32965748031496
 30
0.0
 10
-17.19009842519685
 20
10.35985039370079
 30
0.0
 10
-17.19009842519685
 20
10.35985039370079
 30
0.0
 10
-17.19009842519685
 20
10.35985039370079
 30
0.0
 10
-17.19009842519685
 20
10.35985039370079
 30
0.0
 10
-17.19986220472441
 20
10.35032283464567
 30
0.0
 10
-17.19986220472441
 20
10.35032283464567
 30
0.0
 10
-17.19986220472441
 20
10.35032283464567
 30
0.0
 10
-17.19986220472441
 20
10.35032283464567
 30
0.0
 10
-17.19986220472441
 20
10.32965748031496
 30
0.0
 10
-17.19986220472441
 20
10.32965748031496
 30
0.0
 10
-17.19986220472441
 20
10.32965748031496
 30
0.0
 10
-17.19986220472441
 20
10.32965748031496
 30
0.0
 10
-17.20776377952756
 20
10.32965748031496
 30
0.0
 10
-17.20776377952756
 20
10.32965748031496
 30
0.0
  0
SPLINE
  5
BB
330
1F
100
AcDbEntity
  8
Layer 1
 62
   250
100
AcDbSpline
210
0.0
220
0.0
230
1.0
 70
    11
 71
     3
 72
   144
 73
   140
 74
     0
 42
0.0000000001
 43
0.0000000001
 40
0.0
 40
0.0
 40
0.0
 40
0.0
 40
0.0285714285714286
 40
0.0285714285714286
 40
0.0285714285714286
 40
0.0285714285714286
 40
0.0571428571428571
 40
0.0571428571428571
 40
0.0571428571428571
 40
0.0571428571428571
 40
0.0857142857142857
 40
0.0857142857142857
 40
0.0857142857142857
 40
0.0857142857142857
 40
0.1142857142857143
 40
0.1142857142857143
 40
0.1142857142857143
 40
0.1142857142857143
 40
0.1428571428571428
 40
0.1428571428571428
 40
0.1428571428571428
 40
0.1428571428571428
 40
0.1714285714285714
 40
0.1714285714285714
 40
0.1714285714285714
 40
0.1714285714285714
 40
0.2
 40
0.2
 40
0.2
 40
0.2
 40
0.2285714285714286
 40
0.2285714285714286
 40
0.2285714285714286
 40
0.2285714285714286
 40
0.2571428571428572
 40
0.2571428571428572
 40
0.2571428571428572
 40
0.2571428571428572
 40
0.2857142857142858
 40
0.2857142857142858
 40
0.2857142857142858
 40
0.2857142857142858
 40
0.3142857142857143
 40
0.3142857142857143
 40
0.3142857142857143
 40
0.3142857142857143
 40
0.3428571428571429
 40
0.3428571428571429
 40
0.3428571428571429
 40
0.3428571428571429
 40
0.3714285714285715
 40
0.3714285714285715
 40
0.3714285714285715
 40
0.3714285714285715
 40
0.4000000000000001
 40
0.4000000000000001
 40
0.4000000000000001
 40
0.4000000000000001
 40
0.4285714285714287
 40
0.4285714285714287
 40
0.4285714285714287
 40
0.4285714285714287
 40
0.4571428571428572
 40
0.4571428571428572
 40
0.4571428571428572
 40
0.4571428571428572
 40
0.4857142857142858
 40
0.4857142857142858
 40
0.4857142857142858
 40
0.4857142857142858
 40
0.5142857142857143
 40
0.5142857142857143
 40
0.5142857142857143
 40
0.5142857142857143
 40
0.5428571428571429
 40
0.5428571428571429
 40
0.5428571428571429
 40
0.5428571428571429
 40
0.5714285714285715
 40
0.5714285714285715
 40
0.5714285714285715
 40
0.5714285714285715
 40
0.6000000000000001
 40
0.6000000000000001
 40
0.6000000000000001
 40
0.6000000000000001
 40
0.6285714285714287
 40
0.6285714285714287
 40
0.6285714285714287
 40
0.6285714285714287
 40
0.6571428571428573
 40
0.6571428571428573
 40
0.6571428571428573
 40
0.6571428571428573
 40
0.6857142857142858
 40
0.6857142857142858
 40
0.6857142857142858
 40
0.6857142857142858
 40
0.7142857142857144
 40
0.7142857142857144
 40
0.7142857142857144
 40
0.7142857142857144
 40
0.742857142857143
 40
0.742857142857143
 40
0.742857142857143
 40
0.742857142857143
 40
0.7714285714285716
 40
0.7714285714285716
 40
0.7714285714285716
 40
0.7714285714285716
 40
0.8000000000000002
 40
0.8000000000000002
 40
0.8000000000000002
 40
0.8000000000000002
 40
0.8285714285714287
 40
0.8285714285714287
 40
0.8285714285714287
 40
0.8285714285714287
 40
0.8571428571428573
 40
0.8571428571428573
 40
0.8571428571428573
 40
0.8571428571428573
 40
0.8857142857142859
 40
0.8857142857142859
 40
0.8857142857142859
 40
0.8857142857142859
 40
0.9142857142857145
 40
0.9142857142857145
 40
0.9142857142857145
 40
0.9142857142857145
 40
0.9428571428571431
 40
0.9428571428571431
 40
0.9428571428571431
 40
0.9428571428571431
 40
0.9714285714285716
 40
0.9714285714285716
 40
0.9714285714285716
 40
0.9714285714285716
 40
1.0
 40
1.0
 40
1.0
 40
1.0
 10
-16.95772440944882
 20
10.27187795275591
 30
0.0
 10
-16.95772440944882
 20
10.27187795275591
 30
0.0
 10
-16.95027952755905
 20
10.27253149606299
 30
0.0
 10
-16.95027952755905
 20
10.27253149606299
 30
0.0
 10
-16.95027952755905
 20
10.27253149606299
 30
0.0
 10
-16.94993307086614
 20
10.26954724409449
 30
0.0
 10
-16.94911023622047
 20
10.26710236220472
 30
0.0
 10
-16.9478188976378
 20
10.26518503937008
 30
0.0
 10
-16.9478188976378
 20
10.26518503937008
 30
0.0
 10
-16.94652755905512
 20
10.26326771653543
 30
0.0
 10
-16.94452755905512
 20
10.26172440944882
 30
0.0
 10
-16.94181889763779
 20
10.26054724409449
 30
0.0
 10
-16.94181889763779
 20
10.26054724409449
 30
0.0
 10
-16.93911023622047
 20
10.25936614173228
 30
0.0
 10
-16.93605511811024
 20
10.25878346456693
 30
0.0
 10
-16.93266929133858
 20
10.25878346456693
 30
0.0
 10
-16.93266929133858
 20
10.25878346456693
 30
0.0
 10
-16.92965354330709
 20
10.25878346456693
 30
0.0
 10
-16.927
 20
10.25922440944882
 30
0.0
 10
-16.9246968503937
 20
10.26011417322835
 30
0.0
 10
-16.9246968503937
 20
10.26011417322835
 30
0.0
 10
-16.92238976377953
 20
10.26101968503937
 30
0.0
 10
-16.92066929133858
 20
10.26224015748032
 30
0.0
 10
-16.91954330708661
 20
10.26379527559055
 30
0.0
 10
-16.91954330708661
 20
10.26379527559055
 30
0.0
 10
-16.91841732283465
 20
10.26536614173228
 30
0.0
 10
-16.91785039370079
 20
10.26705905511811
 30
0.0
 10
-16.91785039370079
 20
10.26890551181102
 30
0.0
 10
-16.91785039370079
 20
10.26890551181102
 30
0.0
 10
-16.91785039370079
 20
10.27077952755906
 30
0.0
 10
-16.91838976377953
 20
10.27240551181102
 30
0.0
 10
-16.91948818897638
 20
10.27381102362205
 30
0.0
 10
-16.91948818897638
 20
10.27381102362205
 30
0.0
 10
-16.92057086614173
 20
10.2752125984252
 30
0.0
 10
-16.92236220472441
 20
10.27637795275591
 30
0.0
 10
-16.92485039370079
 20
10.27732283464567
 30
0.0
 10
-16.92485039370079
 20
10.27732283464567
 30
0.0
 10
-16.92646062992126
 20
10.27794881889764
 30
0.0
 10
-16.92998818897638
 20
10.27892125984252
 30
0.0
 10
-16.93547244094488
 20
10.28024015748031
 30
0.0
 10
-16.93547244094488
 20
10.28024015748031
 30
0.0
 10
-16.94094488188976
 20
10.28155905511811
 30
0.0
 10
-16.94479133858268
 20
10.28279527559055
 30
0.0
 10
-16.94698818897638
 20
10.28396062992126
 30
0.0
 10
-16.94698818897638
 20
10.28396062992126
 30
0.0
 10
-16.94983464566929
 20
10.28544881889764
 30
0.0
 10
-16.95196062992126
 20
10.28730708661417
 30
0.0
 10
-16.95336220472441
 20
10.2895157480315
 30
0.0
 10
-16.95336220472441
 20
10.2895157480315
 30
0.0
 10
-16.95475196850394
 20
10.29172440944882
 30
0.0
 10
-16.95544488188976
 20
10.2941968503937
 30
0.0
 10
-16.95544488188976
 20
10.29694881889764
 30
0.0
 10
-16.95544488188976
 20
10.29694881889764
 30
0.0
 10
-16.95544488188976
 20
10.29994881889764
 30
0.0
 10
-16.95459842519685
 20
10.30276771653543
 30
0.0
 10
-16.95288976377953
 20
10.30537795275591
 30
0.0
 10
-16.95288976377953
 20
10.30537795275591
 30
0.0
 10
-16.95118110236221
 20
10.30800393700787
 30
0.0
 10
-16.9486811023622
 20
10.30998818897638
 30
0.0
 10
-16.94540157480315
 20
10.31135039370079
 30
0.0
 10
-16.94540157480315
 20
10.31135039370079
 30
0.0
 10
-16.94211023622047
 20
10.3126968503937
 30
0.0
 10
-16.93847244094488
 20
10.31337795275591
 30
0.0
 10
-16.93446062992126
 20
10.31337795275591
 30
0.0
 10
-16.93446062992126
 20
10.31337795275591
 30
0.0
 10
-16.93002755905512
 20
10.31337795275591
 30
0.0
 10
-16.92614173228347
 20
10.31266929133858
 30
0.0
 10
-16.92275196850394
 20
10.31124015748031
 30
0.0
 10
-16.92275196850394
 20
10.31124015748031
 30
0.0
 10
-16.91937795275591
 20
10.30982283464567
 30
0.0
 10
-16.91677952755905
 20
10.30772440944882
 30
0.0
 10
-16.91496062992126
 20
10.30496062992126
 30
0.0
 10
-16.91496062992126
 20
10.30496062992126
 30
0.0
 10
-16.91315354330709
 20
10.3021968503937
 30
0.0
 10
-16.91216929133858
 20
10.29905905511811
 30
0.0
 10
-16.91203149606299
 20
10.29555905511811
 30
0.0
 10
-16.91203149606299
 20
10.29555905511811
 30
0.0
 10
-16.91203149606299
 20
10.29555905511811
 30
0.0
 10
-16.91959842519685
 20
10.29498818897638
 30
0.0
 10
-16.91959842519685
 20
10.29498818897638
 30
0.0
 10
-16.91959842519685
 20
10.29498818897638
 30
0.0
 10
-16.9200157480315
 20
10.29875196850394
 30
0.0
 10
-16.92138976377953
 20
10.30161417322835
 30
0.0
 10
-16.92373622047244
 20
10.30353149606299
 30
0.0
 10
-16.92373622047244
 20
10.30353149606299
 30
0.0
 10
-16.92608661417323
 20
10.30546062992126
 30
0.0
 10
-16.92954330708661
 20
10.30641732283465
 30
0.0
 10
-16.93412598425197
 20
10.30641732283465
 30
0.0
 10
-16.93412598425197
 20
10.30641732283465
 30
0.0
 10
-16.93890551181102
 20
10.30641732283465
 30
0.0
 10
-16.94237401574803
 20
10.30554330708661
 30
0.0
 10
-16.94457086614173
 20
10.30379527559055
 30
0.0
 10
-16.94457086614173
 20
10.30379527559055
 30
0.0
 10
-16.94675196850394
 20
10.30204330708661
 30
0.0
 10
-16.94784645669291
 20
10.29993307086614
 30
0.0
 10
-16.94784645669291
 20
10.29747637795276
 30
0.0
 10
-16.94784645669291
 20
10.29747637795276
 30
0.0
 10
-16.94784645669291
 20
10.29532283464567
 30
0.0
 10
-16.94707086614173
 20
10.29355905511811
 30
0.0
 10
-16.94552755905512
 20
10.29218503937008
 30
0.0
 10
-16.94552755905512
 20
10.29218503937008
 30
0.0
 10
-16.944
 20
10.29079527559055
 30
0.0
 10
-16.94004330708661
 20
10.28937795275591
 30
0.0
 10
-16.93362598425197
 20
10.28793307086614
 30
0.0
 10
-16.93362598425197
 20
10.28793307086614
 30
0.0
 10
-16.92720866141732
 20
10.28647637795276
 30
0.0
 10
-16.92280708661417
 20
10.2852125984252
 30
0.0
 10
-16.92041732283464
 20
10.28412992125984
 30
0.0
 10
-16.92041732283464
 20
10.28412992125984
 30
0.0
 10
-16.91694488188976
 20
10.2825157480315
 30
0.0
 10
-16.91437795275591
 20
10.28048818897638
 30
0.0
 10
-16.91272440944882
 20
10.27804330708661
 30
0.0
 10
-16.91272440944882
 20
10.27804330708661
 30
0.0
 10
-16.91107086614173
 20
10.27558661417323
 30
0.0
 10
-16.91025196850394
 20
10.27275196850394
 30
0.0
 10
-16.91025196850394
 20
10.26955905511811
 30
0.0
 10
-16.91025196850394
 20
10.26955905511811
 30
0.0
 10
-16.91025196850394
 20
10.2663779527559
 30
0.0
 10
-16.91115354330709
 20
10.2633937007874
 30
0.0
 10
-16.91297244094488
 20
10.26058661417323
 30
0.0
 10
-16.91297244094488
 20
10.26058661417323
 30
0.0
 10
-16.91479527559055
 20
10.25778346456693
 30
0.0
 10
-16.91740551181102
 20
10.25560236220472
 30
0.0
 10
-16.92080708661417
 20
10.25403149606299
 30
0.0
 10
-16.92080708661417
 20
10.25403149606299
 30
0.0
 10
-16.92420866141732
 20
10.25247637795276
 30
0.0
 10
-16.92804330708661
 20
10.2516968503937
 30
0.0
 10
-16.93229133858268
 20
10.2516968503937
 30
0.0
 10
-16.93229133858268
 20
10.2516968503937
 30
0.0
 10
-16.9376968503937
 20
10.2516968503937
 30
0.0
 10
-16.94222440944882
 20
10.25247637795276
 30
0.0
 10
-16.94586220472441
 20
10.25405905511811
 30
0.0
 10
-16.94586220472441
 20
10.25405905511811
 30
0.0
 10
-16.94951574803149
 20
10.25562992125984
 30
0.0
 10
-16.95237401574803
 20
10.25799212598425
 30
0.0
 10
-16.95446062992126
 20
10.26115748031496
 30
0.0
 10
-16.95446062992126
 20
10.26115748031496
 30
0.0
 10
-16.95652755905512
 20
10.26431102362205
 30
0.0
 10
-16.95762598425197
 20
10.2678937007874
 30
0.0
 10
-16.95772440944882
 20
10.27187795275591
 30
0.0
  0
SPLINE
  5
BC
330
1F
100
AcDbEntity
  8
Layer 1
 62
   250
100
AcDbSpline
210
0.0
220
0.0
230
1.0
 70
    11
 71
     3
 72
    80
 73
    76
 74
     0
 42
0.0000000001
 43
0.0000000001
 40
0.0
 40
0.0
 40
0.0
 40
0.0
 40
0.0526315789473684
 40
0.0526315789473684
 40
0.0526315789473684
 40
0.0526315789473684
 40
0.1052631578947368
 40
0.1052631578947368
 40
0.1052631578947368
 40
0.1052631578947368
 40
0.1578947368421053
 40
0.1578947368421053
 40
0.1578947368421053
 40
0.1578947368421053
 40
0.2105263157894737
 40
0.2105263157894737
 40
0.2105263157894737
 40
0.2105263157894737
 40
0.2631578947368421
 40
0.2631578947368421
 40
0.2631578947368421
 40
0.2631578947368421
 40
0.3157894736842105
 40
0.3157894736842105
 40
0.3157894736842105
 40
0.3157894736842105
 40
0.3684210526315789
 40
0.3684210526315789
 40
0.3684210526315789
 40
0.3684210526315789
 40
0.4210526315789473
 40
0.4210526315789473
 40
0.4210526315789473
 40
0.4210526315789473
 40
0.4736842105263158
 40
0.4736842105263158
 40
0.4736842105263158
 40
0.4736842105263158
 40
0.5263157894736842
 40
0.5263157894736842
 40
0.5263157894736842
 40
0.5263157894736842
 40
0.5789473684210527
 40
0.5789473684210527
 40
0.5789473684210527
 40
0.5789473684210527
 40
0.631578947368421
 40
0.631578947368421
 40
0.631578947368421
 40
0.631578947368421
 40
0.6842105263157894
 40
0.6842105263157894
 40
0.6842105263157894
 40
0.6842105263157894
 40
0.7368421052631577
 40
0.7368421052631577
 40
0.7368421052631577
 40
0.7368421052631577
 40
0.7894736842105261
 40
0.7894736842105261
 40
0.7894736842105261
 40
0.7894736842105261
 40
0.8421052631578945
 40
0.8421052631578945
 40
0.8421052631578945
 40
0.8421052631578945
 40
0.8947368421052628
 40
0.8947368421052628
 40
0.8947368421052628
 40
0.8947368421052628
 40
0.9473684210526312
 40
0.9473684210526312
 40
0.9473684210526312
 40
0.9473684210526312
 40
1.0
 40
1.0
 40
1.0
 40
1.0
 10
-16.88904330708661
 20
10.2527125984252
 30
0.0
 10
-16.88904330708661
 20
10.2527125984252
 30
0.0
 10
-16.90487401574803
 20
10.31236220472441
 30
0.0
 10
-16.90487401574803
 20
10.31236220472441
 30
0.0
 10
-16.90487401574803
 20
10.31236220472441
 30
0.0
 10
-16.90487401574803
 20
10.31236220472441
 30
0.0
 10
-16.89677952755905
 20
10.31236220472441
 30
0.0
 10
-16.89677952755905
 20
10.31236220472441
 30
0.0
 10
-16.89677952755905
 20
10.31236220472441
 30
0.0
 10
-16.89677952755905
 20
10.31236220472441
 30
0.0
 10
-16.8876968503937
 20
10.27326771653543
 30
0.0
 10
-16.8876968503937
 20
10.27326771653543
 30
0.0
 10
-16.8876968503937
 20
10.27326771653543
 30
0.0
 10
-16.88672440944882
 20
10.26916929133858
 30
0.0
 10
-16.88588976377953
 20
10.26510236220472
 30
0.0
 10
-16.8851811023622
 20
10.26105905511811
 30
0.0
 10
-16.8851811023622
 20
10.26105905511811
 30
0.0
 10
-16.88365354330709
 20
10.26743307086614
 30
0.0
 10
-16.88276377952756
 20
10.27110236220472
 30
0.0
 10
-16.88248818897638
 20
10.27208661417323
 30
0.0
 10
-16.88248818897638
 20
10.27208661417323
 30
0.0
 10
-16.88248818897638
 20
10.27208661417323
 30
0.0
 10
-16.87114173228347
 20
10.31236220472441
 30
0.0
 10
-16.87114173228347
 20
10.31236220472441
 30
0.0
 10
-16.87114173228347
 20
10.31236220472441
 30
0.0
 10
-16.87114173228347
 20
10.31236220472441
 30
0.0
 10
-16.86161417322835
 20
10.31236220472441
 30
0.0
 10
-16.86161417322835
 20
10.31236220472441
 30
0.0
 10
-16.86161417322835
 20
10.31236220472441
 30
0.0
 10
-16.86161417322835
 20
10.31236220472441
 30
0.0
 10
-16.85307086614173
 20
10.28216929133858
 30
0.0
 10
-16.85307086614173
 20
10.28216929133858
 30
0.0
 10
-16.85307086614173
 20
10.28216929133858
 30
0.0
 10
-16.85093307086614
 20
10.27468503937008
 30
0.0
 10
-16.84938976377953
 20
10.26764173228347
 30
0.0
 10
-16.84843307086614
 20
10.26105905511811
 30
0.0
 10
-16.84843307086614
 20
10.26105905511811
 30
0.0
 10
-16.84768503937008
 20
10.26482283464567
 30
0.0
 10
-16.84668503937008
 20
10.26915748031496
 30
0.0
 10
-16.84546062992126
 20
10.27403149606299
 30
0.0
 10
-16.84546062992126
 20
10.27403149606299
 30
0.0
 10
-16.84546062992126
 20
10.27403149606299
 30
0.0
 10
-16.83611417322835
 20
10.31236220472441
 30
0.0
 10
-16.83611417322835
 20
10.31236220472441
 30
0.0
 10
-16.83611417322835
 20
10.31236220472441
 30
0.0
 10
-16.83611417322835
 20
10.31236220472441
 30
0.0
 10
-16.82816929133858
 20
10.31236220472441
 30
0.0
 10
-16.82816929133858
 20
10.31236220472441
 30
0.0
 10
-16.82816929133858
 20
10.31236220472441
 30
0.0
 10
-16.82816929133858
 20
10.31236220472441
 30
0.0
 10
-16.84453149606299
 20
10.2527125984252
 30
0.0
 10
-16.84453149606299
 20
10.2527125984252
 30
0.0
 10
-16.84453149606299
 20
10.2527125984252
 30
0.0
 10
-16.84453149606299
 20
10.2527125984252
 30
0.0
 10
-16.85214173228346
 20
10.2527125984252
 30
0.0
 10
-16.85214173228346
 20
10.2527125984252
 30
0.0
 10
-16.85214173228346
 20
10.2527125984252
 30
0.0
 10
-16.85214173228346
 20
10.2527125984252
 30
0.0
 10
-16.86470866141732
 20
10.29815748031496
 30
0.0
 10
-16.86470866141732
 20
10.29815748031496
 30
0.0
 10
-16.86470866141732
 20
10.29815748031496
 30
0.0
 10
-16.86576771653543
 20
10.30196062992126
 30
0.0
 10
-16.86638976377953
 20
10.30429527559055
 30
0.0
 10
-16.86658661417323
 20
10.30515354330709
 30
0.0
 10
-16.86658661417323
 20
10.30515354330709
 30
0.0
 10
-16.86720866141732
 20
10.30242125984252
 30
0.0
 10
-16.86779527559055
 20
10.30008661417323
 30
0.0
 10
-16.86833464566929
 20
10.29815748031496
 30
0.0
 10
-16.86833464566929
 20
10.29815748031496
 30
0.0
 10
-16.86833464566929
 20
10.29815748031496
 30
0.0
 10
-16.88098818897638
 20
10.2527125984252
 30
0.0
 10
-16.88098818897638
 20
10.2527125984252
 30
0.0
 10
-16.88098818897638
 20
10.2527125984252
 30
0.0
 10
-16.88098818897638
 20
10.2527125984252
 30
0.0
 10
-16.88904330708661
 20
10.2527125984252
 30
0.0
 10
-16.88904330708661
 20
10.2527125984252
 30
0.0
  0
SPLINE
  5
BD
330
1F
100
AcDbEntity
  8
Layer 1
 62
   250
370
    18
100
AcDbSpline
210
0.0
220
0.0
230
1.0
 70
     8
 71
     3
 72
    12
 73
     8
 74
     0
 42
0.0000000001
 43
0.0000000001
 40
0.0
 40
0.0
 40
0.0
 40
0.0
 40
0.5
 40
0.5
 40
0.5
 40
0.5
 40
1.0
 40
1.0
 40
1.0
 40
1.0
 10
-17.31037795275591
 20
10.65697244094488
 30
0.0
 10
-17.31037795275591
 20
10.65697244094488
 30
0.0
 10
-17.21969291338583
 20
10.78338188976378
 30
0.0
 10
-17.21969291338583
 20
10.78338188976378
 30
0.0
 10
-17.21969291338583
 20
10.78338188976378
 30
0.0
 10
-17.21969291338583
 20
10.78338188976378
 30
0.0
 10
-16.92565354330709
 20
10.78887795275591
 30
0.0
 10
-16.92565354330709
 20
10.78887795275591
 30
0.0
  0
SPLINE
  5
BE
330
1F
100
AcDbEntity
  8
Layer 1
 62
   250
100
AcDbSpline
210
0.0
220
0.0
230
1.0
 70
    11
 71
     3
 72
   144
 73
   140
 74
     0
 42
0.0000000001
 43
0.0000000001
 40
0.0
 40
0.0
 40
0.0
 40
0.0
 40
0.0285714285714286
 40
0.0285714285714286
 40
0.0285714285714286
 40
0.0285714285714286
 40
0.0571428571428571
 40
0.0571428571428571
 40
0.0571428571428571
 40
0.0571428571428571
 40
0.0857142857142857
 40
0.0857142857142857
 40
0.0857142857142857
 40
0.0857142857142857
 40
0.1142857142857143
 40
0.1142857142857143
 40
0.1142857142857143
 40
0.1142857142857143
 40
0.1428571428571428
 40
0.1428571428571428
 40
0.1428571428571428
 40
0.1428571428571428
 40
0.1714285714285714
 40
0.1714285714285714
 40
0.1714285714285714
 40
0.1714285714285714
 40
0.2
 40
0.2
 40
0.2
 40
0.2
 40
0.2285714285714286
 40
0.2285714285714286
 40
0.2285714285714286
 40
0.2285714285714286
 40
0.2571428571428572
 40
0.2571428571428572
 40
0.2571428571428572
 40
0.2571428571428572
 40
0.2857142857142858
 40
0.2857142857142858
 40
0.2857142857142858
 40
0.2857142857142858
 40
0.3142857142857143
 40
0.3142857142857143
 40
0.3142857142857143
 40
0.3142857142857143
 40
0.3428571428571429
 40
0.3428571428571429
 40
0.3428571428571429
 40
0.3428571428571429
 40
0.3714285714285715
 40
0.3714285714285715
 40
0.3714285714285715
 40
0.3714285714285715
 40
0.4000000000000001
 40
0.4000000000000001
 40
0.4000000000000001
 40
0.4000000000000001
 40
0.4285714285714287
 40
0.4285714285714287
 40
0.4285714285714287
 40
0.4285714285714287
 40
0.4571428571428572
 40
0.4571428571428572
 40
0.4571428571428572
 40
0.4571428571428572
 40
0.4857142857142858
 40
0.4857142857142858
 40
0.4857142857142858
 40
0.4857142857142858
 40
0.5142857142857143
 40
0.5142857142857143
 40
0.5142857142857143
 40
0.5142857142857143
 40
0.5428571428571429
 40
0.5428571428571429
 40
0.5428571428571429
 40
0.5428571428571429
 40
0.5714285714285715
 40
0.5714285714285715
 40
0.5714285714285715
 40
0.5714285714285715
 40
0.6000000000000001
 40
0.6000000000000001
 40
0.6000000000000001
 40
0.6000000000000001
 40
0.6285714285714287
 40
0.6285714285714287
 40
0.6285714285714287
 40
0.6285714285714287
 40
0.6571428571428573
 40
0.6571428571428573
 40
0.6571428571428573
 40
0.6571428571428573
 40
0.6857142857142858
 40
0.6857142857142858
 40
0.6857142857142858
 40
0.6857142857142858
 40
0.7142857142857144
 40
0.7142857142857144
 40
0.7142857142857144
 40
0.7142857142857144
 40
0.742857142857143
 40
0.742857142857143
 40
0.742857142857143
 40
0.742857142857143
 40
0.7714285714285716
 40
0.7714285714285716
 40
0.7714285714285716
 40
0.7714285714285716
 40
0.8000000000000002
 40
0.8000000000000002
 40
0.8000000000000002
 40
0.8000000000000002
 40
0.8285714285714287
 40
0.8285714285714287
 40
0.8285714285714287
 40
0.8285714285714287
 40
0.8571428571428573
 40
0.8571428571428573
 40
0.8571428571428573
 40
0.8571428571428573
 40
0.8857142857142859
 40
0.8857142857142859
 40
0.8857142857142859
 40
0.8857142857142859
 40
0.9142857142857145
 40
0.9142857142857145
 40
0.9142857142857145
 40
0.9142857142857145
 40
0.9428571428571431
 40
0.9428571428571431
 40
0.9428571428571431
 40
0.9428571428571431
 40
0.9714285714285716
 40
0.9714285714285716
 40
0.9714285714285716
 40
0.9714285714285716
 40
1.0
 40
1.0
 40
1.0
 40
1.0
 10
-17.50733070866142
 20
10.93690157480315
 30
0.0
 10
-17.50733070866142
 20
10.93690157480315
 30
0.0
 10
-17.49988582677165
 20
10.93755511811024
 30
0.0
 10
-17.49988582677165
 20
10.93755511811024
 30
0.0
 10
-17.49988582677165
 20
10.93755511811024
 30
0.0
 10
-17.49953937007874
 20
10.93457086614173
 30
0.0
 10
-17.49871653543307
 20
10.93212598425197
 30
0.0
 10
-17.49742519685039
 20
10.93020866141732
 30
0.0
 10
-17.49742519685039
 20
10.93020866141732
 30
0.0
 10
-17.49613385826772
 20
10.92829133858268
 30
0.0
 10
-17.49413385826772
 20
10.92674803149606
 30
0.0
 10
-17.49142519685039
 20
10.92557086614173
 30
0.0
 10
-17.49142519685039
 20
10.92557086614173
 30
0.0
 10
-17.48871653543307
 20
10.92438976377953
 30
0.0
 10
-17.48566141732283
 20
10.92380708661417
 30
0.0
 10
-17.48227559055118
 20
10.92380708661417
 30
0.0
 10
-17.48227559055118
 20
10.92380708661417
 30
0.0
 10
-17.47925984251969
 20
10.92380708661417
 30
0.0
 10
-17.4766062992126
 20
10.92424803149606
 30
0.0
 10
-17.4743031496063
 20
10.92513779527559
 30
0.0
 10
-17.4743031496063
 20
10.92513779527559
 30
0.0
 10
-17.47199606299213
 20
10.92604330708661
 30
0.0
 10
-17.47027559055118
 20
10.92726377952756
 30
0.0
 10
-17.46914960629921
 20
10.92881889763779
 30
0.0
 10
-17.46914960629921
 20
10.92881889763779
 30
0.0
 10
-17.46802362204724
 20
10.93038976377953
 30
0.0
 10
-17.46745669291339
 20
10.93208267716535
 30
0.0
 10
-17.46745669291339
 20
10.93392913385827
 30
0.0
 10
-17.46745669291339
 20
10.93392913385827
 30
0.0
 10
-17.46745669291339
 20
10.9358031496063
 30
0.0
 10
-17.46799606299212
 20
10.93742913385827
 30
0.0
 10
-17.46909448818898
 20
10.93883464566929
 30
0.0
 10
-17.46909448818898
 20
10.93883464566929
 30
0.0
 10
-17.47017716535433
 20
10.94023622047244
 30
0.0
 10
-17.47196850393701
 20
10.94140157480315
 30
0.0
 10
-17.47445669291339
 20
10.94234645669291
 30
0.0
 10
-17.47445669291339
 20
10.94234645669291
 30
0.0
 10
-17.47606692913386
 20
10.94297244094488
 30
0.0
 10
-17.47959448818898
 20
10.94394488188976
 30
0.0
 10
-17.48507874015748
 20
10.94526377952756
 30
0.0
 10
-17.48507874015748
 20
10.94526377952756
 30
0.0
 10
-17.49055118110236
 20
10.94658267716535
 30
0.0
 10
-17.49439763779528
 20
10.9478188976378
 30
0.0
 10
-17.49659448818898
 20
10.9489842519685
 30
0.0
 10
-17.49659448818898
 20
10.9489842519685
 30
0.0
 10
-17.49944094488189
 20
10.95047244094488
 30
0.0
 10
-17.50156692913386
 20
10.95233070866142
 30
0.0
 10
-17.50296850393701
 20
10.95453937007874
 30
0.0
 10
-17.50296850393701
 20
10.95453937007874
 30
0.0
 10
-17.50435826771654
 20
10.95674803149606
 30
0.0
 10
-17.50505118110236
 20
10.95922047244095
 30
0.0
 10
-17.50505118110236
 20
10.96197244094488
 30
0.0
 10
-17.50505118110236
 20
10.96197244094488
 30
0.0
 10
-17.50505118110236
 20
10.96497244094488
 30
0.0
 10
-17.50420472440945
 20
10.96779133858268
 30
0.0
 10
-17.50249606299213
 20
10.97040157480315
 30
0.0
 10
-17.50249606299213
 20
10.97040157480315
 30
0.0
 10
-17.5007874015748
 20
10.97302755905512
 30
0.0
 10
-17.4982874015748
 20
10.97501181102362
 30
0.0
 10
-17.49500787401575
 20
10.97637401574803
 30
0.0
 10
-17.49500787401575
 20
10.97637401574803
 30
0.0
 10
-17.49171653543307
 20
10.97772047244094
 30
0.0
 10
-17.48807874015748
 20
10.97840157480315
 30
0.0
 10
-17.48406692913386
 20
10.97840157480315
 30
0.0
 10
-17.48406692913386
 20
10.97840157480315
 30
0.0
 10
-17.47963385826772
 20
10.97840157480315
 30
0.0
 10
-17.47574803149606
 20
10.97769291338583
 30
0.0
 10
-17.47235826771654
 20
10.97626377952756
 30
0.0
 10
-17.47235826771654
 20
10.97626377952756
 30
0.0
 10
-17.4689842519685
 20
10.97484645669291
 30
0.0
 10
-17.46638582677165
 20
10.97274803149606
 30
0.0
 10
-17.46456692913386
 20
10.9699842519685
 30
0.0
 10
-17.46456692913386
 20
10.9699842519685
 30
0.0
 10
-17.46275984251968
 20
10.96722047244094
 30
0.0
 10
-17.46177559055118
 20
10.96408267716535
 30
0.0
 10
-17.46163779527559
 20
10.96058267716535
 30
0.0
 10
-17.46163779527559
 20
10.96058267716535
 30
0.0
 10
-17.46163779527559
 20
10.96058267716535
 30
0.0
 10
-17.46920472440945
 20
10.96001181102362
 30
0.0
 10
-17.46920472440945
 20
10.96001181102362
 30
0.0
 10
-17.46920472440945
 20
10.96001181102362
 30
0.0
 10
-17.46962204724409
 20
10.96377559055118
 30
0.0
 10
-17.47099606299212
 20
10.96663779527559
 30
0.0
 10
-17.47334251968504
 20
10.96855511811024
 30
0.0
 10
-17.47334251968504
 20
10.96855511811024
 30
0.0
 10
-17.47569291338583
 20
10.9704842519685
 30
0.0
 10
-17.47914960629921
 20
10.97144094488189
 30
0.0
 10
-17.48373228346457
 20
10.97144094488189
 30
0.0
 10
-17.48373228346457
 20
10.97144094488189
 30
0.0
 10
-17.48851181102362
 20
10.97144094488189
 30
0.0
 10
-17.49198031496063
 20
10.97056692913386
 30
0.0
 10
-17.49417716535433
 20
10.9688188976378
 30
0.0
 10
-17.49417716535433
 20
10.9688188976378
 30
0.0
 10
-17.49635826771653
 20
10.96706692913386
 30
0.0
 10
-17.49745275590551
 20
10.96495669291339
 30
0.0
 10
-17.49745275590551
 20
10.9625
 30
0.0
 10
-17.49745275590551
 20
10.9625
 30
0.0
 10
-17.49745275590551
 20
10.96034645669291
 30
0.0
 10
-17.49667716535433
 20
10.95858267716535
 30
0.0
 10
-17.49513385826772
 20
10.95720866141732
 30
0.0
 10
-17.49513385826772
 20
10.95720866141732
 30
0.0
 10
-17.4936062992126
 20
10.9558188976378
 30
0.0
 10
-17.48964960629921
 20
10.95440157480315
 30
0.0
 10
-17.48323228346457
 20
10.95295669291339
 30
0.0
 10
-17.48323228346457
 20
10.95295669291339
 30
0.0
 10
-17.47681496062992
 20
10.9515
 30
0.0
 10
-17.47241338582677
 20
10.95023622047244
 30
0.0
 10
-17.47002362204724
 20
10.94915354330709
 30
0.0
 10
-17.47002362204724
 20
10.94915354330709
 30
0.0
 10
-17.46655118110236
 20
10.94753937007874
 30
0.0
 10
-17.4639842519685
 20
10.94551181102362
 30
0.0
 10
-17.46233070866142
 20
10.94306692913386
 30
0.0
 10
-17.46233070866142
 20
10.94306692913386
 30
0.0
 10
-17.46067716535433
 20
10.94061023622047
 30
0.0
 10
-17.45985826771653
 20
10.93777559055118
 30
0.0
 10
-17.45985826771653
 20
10.93458267716535
 30
0.0
 10
-17.45985826771653
 20
10.93458267716535
 30
0.0
 10
-17.45985826771653
 20
10.93140157480315
 30
0.0
 10
-17.46075984251969
 20
10.92841732283465
 30
0.0
 10
-17.46257874015748
 20
10.92561023622047
 30
0.0
 10
-17.46257874015748
 20
10.92561023622047
 30
0.0
 10
-17.46440157480315
 20
10.92280708661417
 30
0.0
 10
-17.46701181102362
 20
10.92062598425197
 30
0.0
 10
-17.47041338582677
 20
10.91905511811024
 30
0.0
 10
-17.47041338582677
 20
10.91905511811024
 30
0.0
 10
-17.47381496062992
 20
10.9175
 30
0.0
 10
-17.47764960629921
 20
10.91672047244094
 30
0.0
 10
-17.48189763779527
 20
10.91672047244094
 30
0.0
 10
-17.48189763779527
 20
10.91672047244094
 30
0.0
 10
-17.4873031496063
 20
10.91672047244094
 30
0.0
 10
-17.49183070866142
 20
10.9175
 30
0.0
 10
-17.49546850393701
 20
10.91908267716535
 30
0.0
 10
-17.49546850393701
 20
10.91908267716535
 30
0.0
 10
-17.49912204724409
 20
10.92065354330709
 30
0.0
 10
-17.50198031496063
 20
10.9230157480315
 30
0.0
 10
-17.50406692913386
 20
10.92618110236221
 30
0.0
 10
-17.50406692913386
 20
10.92618110236221
 30
0.0
 10
-17.50613385826772
 20
10.92933464566929
 30
0.0
 10
-17.50723228346457
 20
10.93291732283465
 30
0.0
 10
-17.50733070866142
 20
10.93690157480315
 30
0.0
  0
SPLINE
  5
BF
330
1F
100
AcDbEntity
  8
Layer 1
 62
   250
100
AcDbSpline
210
0.0
220
0.0
230
1.0
 70
    11
 71
     3
 72
    80
 73
    76
 74
     0
 42
0.0000000001
 43
0.0000000001
 40
0.0
 40
0.0
 40
0.0
 40
0.0
 40
0.0526315789473684
 40
0.0526315789473684
 40
0.0526315789473684
 40
0.0526315789473684
 40
0.1052631578947368
 40
0.1052631578947368
 40
0.1052631578947368
 40
0.1052631578947368
 40
0.1578947368421053
 40
0.1578947368421053
 40
0.1578947368421053
 40
0.1578947368421053
 40
0.2105263157894737
 40
0.2105263157894737
 40
0.2105263157894737
 40
0.2105263157894737
 40
0.2631578947368421
 40
0.2631578947368421
 40
0.2631578947368421
 40
0.2631578947368421
 40
0.3157894736842105
 40
0.3157894736842105
 40
0.3157894736842105
 40
0.3157894736842105
 40
0.3684210526315789
 40
0.3684210526315789
 40
0.3684210526315789
 40
0.3684210526315789
 40
0.4210526315789473
 40
0.4210526315789473
 40
0.4210526315789473
 40
0.4210526315789473
 40
0.4736842105263158
 40
0.4736842105263158
 40
0.4736842105263158
 40
0.4736842105263158
 40
0.5263157894736842
 40
0.5263157894736842
 40
0.5263157894736842
 40
0.5263157894736842
 40
0.5789473684210527
 40
0.5789473684210527
 40
0.5789473684210527
 40
0.5789473684210527
 40
0.631578947368421
 40
0.631578947368421
 40
0.631578947368421
 40
0.631578947368421
 40
0.6842105263157894
 40
0.6842105263157894
 40
0.6842105263157894
 40
0.6842105263157894
 40
0.7368421052631577
 40
0.7368421052631577
 40
0.7368421052631577
 40
0.7368421052631577
 40
0.7894736842105261
 40
0.7894736842105261
 40
0.7894736842105261
 40
0.7894736842105261
 40
0.8421052631578945
 40
0.8421052631578945
 40
0.8421052631578945
 40
0.8421052631578945
 40
0.8947368421052628
 40
0.8947368421052628
 40
0.8947368421052628
 40
0.8947368421052628
 40
0.9473684210526312
 40
0.9473684210526312
 40
0.9473684210526312
 40
0.9473684210526312
 40
1.0
 40
1.0
 40
1.0
 40
1.0
 10
-17.43864960629921
 20
10.91773622047244
 30
0.0
 10
-17.43864960629921
 20
10.91773622047244
 30
0.0
 10
-17.45448031496063
 20
10.97738582677165
 30
0.0
 10
-17.45448031496063
 20
10.97738582677165
 30
0.0
 10
-17.45448031496063
 20
10.97738582677165
 30
0.0
 10
-17.45448031496063
 20
10.97738582677165
 30
0.0
 10
-17.44638582677165
 20
10.97738582677165
 30
0.0
 10
-17.44638582677165
 20
10.97738582677165
 30
0.0
 10
-17.44638582677165
 20
10.97738582677165
 30
0.0
 10
-17.44638582677165
 20
10.97738582677165
 30
0.0
 10
-17.4373031496063
 20
10.93829133858268
 30
0.0
 10
-17.4373031496063
 20
10.93829133858268
 30
0.0
 10
-17.4373031496063
 20
10.93829133858268
 30
0.0
 10
-17.43633070866142
 20
10.93419291338583
 30
0.0
 10
-17.43549606299213
 20
10.93012598425197
 30
0.0
 10
-17.4347874015748
 20
10.92608267716535
 30
0.0
 10
-17.4347874015748
 20
10.92608267716535
 30
0.0
 10
-17.43325984251969
 20
10.93245669291339
 30
0.0
 10
-17.43237007874016
 20
10.93612598425197
 30
0.0
 10
-17.43209448818898
 20
10.93711023622047
 30
0.0
 10
-17.43209448818898
 20
10.93711023622047
 30
0.0
 10
-17.43209448818898
 20
10.93711023622047
 30
0.0
 10
-17.42074803149606
 20
10.97738582677165
 30
0.0
 10
-17.42074803149606
 20
10.97738582677165
 30
0.0
 10
-17.42074803149606
 20
10.97738582677165
 30
0.0
 10
-17.42074803149606
 20
10.97738582677165
 30
0.0
 10
-17.41122047244095
 20
10.97738582677165
 30
0.0
 10
-17.41122047244095
 20
10.97738582677165
 30
0.0
 10
-17.41122047244095
 20
10.97738582677165
 30
0.0
 10
-17.41122047244095
 20
10.97738582677165
 30
0.0
 10
-17.40267716535433
 20
10.94719291338583
 30
0.0
 10
-17.40267716535433
 20
10.94719291338583
 30
0.0
 10
-17.40267716535433
 20
10.94719291338583
 30
0.0
 10
-17.40053937007874
 20
10.93970866141732
 30
0.0
 10
-17.39899606299213
 20
10.93266535433071
 30
0.0
 10
-17.39803937007874
 20
10.92608267716535
 30
0.0
 10
-17.39803937007874
 20
10.92608267716535
 30
0.0
 10
-17.39729133858268
 20
10.92984645669291
 30
0.0
 10
-17.39629133858268
 20
10.9341811023622
 30
0.0
 10
-17.39506692913386
 20
10.93905511811024
 30
0.0
 10
-17.39506692913386
 20
10.93905511811024
 30
0.0
 10
-17.39506692913386
 20
10.93905511811024
 30
0.0
 10
-17.38572047244094
 20
10.97738582677165
 30
0.0
 10
-17.38572047244094
 20
10.97738582677165
 30
0.0
 10
-17.38572047244094
 20
10.97738582677165
 30
0.0
 10
-17.38572047244094
 20
10.97738582677165
 30
0.0
 10
-17.37777559055118
 20
10.97738582677165
 30
0.0
 10
-17.37777559055118
 20
10.97738582677165
 30
0.0
 10
-17.37777559055118
 20
10.97738582677165
 30
0.0
 10
-17.37777559055118
 20
10.97738582677165
 30
0.0
 10
-17.39413779527559
 20
10.91773622047244
 30
0.0
 10
-17.39413779527559
 20
10.91773622047244
 30
0.0
 10
-17.39413779527559
 20
10.91773622047244
 30
0.0
 10
-17.39413779527559
 20
10.91773622047244
 30
0.0
 10
-17.40174803149606
 20
10.91773622047244
 30
0.0
 10
-17.40174803149606
 20
10.91773622047244
 30
0.0
 10
-17.40174803149606
 20
10.91773622047244
 30
0.0
 10
-17.40174803149606
 20
10.91773622047244
 30
0.0
 10
-17.41431496062992
 20
10.9631811023622
 30
0.0
 10
-17.41431496062992
 20
10.9631811023622
 30
0.0
 10
-17.41431496062992
 20
10.9631811023622
 30
0.0
 10
-17.41537401574803
 20
10.9669842519685
 30
0.0
 10
-17.41599606299213
 20
10.96931889763779
 30
0.0
 10
-17.41619291338583
 20
10.97017716535433
 30
0.0
 10
-17.41619291338583
 20
10.97017716535433
 30
0.0
 10
-17.41681496062992
 20
10.96744488188976
 30
0.0
 10
-17.41740157480315
 20
10.96511023622047
 30
0.0
 10
-17.41794094488189
 20
10.9631811023622
 30
0.0
 10
-17.41794094488189
 20
10.9631811023622
 30
0.0
 10
-17.41794094488189
 20
10.9631811023622
 30
0.0
 10
-17.43059448818898
 20
10.91773622047244
 30
0.0
 10
-17.43059448818898
 20
10.91773622047244
 30
0.0
 10
-17.43059448818898
 20
10.91773622047244
 30
0.0
 10
-17.43059448818898
 20
10.91773622047244
 30
0.0
 10
-17.43864960629921
 20
10.91773622047244
 30
0.0
 10
-17.43864960629921
 20
10.91773622047244
 30
0.0
  0
SPLINE
  5
C0
330
1F
100
AcDbEntity
  8
Layer 1
 62
   250
100
AcDbSpline
210
0.0
220
0.0
230
1.0
 70
    11
 71
     3
 72
    92
 73
    88
 74
     0
 42
0.0000000001
 43
0.0000000001
 40
0.0
 40
0.0
 40
0.0
 40
0.0
 40
0.0454545454545455
 40
0.0454545454545455
 40
0.0454545454545455
 40
0.0454545454545455
 40
0.0909090909090909
 40
0.0909090909090909
 40
0.0909090909090909
 40
0.0909090909090909
 40
0.1363636363636364
 40
0.1363636363636364
 40
0.1363636363636364
 40
0.1363636363636364
 40
0.1818181818181818
 40
0.1818181818181818
 40
0.1818181818181818
 40
0.1818181818181818
 40
0.2272727272727273
 40
0.2272727272727273
 40
0.2272727272727273
 40
0.2272727272727273
 40
0.2727272727272728
 40
0.2727272727272728
 40
0.2727272727272728
 40
0.2727272727272728
 40
0.3181818181818182
 40
0.3181818181818182
 40
0.3181818181818182
 40
0.3181818181818182
 40
0.3636363636363637
 40
0.3636363636363637
 40
0.3636363636363637
 40
0.3636363636363637
 40
0.4090909090909092
 40
0.4090909090909092
 40
0.4090909090909092
 40
0.4090909090909092
 40
0.4545454545454546
 40
0.4545454545454546
 40
0.4545454545454546
 40
0.4545454545454546
 40
0.5000000000000001
 40
0.5000000000000001
 40
0.5000000000000001
 40
0.5000000000000001
 40
0.5454545454545455
 40
0.5454545454545455
 40
0.5454545454545455
 40
0.5454545454545455
 40
0.5909090909090909
 40
0.5909090909090909
 40
0.5909090909090909
 40
0.5909090909090909
 40
0.6363636363636364
 40
0.6363636363636364
 40
0.6363636363636364
 40
0.6363636363636364
 40
0.6818181818181818
 40
0.6818181818181818
 40
0.6818181818181818
 40
0.6818181818181818
 40
0.7272727272727272
 40
0.7272727272727272
 40
0.7272727272727272
 40
0.7272727272727272
 40
0.7727272727272726
 40
0.7727272727272726
 40
0.7727272727272726
 40
0.7727272727272726
 40
0.818181818181818
 40
0.818181818181818
 40
0.818181818181818
 40
0.818181818181818
 40
0.8636363636363634
 40
0.8636363636363634
 40
0.8636363636363634
 40
0.8636363636363634
 40
0.9090909090909088
 40
0.9090909090909088
 40
0.9090909090909088
 40
0.9090909090909088
 40
0.9545454545454543
 40
0.9545454545454543
 40
0.9545454545454543
 40
0.9545454545454543
 40
1.0
 40
1.0
 40
1.0
 40
1.0
 10
-17.18332677165354
 20
10.99073228346457
 30
0.0
 10
-17.18332677165354
 20
10.99073228346457
 30
0.0
 10
-17.18332677165354
 20
10.98368897637795
 30
0.0
 10
-17.18332677165354
 20
10.98368897637795
 30
0.0
 10
-17.18332677165354
 20
10.98368897637795
 30
0.0
 10
-17.18332677165354
 20
10.98368897637795
 30
0.0
 10
-17.22275590551181
 20
10.98368897637795
 30
0.0
 10
-17.22275590551181
 20
10.98368897637795
 30
0.0
 10
-17.22275590551181
 20
10.98368897637795
 30
0.0
 10
-17.22281102362205
 20
10.98545275590551
 30
0.0
 10
-17.22253543307087
 20
10.98714566929134
 30
0.0
 10
-17.2219094488189
 20
10.98877165354331
 30
0.0
 10
-17.2219094488189
 20
10.98877165354331
 30
0.0
 10
-17.2209094488189
 20
10.99146456692913
 30
0.0
 10
-17.21929921259843
 20
10.9941062992126
 30
0.0
 10
-17.2170905511811
 20
10.99671653543307
 30
0.0
 10
-17.2170905511811
 20
10.99671653543307
 30
0.0
 10
-17.21486614173228
 20
10.99931496062992
 30
0.0
 10
-17.21167322834646
 20
11.00232677165354
 30
0.0
 10
-17.20750787401575
 20
11.00574409448819
 30
0.0
 10
-17.20750787401575
 20
11.00574409448819
 30
0.0
 10
-17.20101968503937
 20
11.01106299212598
 30
0.0
 10
-17.19662992125984
 20
11.01527165354331
 30
0.0
 10
-17.19435433070866
 20
11.01838188976378
 30
0.0
 10
-17.19435433070866
 20
11.01838188976378
 30
0.0
 10
-17.19207480314961
 20
11.02148031496063
 30
0.0
 10
-17.19093700787402
 20
11.02442519685039
 30
0.0
 10
-17.19093700787402
 20
11.02718897637795
 30
0.0
 10
-17.19093700787402
 20
11.02718897637795
 30
0.0
 10
-17.19093700787402
 20
11.0300905511811
 30
0.0
 10
-17.19198031496063
 20
11.03253543307087
 30
0.0
 10
-17.19404724409449
 20
11.03453543307087
 30
0.0
 10
-17.19404724409449
 20
11.03453543307087
 30
0.0
 10
-17.19612992125984
 20
11.03651968503937
 30
0.0
 10
-17.19883858267717
 20
11.03751968503937
 30
0.0
 10
-17.20217322834646
 20
11.03751968503937
 30
0.0
 10
-17.20217322834646
 20
11.03751968503937
 30
0.0
 10
-17.20570078740158
 20
11.03751968503937
 30
0.0
 10
-17.20851968503937
 20
11.03646456692913
 30
0.0
 10
-17.21062992125984
 20
11.03433858267717
 30
0.0
 10
-17.21062992125984
 20
11.03433858267717
 30
0.0
 10
-17.21275590551181
 20
11.03222834645669
 30
0.0
 10
-17.21382677165354
 20
11.02929921259843
 30
0.0
 10
-17.21385433070866
 20
11.02556299212598
 30
0.0
 10
-17.21385433070866
 20
11.02556299212598
 30
0.0
 10
-17.21385433070866
 20
11.02556299212598
 30
0.0
 10
-17.22138188976378
 20
11.02632677165354
 30
0.0
 10
-17.22138188976378
 20
11.02632677165354
 30
0.0
 10
-17.22138188976378
 20
11.02632677165354
 30
0.0
 10
-17.22086614173228
 20
11.03195275590551
 30
0.0
 10
-17.21892125984252
 20
11.03622834645669
 30
0.0
 10
-17.21556299212599
 20
11.03917322834646
 30
0.0
 10
-17.21556299212599
 20
11.03917322834646
 30
0.0
 10
-17.21220078740157
 20
11.04211811023622
 30
0.0
 10
-17.20767322834646
 20
11.0435905511811
 30
0.0
 10
-17.20200787401575
 20
11.0435905511811
 30
0.0
 10
-17.20200787401575
 20
11.0435905511811
 30
0.0
 10
-17.19628346456693
 20
11.0435905511811
 30
0.0
 10
-17.19175590551181
 20
11.04199212598425
 30
0.0
 10
-17.18842519685039
 20
11.03882677165354
 30
0.0
 10
-17.18842519685039
 20
11.03882677165354
 30
0.0
 10
-17.18507480314961
 20
11.03564566929134
 30
0.0
 10
-17.1834094488189
 20
11.03171653543307
 30
0.0
 10
-17.1834094488189
 20
11.02701968503937
 30
0.0
 10
-17.1834094488189
 20
11.02701968503937
 30
0.0
 10
-17.1834094488189
 20
11.02463385826772
 30
0.0
 10
-17.18389763779528
 20
11.02228346456693
 30
0.0
 10
-17.18488188976378
 20
11.01998031496063
 30
0.0
 10
-17.18488188976378
 20
11.01998031496063
 30
0.0
 10
-17.18585433070866
 20
11.01767322834646
 30
0.0
 10
-17.18748031496063
 20
11.01524409448819
 30
0.0
 10
-17.18974409448819
 20
11.01270078740158
 30
0.0
 10
-17.18974409448819
 20
11.01270078740158
 30
0.0
 10
-17.19200787401575
 20
11.01014566929134
 30
0.0
 10
-17.19577165354331
 20
11.00664566929134
 30
0.0
 10
-17.20103543307087
 20
11.00220078740158
 30
0.0
 10
-17.20103543307087
 20
11.00220078740158
 30
0.0
 10
-17.20542125984252
 20
10.99850787401575
 30
0.0
 10
-17.20824409448819
 20
10.99600787401575
 30
0.0
 10
-17.20949212598425
 20
10.99468897637795
 30
0.0
 10
-17.20949212598425
 20
10.99468897637795
 30
0.0
 10
-17.21074409448819
 20
10.99338188976378
 30
0.0
 10
-17.21177165354331
 20
10.99206299212598
 30
0.0
 10
-17.2125905511811
 20
10.99073228346457
 30
0.0
 10
-17.2125905511811
 20
10.99073228346457
 30
0.0
 10
-17.2125905511811
 20
10.99073228346457
 30
0.0
 10
-17.18332677165354
 20
10.99073228346457
 30
0.0
 10
-17.18332677165354
 20
10.99073228346457
 30
0.0
  0
SPLINE
  5
C1
330
1F
100
AcDbEntity
  8
Layer 1
 62
   250
100
AcDbSpline
210
0.0
220
0.0
230
1.0
 70
    11
 71
     3
 72
    92
 73
    88
 74
     0
 42
0.0000000001
 43
0.0000000001
 40
0.0
 40
0.0
 40
0.0
 40
0.0
 40
0.0454545454545455
 40
0.0454545454545455
 40
0.0454545454545455
 40
0.0454545454545455
 40
0.0909090909090909
 40
0.0909090909090909
 40
0.0909090909090909
 40
0.0909090909090909
 40
0.1363636363636364
 40
0.1363636363636364
 40
0.1363636363636364
 40
0.1363636363636364
 40
0.1818181818181818
 40
0.1818181818181818
 40
0.1818181818181818
 40
0.1818181818181818
 40
0.2272727272727273
 40
0.2272727272727273
 40
0.2272727272727273
 40
0.2272727272727273
 40
0.2727272727272728
 40
0.2727272727272728
 40
0.2727272727272728
 40
0.2727272727272728
 40
0.3181818181818182
 40
0.3181818181818182
 40
0.3181818181818182
 40
0.3181818181818182
 40
0.3636363636363637
 40
0.3636363636363637
 40
0.3636363636363637
 40
0.3636363636363637
 40
0.4090909090909092
 40
0.4090909090909092
 40
0.4090909090909092
 40
0.4090909090909092
 40
0.4545454545454546
 40
0.4545454545454546
 40
0.4545454545454546
 40
0.4545454545454546
 40
0.5000000000000001
 40
0.5000000000000001
 40
0.5000000000000001
 40
0.5000000000000001
 40
0.5454545454545455
 40
0.5454545454545455
 40
0.5454545454545455
 40
0.5454545454545455
 40
0.5909090909090909
 40
0.5909090909090909
 40
0.5909090909090909
 40
0.5909090909090909
 40
0.6363636363636364
 40
0.6363636363636364
 40
0.6363636363636364
 40
0.6363636363636364
 40
0.6818181818181818
 40
0.6818181818181818
 40
0.6818181818181818
 40
0.6818181818181818
 40
0.7272727272727272
 40
0.7272727272727272
 40
0.7272727272727272
 40
0.7272727272727272
 40
0.7727272727272726
 40
0.7727272727272726
 40
0.7727272727272726
 40
0.7727272727272726
 40
0.818181818181818
 40
0.818181818181818
 40
0.818181818181818
 40
0.818181818181818
 40
0.8636363636363634
 40
0.8636363636363634
 40
0.8636363636363634
 40
0.8636363636363634
 40
0.9090909090909088
 40
0.9090909090909088
 40
0.9090909090909088
 40
0.9090909090909088
 40
0.9545454545454543
 40
0.9545454545454543
 40
0.9545454545454543
 40
0.9545454545454543
 40
1.0
 40
1.0
 40
1.0
 40
1.0
 10
-17.13698031496063
 20
10.99073228346457
 30
0.0
 10
-17.13698031496063
 20
10.99073228346457
 30
0.0
 10
-17.13698031496063
 20
10.98368897637795
 30
0.0
 10
-17.13698031496063
 20
10.98368897637795
 30
0.0
 10
-17.13698031496063
 20
10.98368897637795
 30
0.0
 10
-17.13698031496063
 20
10.98368897637795
 30
0.0
 10
-17.1764094488189
 20
10.98368897637795
 30
0.0
 10
-17.1764094488189
 20
10.98368897637795
 30
0.0
 10
-17.1764094488189
 20
10.98368897637795
 30
0.0
 10
-17.17646456692913
 20
10.98545275590551
 30
0.0
 10
-17.17618897637795
 20
10.98714566929134
 30
0.0
 10
-17.17556299212599
 20
10.98877165354331
 30
0.0
 10
-17.17556299212599
 20
10.98877165354331
 30
0.0
 10
-17.17456299212598
 20
10.99146456692913
 30
0.0
 10
-17.17295275590551
 20
10.9941062992126
 30
0.0
 10
-17.17074409448819
 20
10.99671653543307
 30
0.0
 10
-17.17074409448819
 20
10.99671653543307
 30
0.0
 10
-17.16851968503937
 20
10.99931496062992
 30
0.0
 10
-17.16532677165354
 20
11.00232677165354
 30
0.0
 10
-17.16116141732283
 20
11.00574409448819
 30
0.0
 10
-17.16116141732283
 20
11.00574409448819
 30
0.0
 10
-17.15467322834646
 20
11.01106299212598
 30
0.0
 10
-17.15028346456693
 20
11.01527165354331
 30
0.0
 10
-17.14800787401575
 20
11.01838188976378
 30
0.0
 10
-17.14800787401575
 20
11.01838188976378
 30
0.0
 10
-17.14572834645669
 20
11.02148031496063
 30
0.0
 10
-17.1445905511811
 20
11.02442519685039
 30
0.0
 10
-17.1445905511811
 20
11.02718897637795
 30
0.0
 10
-17.1445905511811
 20
11.02718897637795
 30
0.0
 10
-17.1445905511811
 20
11.0300905511811
 30
0.0
 10
-17.14563385826771
 20
11.03253543307087
 30
0.0
 10
-17.14770078740158
 20
11.03453543307087
 30
0.0
 10
-17.14770078740158
 20
11.03453543307087
 30
0.0
 10
-17.14978346456693
 20
11.03651968503937
 30
0.0
 10
-17.15249212598425
 20
11.03751968503937
 30
0.0
 10
-17.15582677165354
 20
11.03751968503937
 30
0.0
 10
-17.15582677165354
 20
11.03751968503937
 30
0.0
 10
-17.15935433070866
 20
11.03751968503937
 30
0.0
 10
-17.16217322834646
 20
11.03646456692913
 30
0.0
 10
-17.16428346456693
 20
11.03433858267717
 30
0.0
 10
-17.16428346456693
 20
11.03433858267717
 30
0.0
 10
-17.1664094488189
 20
11.03222834645669
 30
0.0
 10
-17.16748031496063
 20
11.02929921259843
 30
0.0
 10
-17.16750787401575
 20
11.02556299212598
 30
0.0
 10
-17.16750787401575
 20
11.02556299212598
 30
0.0
 10
-17.16750787401575
 20
11.02556299212598
 30
0.0
 10
-17.17503543307087
 20
11.02632677165354
 30
0.0
 10
-17.17503543307087
 20
11.02632677165354
 30
0.0
 10
-17.17503543307087
 20
11.02632677165354
 30
0.0
 10
-17.17451968503937
 20
11.03195275590551
 30
0.0
 10
-17.1725748031496
 20
11.03622834645669
 30
0.0
 10
-17.16921653543307
 20
11.03917322834646
 30
0.0
 10
-17.16921653543307
 20
11.03917322834646
 30
0.0
 10
-17.16585433070866
 20
11.04211811023622
 30
0.0
 10
-17.16132677165354
 20
11.0435905511811
 30
0.0
 10
-17.15566141732284
 20
11.0435905511811
 30
0.0
 10
-17.15566141732284
 20
11.0435905511811
 30
0.0
 10
-17.14993700787402
 20
11.0435905511811
 30
0.0
 10
-17.1454094488189
 20
11.04199212598425
 30
0.0
 10
-17.14207874015748
 20
11.03882677165354
 30
0.0
 10
-17.14207874015748
 20
11.03882677165354
 30
0.0
 10
-17.13872834645669
 20
11.03564566929134
 30
0.0
 10
-17.13706299212598
 20
11.03171653543307
 30
0.0
 10
-17.13706299212598
 20
11.02701968503937
 30
0.0
 10
-17.13706299212598
 20
11.02701968503937
 30
0.0
 10
-17.13706299212598
 20
11.02463385826772
 30
0.0
 10
-17.13755118110236
 20
11.02228346456693
 30
0.0
 10
-17.13853543307087
 20
11.01998031496063
 30
0.0
 10
-17.13853543307087
 20
11.01998031496063
 30
0.0
 10
-17.13950787401575
 20
11.01767322834646
 30
0.0
 10
-17.14113385826772
 20
11.01524409448819
 30
0.0
 10
-17.14339763779527
 20
11.01270078740158
 30
0.0
 10
-17.14339763779527
 20
11.01270078740158
 30
0.0
 10
-17.14566141732283
 20
11.01014566929134
 30
0.0
 10
-17.14942519685039
 20
11.00664566929134
 30
0.0
 10
-17.15468897637795
 20
11.00220078740158
 30
0.0
 10
-17.15468897637795
 20
11.00220078740158
 30
0.0
 10
-17.15907480314961
 20
10.99850787401575
 30
0.0
 10
-17.16189763779527
 20
10.99600787401575
 30
0.0
 10
-17.16314566929134
 20
10.99468897637795
 30
0.0
 10
-17.16314566929134
 20
10.99468897637795
 30
0.0
 10
-17.16439763779528
 20
10.99338188976378
 30
0.0
 10
-17.16542519685039
 20
10.99206299212598
 30
0.0
 10
-17.16624409448819
 20
10.99073228346457
 30
0.0
 10
-17.16624409448819
 20
10.99073228346457
 30
0.0
 10
-17.16624409448819
 20
10.99073228346457
 30
0.0
 10
-17.13698031496063
 20
10.99073228346457
 30
0.0
 10
-17.13698031496063
 20
10.99073228346457
 30
0.0
  0
SPLINE
  5
C2
330
1F
100
AcDbEntity
  8
Layer 1
 62
   250
100
AcDbSpline
210
0.0
220
0.0
230
1.0
 70
    11
 71
     3
 72
    80
 73
    76
 74
     0
 42
0.0000000001
 43
0.0000000001
 40
0.0
 40
0.0
 40
0.0
 40
0.0
 40
0.0526315789473684
 40
0.0526315789473684
 40
0.0526315789473684
 40
0.0526315789473684
 40
0.1052631578947368
 40
0.1052631578947368
 40
0.1052631578947368
 40
0.1052631578947368
 40
0.1578947368421053
 40
0.1578947368421053
 40
0.1578947368421053
 40
0.1578947368421053
 40
0.2105263157894737
 40
0.2105263157894737
 40
0.2105263157894737
 40
0.2105263157894737
 40
0.2631578947368421
 40
0.2631578947368421
 40
0.2631578947368421
 40
0.2631578947368421
 40
0.3157894736842105
 40
0.3157894736842105
 40
0.3157894736842105
 40
0.3157894736842105
 40
0.3684210526315789
 40
0.3684210526315789
 40
0.3684210526315789
 40
0.3684210526315789
 40
0.4210526315789473
 40
0.4210526315789473
 40
0.4210526315789473
 40
0.4210526315789473
 40
0.4736842105263158
 40
0.4736842105263158
 40
0.4736842105263158
 40
0.4736842105263158
 40
0.5263157894736842
 40
0.5263157894736842
 40
0.5263157894736842
 40
0.5263157894736842
 40
0.5789473684210527
 40
0.5789473684210527
 40
0.5789473684210527
 40
0.5789473684210527
 40
0.631578947368421
 40
0.631578947368421
 40
0.631578947368421
 40
0.631578947368421
 40
0.6842105263157894
 40
0.6842105263157894
 40
0.6842105263157894
 40
0.6842105263157894
 40
0.7368421052631577
 40
0.7368421052631577
 40
0.7368421052631577
 40
0.7368421052631577
 40
0.7894736842105261
 40
0.7894736842105261
 40
0.7894736842105261
 40
0.7894736842105261
 40
0.8421052631578945
 40
0.8421052631578945
 40
0.8421052631578945
 40
0.8421052631578945
 40
0.8947368421052628
 40
0.8947368421052628
 40
0.8947368421052628
 40
0.8947368421052628
 40
0.9473684210526312
 40
0.9473684210526312
 40
0.9473684210526312
 40
0.9473684210526312
 40
1.0
 40
1.0
 40
1.0
 40
1.0
 10
-17.09877165354331
 20
10.98368897637795
 30
0.0
 10
-17.09877165354331
 20
10.98368897637795
 30
0.0
 10
-17.09877165354331
 20
10.99003543307087
 30
0.0
 10
-17.09877165354331
 20
10.99003543307087
 30
0.0
 10
-17.09877165354331
 20
10.99003543307087
 30
0.0
 10
-17.10214566929134
 20
10.98514566929134
 30
0.0
 10
-17.10671653543307
 20
10.98271653543307
 30
0.0
 10
-17.11249212598425
 20
10.98271653543307
 30
0.0
 10
-17.11249212598425
 20
10.98271653543307
 30
0.0
 10
-17.11503543307087
 20
10.98271653543307
 30
0.0
 10
-17.11742519685039
 20
10.98320472440945
 30
0.0
 10
-17.11963385826771
 20
10.98417322834646
 30
0.0
 10
-17.11963385826771
 20
10.98417322834646
 30
0.0
 10
-17.12184251968504
 20
10.98514566929134
 30
0.0
 10
-17.12348031496063
 20
10.98638188976378
 30
0.0
 10
-17.12454724409449
 20
10.98785433070866
 30
0.0
 10
-17.12454724409449
 20
10.98785433070866
 30
0.0
 10
-17.12563385826772
 20
10.98934251968504
 30
0.0
 10
-17.12638188976378
 20
10.99114566929134
 30
0.0
 10
-17.12681102362205
 20
10.9932874015748
 30
0.0
 10
-17.12681102362205
 20
10.9932874015748
 30
0.0
 10
-17.1271062992126
 20
10.99472834645669
 30
0.0
 10
-17.12725590551181
 20
10.99700787401575
 30
0.0
 10
-17.12725590551181
 20
11.00013385826772
 30
0.0
 10
-17.12725590551181
 20
11.00013385826772
 30
0.0
 10
-17.12725590551181
 20
11.00013385826772
 30
0.0
 10
-17.12725590551181
 20
11.02689763779528
 30
0.0
 10
-17.12725590551181
 20
11.02689763779528
 30
0.0
 10
-17.12725590551181
 20
11.02689763779528
 30
0.0
 10
-17.12725590551181
 20
11.02689763779528
 30
0.0
 10
-17.11993700787401
 20
11.02689763779528
 30
0.0
 10
-17.11993700787401
 20
11.02689763779528
 30
0.0
 10
-17.11993700787401
 20
11.02689763779528
 30
0.0
 10
-17.11993700787401
 20
11.02689763779528
 30
0.0
 10
-17.11993700787401
 20
11.00293700787402
 30
0.0
 10
-17.11993700787401
 20
11.00293700787402
 30
0.0
 10
-17.11993700787401
 20
11.00293700787402
 30
0.0
 10
-17.11993700787401
 20
10.9991062992126
 30
0.0
 10
-17.11978346456693
 20
10.99653543307087
 30
0.0
 10
-17.11949212598425
 20
10.99520078740158
 30
0.0
 10
-17.11949212598425
 20
10.99520078740158
 30
0.0
 10
-17.11901968503937
 20
10.99327165354331
 30
0.0
 10
-17.11805118110236
 20
10.99177165354331
 30
0.0
 10
-17.11656299212598
 20
10.99066141732284
 30
0.0
 10
-17.11656299212598
 20
10.99066141732284
 30
0.0
 10
-17.11506299212598
 20
10.98956299212598
 30
0.0
 10
-17.11321653543307
 20
10.98902362204724
 30
0.0
 10
-17.11102362204725
 20
10.98902362204724
 30
0.0
 10
-17.11102362204725
 20
10.98902362204724
 30
0.0
 10
-17.10882677165354
 20
10.98902362204724
 30
0.0
 10
-17.10677165354331
 20
10.98957874015748
 30
0.0
 10
-17.10484251968504
 20
10.99070078740158
 30
0.0
 10
-17.10484251968504
 20
10.99070078740158
 30
0.0
 10
-17.1029094488189
 20
10.99182677165354
 30
0.0
 10
-17.10155118110236
 20
10.99337007874016
 30
0.0
 10
-17.10075984251969
 20
10.99529921259843
 30
0.0
 10
-17.10075984251969
 20
10.99529921259843
 30
0.0
 10
-17.09995275590551
 20
10.99724409448819
 30
0.0
 10
-17.09955118110236
 20
11.00006299212598
 30
0.0
 10
-17.09955118110236
 20
11.00374409448819
 30
0.0
 10
-17.09955118110236
 20
11.00374409448819
 30
0.0
 10
-17.09955118110236
 20
11.00374409448819
 30
0.0
 10
-17.09955118110236
 20
11.02689763779528
 30
0.0
 10
-17.09955118110236
 20
11.02689763779528
 30
0.0
 10
-17.09955118110236
 20
11.02689763779528
 30
0.0
 10
-17.09955118110236
 20
11.02689763779528
 30
0.0
 10
-17.09223228346457
 20
11.02689763779528
 30
0.0
 10
-17.09223228346457
 20
11.02689763779528
 30
0.0
 10
-17.09223228346457
 20
11.02689763779528
 30
0.0
 10
-17.09223228346457
 20
11.02689763779528
 30
0.0
 10
-17.09223228346457
 20
10.98368897637795
 30
0.0
 10
-17.09223228346457
 20
10.98368897637795
 30
0.0
 10
-17.09223228346457
 20
10.98368897637795
 30
0.0
 10
-17.09223228346457
 20
10.98368897637795
 30
0.0
 10
-17.09877165354331
 20
10.98368897637795
 30
0.0
 10
-17.09877165354331
 20
10.98368897637795
 30
0.0
  0
SPLINE
  5
C3
330
1F
100
AcDbEntity
  8
Layer 1
 62
   250
100
AcDbSpline
210
0.0
220
0.0
230
1.0
 70
    11
 71
     3
 72
    44
 73
    40
 74
     0
 42
0.0000000001
 43
0.0000000001
 40
0.0
 40
0.0
 40
0.0
 40
0.0
 40
0.1
 40
0.1
 40
0.1
 40
0.1
 40
0.2
 40
0.2
 40
0.2
 40
0.2
 40
0.3
 40
0.3
 40
0.3
 40
0.3
 40
0.4
 40
0.4
 40
0.4
 40
0.4
 40
0.5
 40
0.5
 40
0.5
 40
0.5
 40
0.6
 40
0.6
 40
0.6
 40
0.6
 40
0.7
 40
0.7
 40
0.7
 40
0.7
 40
0.7999999999999999
 40
0.7999999999999999
 40
0.7999999999999999
 40
0.7999999999999999
 40
0.8999999999999999
 40
0.8999999999999999
 40
0.8999999999999999
 40
0.8999999999999999
 40
1.0
 40
1.0
 40
1.0
 40
1.0
 10
-17.0794094488189
 20
10.98368897637795
 30
0.0
 10
-17.0794094488189
 20
10.98368897637795
 30
0.0
 10
-17.0794094488189
 20
11.04333858267717
 30
0.0
 10
-17.0794094488189
 20
11.04333858267717
 30
0.0
 10
-17.0794094488189
 20
11.04333858267717
 30
0.0
 10
-17.0794094488189
 20
11.04333858267717
 30
0.0
 10
-17.03916141732283
 20
11.04333858267717
 30
0.0
 10
-17.03916141732283
 20
11.04333858267717
 30
0.0
 10
-17.03916141732283
 20
11.04333858267717
 30
0.0
 10
-17.03916141732283
 20
11.04333858267717
 30
0.0
 10
-17.03916141732283
 20
11.03629921259843
 30
0.0
 10
-17.03916141732283
 20
11.03629921259843
 30
0.0
 10
-17.03916141732283
 20
11.03629921259843
 30
0.0
 10
-17.03916141732283
 20
11.03629921259843
 30
0.0
 10
-17.07150787401575
 20
11.03629921259843
 30
0.0
 10
-17.07150787401575
 20
11.03629921259843
 30
0.0
 10
-17.07150787401575
 20
11.03629921259843
 30
0.0
 10
-17.07150787401575
 20
11.03629921259843
 30
0.0
 10
-17.07150787401575
 20
11.01782677165354
 30
0.0
 10
-17.07150787401575
 20
11.01782677165354
 30
0.0
 10
-17.07150787401575
 20
11.01782677165354
 30
0.0
 10
-17.07150787401575
 20
11.01782677165354
 30
0.0
 10
-17.04352362204724
 20
11.01782677165354
 30
0.0
 10
-17.04352362204724
 20
11.01782677165354
 30
0.0
 10
-17.04352362204724
 20
11.01782677165354
 30
0.0
 10
-17.04352362204724
 20
11.01782677165354
 30
0.0
 10
-17.04352362204724
 20
11.01078346456693
 30
0.0
 10
-17.04352362204724
 20
11.01078346456693
 30
0.0
 10
-17.04352362204724
 20
11.01078346456693
 30
0.0
 10
-17.04352362204724
 20
11.01078346456693
 30
0.0
 10
-17.07150787401575
 20
11.01078346456693
 30
0.0
 10
-17.07150787401575
 20
11.01078346456693
 30
0.0
 10
-17.07150787401575
 20
11.01078346456693
 30
0.0
 10
-17.07150787401575
 20
11.01078346456693
 30
0.0
 10
-17.07150787401575
 20
10.98368897637795
 30
0.0
 10
-17.07150787401575
 20
10.98368897637795
 30
0.0
 10
-17.07150787401575
 20
10.98368897637795
 30
0.0
 10
-17.07150787401575
 20
10.98368897637795
 30
0.0
 10
-17.0794094488189
 20
10.98368897637795
 30
0.0
 10
-17.0794094488189
 20
10.98368897637795
 30
0.0
  0
SPLINE
  5
C4
330
1F
100
AcDbEntity
  8
Layer 1
 62
   250
370
    18
100
AcDbSpline
210
0.0
220
0.0
230
1.0
 70
    24
 71
     3
 72
     8
 73
     4
 74
     0
 42
0.0000000001
 43
0.0000000001
 40
0.0
 40
0.0
 40
0.0
 40
0.0
 40
1.0
 40
1.0
 40
1.0
 40
1.0
 10
-17.19496062992126
 20
10.93452362204724
 30
0.0
 10
-17.19496062992126
 20
10.93452362204724
 30
0.0
 10
-17.11526771653543
 20
10.93727165354331
 30
0.0
 10
-17.11526771653543
 20
10.93727165354331
 30
0.0
  0
SPLINE
  5
C5
330
1F
100
AcDbEntity
  8
Layer 1
 62
   250
370
    18
100
AcDbSpline
210
0.0
220
0.0
230
1.0
 70
    24
 71
     3
 72
     8
 73
     4
 74
     0
 42
0.0000000001
 43
0.0000000001
 40
0.0
 40
0.0
 40
0.0
 40
0.0
 40
1.0
 40
1.0
 40
1.0
 40
1.0
 10
-17.03007874015748
 20
10.78612992125984
 30
0.0
 10
-17.03007874015748
 20
10.78612992125984
 30
0.0
 10
-17.07129921259843
 20
10.91253937007874
 30
0.0
 10
-17.07129921259843
 20
10.91253937007874
 30
0.0
  0
SPLINE
  5
C6
330
1F
100
AcDbEntity
  8
Layer 1
 62
   250
370
     9
100
AcDbSpline
210
0.0
220
0.0
230
1.0
 70
    11
 71
     3
 72
    20
 73
    16
 74
     0
 42
0.0000000001
 43
0.0000000001
 40
0.0
 40
0.0
 40
0.0
 40
0.0
 40
0.25
 40
0.25
 40
0.25
 40
0.25
 40
0.5
 40
0.5
 40
0.5
 40
0.5
 40
0.75
 40
0.75
 40
0.75
 40
0.75
 40
1.0
 40
1.0
 40
1.0
 40
1.0
 10
-16.26401968503937
 20
10.96991732283464
 30
0.0
 10
-16.25913779527559
 20
10.97479527559055
 30
0.0
 10
-16.25122440944882
 20
10.97479527559055
 30
0.0
 10
-16.24634251968504
 20
10.96991732283464
 30
0.0
 10
-16.24634251968504
 20
10.96991732283464
 30
0.0
 10
-16.24146062992126
 20
10.96503543307087
 30
0.0
 10
-16.24146062992126
 20
10.95711811023622
 30
0.0
 10
-16.24634251968504
 20
10.95223622047244
 30
0.0
 10
-16.24634251968504
 20
10.95223622047244
 30
0.0
 10
-16.25122440944882
 20
10.94735826771653
 30
0.0
 10
-16.25913779527559
 20
10.94735826771653
 30
0.0
 10
-16.26401968503937
 20
10.95223622047244
 30
0.0
 10
-16.26401968503937
 20
10.95223622047244
 30
0.0
 10
-16.26890157480315
 20
10.95711811023622
 30
0.0
 10
-16.26890157480315
 20
10.96503543307087
 30
0.0
 10
-16.26401968503937
 20
10.96991732283464
 30
0.0
  0
ELLIPSE
  5
C7
330
1F
100
AcDbEntity
  8
Layer 1
 62
   250
370
     9
100
AcDbEllipse
 10
-16.02842125984252
 20
10.63536614173228
 30
0.0
 11
0.08008267716535433
 21
0.0
 31
0.0
210
0.0
220
0.0
230
1.0
 40
0.9677498648050735
 41
0.0
 42
6.283185307179586
  0
ELLIPSE
  5
C8
330
1F
100
AcDbEntity
  8
Layer 1
 62
   250
370
     9
100
AcDbEllipse
 10
-16.02842125984252
 20
10.18767322834646
 30
0.0
 11
0.08008267716535433
 21
0.0
 31
0.0
210
0.0
220
0.0
230
1.0
 40
0.9677498648050735
 41
0.0
 42
6.283185307179586
  0
ELLIPSE
  5
C9
330
1F
100
AcDbEntity
  8
Layer 1
 62
   250
370
     9
100
AcDbEllipse
 10
-16.02842125984252
 20
11.03567322834646
 30
0.0
 11
0.08008267716535433
 21
0.0
 31
0.0
210
0.0
220
0.0
230
1.0
 40
0.9677498648050735
 41
0.0
 42
6.283185307179586
  0
ELLIPSE
  5
CA
330
1F
100
AcDbEntity
  8
Layer 1
 62
   250
370
     9
100
AcDbEllipse
 10
-17.60692125984252
 20
10.63536614173228
 30
0.0
 11
0.08008267716535433
 21
0.0
 31
0.0
210
0.0
220
0.0
230
1.0
 40
0.9677498648050735
 41
0.0
 42
6.283185307179586
  0
ELLIPSE
  5
CB
330
1F
100
AcDbEntity
  8
Layer 1
 62
   250
370
     9
100
AcDbEllipse
 10
-17.60692125984252
 20
10.18767322834646
 30
0.0
 11
0.08008267716535433
 21
0.0
 31
0.0
210
0.0
220
0.0
230
1.0
 40
0.9677498648050735
 41
0.0
 42
6.283185307179586
  0
ELLIPSE
  5
CC
330
1F
100
AcDbEntity
  8
Layer 1
 62
   250
370
     9
100
AcDbEllipse
 10
-17.60692125984252
 20
11.03567322834646
 30
0.0
 11
0.08008267716535433
 21
0.0
 31
0.0
210
0.0
220
0.0
230
1.0
 40
0.9677498648050735
 41
0.0
 42
6.283185307179586
  0
SPLINE
  5
CD
330
1F
100
AcDbEntity
  8
Layer 1
 62
   250
370
     9
100
AcDbSpline
210
0.0
220
0.0
230
1.0
 70
    11
 71
     3
 72
    20
 73
    16
 74
     0
 42
0.0000000001
 43
0.0000000001
 40
0.0
 40
0.0
 40
0.0
 40
0.0
 40
0.25
 40
0.25
 40
0.25
 40
0.25
 40
0.5
 40
0.5
 40
0.5
 40
0.5
 40
0.75
 40
0.75
 40
0.75
 40
0.75
 40
1.0
 40
1.0
 40
1.0
 40
1.0
 10
-16.70711417322835
 20
11.48617322834646
 30
0.0
 10
-16.70711417322835
 20
11.5303937007874
 30
0.0
 10
-16.67240551181103
 20
11.56625590551181
 30
0.0
 10
-16.62961417322835
 20
11.56625590551181
 30
0.0
 10
-16.62961417322835
 20
11.56625590551181
 30
0.0
 10
-16.58682283464567
 20
11.56625590551181
 30
0.0
 10
-16.55211417322835
 20
11.5303937007874
 30
0.0
 10
-16.55211417322835
 20
11.48617322834646
 30
0.0
 10
-16.55211417322835
 20
11.48617322834646
 30
0.0
 10
-16.55211417322835
 20
11.44195275590551
 30
0.0
 10
-16.58682283464567
 20
11.4060905511811
 30
0.0
 10
-16.62961417322835
 20
11.4060905511811
 30
0.0
 10
-16.62961417322835
 20
11.4060905511811
 30
0.0
 10
-16.67240551181103
 20
11.4060905511811
 30
0.0
 10
-16.70711417322835
 20
11.44195275590551
 30
0.0
 10
-16.70711417322835
 20
11.48617322834646
 30
0.0
  0
SPLINE
  5
CE
330
1F
100
AcDbEntity
  8
Layer 1
 62
   250
370
     9
100
AcDbSpline
210
0.0
220
0.0
230
1.0
 70
    11
 71
     3
 72
    20
 73
    16
 74
     0
 42
0.0000000001
 43
0.0000000001
 40
0.0
 40
0.0
 40
0.0
 40
0.0
 40
0.25
 40
0.25
 40
0.25
 40
0.25
 40
0.5
 40
0.5
 40
0.5
 40
0.5
 40
0.75
 40
0.75
 40
0.75
 40
0.75
 40
1.0
 40
1.0
 40
1.0
 40
1.0
 10
-16.25942125984252
 20
11.48617322834646
 30
0.0
 10
-16.25942125984252
 20
11.5303937007874
 30
0.0
 10
-16.2247125984252
 20
11.56625590551181
 30
0.0
 10
-16.18192125984252
 20
11.56625590551181
 30
0.0
 10
-16.18192125984252
 20
11.56625590551181
 30
0.0
 10
-16.13912992125984
 20
11.56625590551181
 30
0.0
 10
-16.10442125984252
 20
11.5303937007874
 30
0.0
 10
-16.10442125984252
 20
11.48617322834646
 30
0.0
 10
-16.10442125984252
 20
11.48617322834646
 30
0.0
 10
-16.10442125984252
 20
11.44195275590551
 30
0.0
 10
-16.13912992125984
 20
11.4060905511811
 30
0.0
 10
-16.18192125984252
 20
11.4060905511811
 30
0.0
 10
-16.18192125984252
 20
11.4060905511811
 30
0.0
 10
-16.2247125984252
 20
11.4060905511811
 30
0.0
 10
-16.25942125984252
 20
11.44195275590551
 30
0.0
 10
-16.25942125984252
 20
11.48617322834646
 30
0.0
  0
SPLINE
  5
CF
330
1F
100
AcDbEntity
  8
Layer 1
 62
   250
370
     9
100
AcDbSpline
210
0.0
220
0.0
230
1.0
 70
    11
 71
     3
 72
    20
 73
    16
 74
     0
 42
0.0000000001
 43
0.0000000001
 40
0.0
 40
0.0
 40
0.0
 40
0.0
 40
0.25
 40
0.25
 40
0.25
 40
0.25
 40
0.5
 40
0.5
 40
0.5
 40
0.5
 40
0.75
 40
0.75
 40
0.75
 40
0.75
 40
1.0
 40
1.0
 40
1.0
 40
1.0
 10
-17.10742125984252
 20
11.48617322834646
 30
0.0
 10
-17.10742125984252
 20
11.5303937007874
 30
0.0
 10
-17.0727125984252
 20
11.56625590551181
 30
0.0
 10
-17.02992125984252
 20
11.56625590551181
 30
0.0
 10
-17.02992125984252
 20
11.56625590551181
 30
0.0
 10
-16.98712992125984
 20
11.56625590551181
 30
0.0
 10
-16.95242125984252
 20
11.5303937007874
 30
0.0
 10
-16.95242125984252
 20
11.48617322834646
 30
0.0
 10
-16.95242125984252
 20
11.48617322834646
 30
0.0
 10
-16.95242125984252
 20
11.44195275590551
 30
0.0
 10
-16.98712992125984
 20
11.4060905511811
 30
0.0
 10
-17.02992125984252
 20
11.4060905511811
 30
0.0
 10
-17.02992125984252
 20
11.4060905511811
 30
0.0
 10
-17.0727125984252
 20
11.4060905511811
 30
0.0
 10
-17.10742125984252
 20
11.44195275590551
 30
0.0
 10
-17.10742125984252
 20
11.48617322834646
 30
0.0
  0
LWPOLYLINE
  5
D0
330
1F
100
AcDbEntity
  8
Layer 1
 62
   250
370
     9
100
AcDbPolyline
 90
        5
 70
     1
 43
0.0
 10
-17.83792125984252
 20
9.879137795275591
 10
-15.79742519685039
 20
9.879137795275591
 10
-15.79742519685039
 20
11.74363385826772
 10
-17.83792125984252
 20
11.74363385826772
 10
-17.83792125984252
 20
9.879137795275591
  0
ELLIPSE
  5
D1
330
1F
100
AcDbEntity
  8
Layer 1
 62
   250
370
     9
100
AcDbEllipse
 10
-17.34275196850394
 20
10.94013385826772
 30
0.0
 11
0.0
 21
0.04
 31
0.0
210
0.0
220
0.0
230
1.0
 40
1.0
 41
0.0
 42
6.283185307179586
  0
ELLIPSE
  5
D2
330
1F
100
AcDbEntity
  8
Layer 1
 62
   250
370
     9
100
AcDbEllipse
 10
-17.3674842519685
 20
11.34134645669291
 30
0.0
 11
0.0
 21
0.01251968503937008
 31
0.0
210
0.0
220
0.0
230
1.0
 40
1.0
 41
0.0
 42
6.283185307179586
  0
SPLINE
  5
D3
330
1F
100
AcDbEntity
  8
Layer 1
 62
   250
370
    18
100
AcDbSpline
210
0.0
220
0.0
230
1.0
 70
    24
 71
     3
 72
     8
 73
     4
 74
     0
 42
0.0000000001
 43
0.0000000001
 40
0.0
 40
0.0
 40
0.0
 40
0.0
 40
1.0
 40
1.0
 40
1.0
 40
1.0
 10
-16.70427559055118
 20
11.01804724409449
 30
0.0
 10
-16.70427559055118
 20
11.01804724409449
 30
0.0
 10
-16.69328346456693
 20
10.45195275590551
 30
0.0
 10
-16.69328346456693
 20
10.45195275590551
 30
0.0
  0
ENDSEC
  0
SECTION
  2
OBJECTS
  0
DICTIONARY
  5
C
330
0
100
AcDbDictionary
281
     1
  3
ACAD_GROUP
350
D
  3
ACAD_LAYOUT
350
1A
  3
ACAD_MLEADERSTYLE
350
D5
  3
ACAD_MLINESTYLE
350
17
  3
ACAD_PLOTSETTINGS
350
19
  3
ACAD_PLOTSTYLENAME
350
E
  3
ACAD_SCALELIST
350
3B
  3
ACAD_TABLESTYLE
350
D4
  3
ACAD_VISUALSTYLE
350
2A
  0
DICTIONARY
  5
D
102
{ACAD_REACTORS
330
C
102
}
330
C
100
AcDbDictionary
281
     1
  0
DICTIONARY
  5
1A
102
{ACAD_REACTORS
330
C
102
}
330
C
100
AcDbDictionary
281
     1
  3
Layout1
350
1E
  3
Layout2
350
26
  3
Model
350
22
  0
DICTIONARY
  5
D5
102
{ACAD_REACTORS
330
C
102
}
330
C
100
AcDbDictionary
281
     1
  0
DICTIONARY
  5
17
102
{ACAD_REACTORS
330
C
102
}
330
C
100
AcDbDictionary
281
     1
  3
Standard
350
18
  0
DICTIONARY
  5
19
102
{ACAD_REACTORS
330
C
102
}
330
C
100
AcDbDictionary
281
     1
  0
ACDBDICTIONARYWDFLT
  5
E
102
{ACAD_REACTORS
330
C
102
}
330
C
100
AcDbDictionary
281
     1
  3
Normal
350
F
100
AcDbDictionaryWithDefault
340
F
  0
DICTIONARY
  5
3B
102
{ACAD_REACTORS
330
C
102
}
330
C
100
AcDbDictionary
281
     1
  3
A0
350
3C
  3
A1
350
3D
  3
A2
350
3E
  3
A3
350
3F
  3
A4
350
40
  3
A5
350
41
  3
A6
350
42
  3
A7
350
43
  3
A8
350
44
  3
A9
350
45
  3
B0
350
46
  3
B1
350
47
  3
B2
350
48
  3
B3
350
49
  3
B4
350
4A
  3
B5
350
4B
  3
B6
350
4C
  3
B7
350
4D
  3
B8
350
4E
  3
B9
350
4F
  3
C0
350
50
  3
C1
350
51
  3
C2
350
52
  3
C3
350
53
  3
C4
350
54
  3
C5
350
55
  3
C6
350
56
  3
C7
350
57
  3
C8
350
58
  3
C9
350
59
  3
D0
350
5A
  3
D1
350
5B
  3
D2
350
5C
  0
DICTIONARY
  5
D4
102
{ACAD_REACTORS
330
C
102
}
330
C
100
AcDbDictionary
281
     1
  0
DICTIONARY
  5
2A
102
{ACAD_REACTORS
330
C
102
}
330
C
100
AcDbDictionary
281
     1
  3
2dWireframe
350
2F
  3
3D Hidden
350
31
  3
3dWireframe
350
30
  3
Basic
350
32
  3
Brighten
350
36
  3
ColorChange
350
3A
  3
Conceptual
350
34
  3
Dim
350
35
  3
Facepattern
350
39
  3
Flat
350
2B
  3
FlatWithEdges
350
2C
  3
Gouraud
350
2D
  3
GouraudWithEdges
350
2E
  3
Linepattern
350
38
  3
Realistic
350
33
  3
Thicken
350
37
  0
LAYOUT
  5
1E
102
{ACAD_REACTORS
330
1A
102
}
330
1A
100
AcDbPlotSettings
  1

  2
none_device
  4

  6

 40
0.0
 41
0.0
 42
0.0
 43
0.0
 44
0.0
 45
0.0
 46
0.0
 47
0.0
 48
0.0
 49
0.0
140
0.0
141
0.0
142
1.0
143
1.0
 70
   688
 72
     0
 73
     0
 74
     5
  7

 75
    16
 76
     0
 77
     2
 78
   300
147
1.0
148
0.0
149
0.0
100
AcDbLayout
  1
Layout1
 70
     1
 71
     1
 10
0.0
 20
0.0
 11
12.0
 21
9.0
 12
0.0
 22
0.0
 32
0.0
 14
1.000000000000000E+20
 24
1.000000000000000E+20
 34
1.000000000000000E+20
 15
-1.000000000000000E+20
 25
-1.000000000000000E+20
 35
-1.000000000000000E+20
146
0.0
 13
0.0
 23
0.0
 33
0.0
 16
1.0
 26
0.0
 36
0.0
 17
0.0
 27
1.0
 37
0.0
 76
     0
330
1B
  0
LAYOUT
  5
26
102
{ACAD_REACTORS
330
1A
102
}
330
1A
100
AcDbPlotSettings
  1

  2
none_device
  4

  6

 40
0.0
 41
0.0
 42
0.0
 43
0.0
 44
0.0
 45
0.0
 46
0.0
 47
0.0
 48
0.0
 49
0.0
140
0.0
141
0.0
142
1.0
143
1.0
 70
   688
 72
     0
 73
     0
 74
     5
  7

 75
    16
 76
     0
 77
     2
 78
   300
147
1.0
148
0.0
149
0.0
100
AcDbLayout
  1
Layout2
 70
     1
 71
     2
 10
0.0
 20
0.0
 11
0.0
 21
0.0
 12
0.0
 22
0.0
 32
0.0
 14
0.0
 24
0.0
 34
0.0
 15
0.0
 25
0.0
 35
0.0
146
0.0
 13
0.0
 23
0.0
 33
0.0
 16
1.0
 26
0.0
 36
0.0
 17
0.0
 27
1.0
 37
0.0
 76
     0
330
23
  0
LAYOUT
  5
22
102
{ACAD_REACTORS
330
1A
102
}
330
1A
100
AcDbPlotSettings
  1

  2
none_device
  4

  6

 40
0.0
 41
0.0
 42
0.0
 43
0.0
 44
0.0
 45
0.0
 46
0.0
 47
0.0
 48
0.0
 49
0.0
140
0.0
141
0.0
142
1.0
143
1.0
 70
  1712
 72
     0
 73
     0
 74
     0
  7

 75
     0
 76
     0
 77
     2
 78
   300
147
1.0
148
0.0
149
0.0
100
AcDbLayout
  1
Model
 70
     1
 71
     0
 10
0.0
 20
0.0
 11
12.0
 21
9.0
 12
0.0
 22
0.0
 32
0.0
 14
-17.83942125984252
 24
9.877633858267716
 34
0.0
 15
-15.79592125984252
 25
11.74513385826772
 35
0.0
146
0.0
 13
0.0
 23
0.0
 33
0.0
 16
1.0
 26
0.0
 36
0.0
 17
0.0
 27
1.0
 37
0.0
 76
     0
330
1F
331
29
  0
MLINESTYLE
  5
18
102
{ACAD_REACTORS
330
17
102
}
330
17
100
AcDbMlineStyle
  2
Standard
 70
     0
  3

 62
   256
 51
90.0
 52
90.0
 71
     2
 49
0.5
 62
   256
  6
BYLAYER
 49
-0.5
 62
   256
  6
BYLAYER
  0
ACDBPLACEHOLDER
  5
F
102
{ACAD_REACTORS
330
E
102
}
330
E
  0
SCALE
  5
3C
102
{ACAD_REACTORS
330
3B
102
}
330
3B
100
AcDbScale
 70
     0
300
1:1
140
1.0
141
1.0
290
     1
  0
SCALE
  5
3D
102
{ACAD_REACTORS
330
3B
102
}
330
3B
100
AcDbScale
 70
     0
300
1:2
140
1.0
141
2.0
290
     0
  0
SCALE
  5
3E
102
{ACAD_REACTORS
330
3B
102
}
330
3B
100
AcDbScale
 70
     0
300
1:4
140
1.0
141
4.0
290
     0
  0
SCALE
  5
3F
102
{ACAD_REACTORS
330
3B
102
}
330
3B
100
AcDbScale
 70
     0
300
1:5
140
1.0
141
5.0
290
     0
  0
SCALE
  5
40
102
{ACAD_REACTORS
330
3B
102
}
330
3B
100
AcDbScale
 70
     0
300
1:8
140
1.0
141
8.0
290
     0
  0
SCALE
  5
41
102
{ACAD_REACTORS
330
3B
102
}
330
3B
100
AcDbScale
 70
     0
300
1:10
140
1.0
141
10.0
290
     0
  0
SCALE
  5
42
102
{ACAD_REACTORS
330
3B
102
}
330
3B
100
AcDbScale
 70
     0
300
1:16
140
1.0
141
16.0
290
     0
  0
SCALE
  5
43
102
{ACAD_REACTORS
330
3B
102
}
330
3B
100
AcDbScale
 70
     0
300
1:20
140
1.0
141
20.0
290
     0
  0
SCALE
  5
44
102
{ACAD_REACTORS
330
3B
102
}
330
3B
100
AcDbScale
 70
     0
300
1:30
140
1.0
141
30.0
290
     0
  0
SCALE
  5
45
102
{ACAD_REACTORS
330
3B
102
}
330
3B
100
AcDbScale
 70
     0
300
1:40
140
1.0
141
40.0
290
     0
  0
SCALE
  5
46
102
{ACAD_REACTORS
330
3B
102
}
330
3B
100
AcDbScale
 70
     0
300
1:50
140
1.0
141
50.0
290
     0
  0
SCALE
  5
47
102
{ACAD_REACTORS
330
3B
102
}
330
3B
100
AcDbScale
 70
     0
300
1:100
140
1.0
141
100.0
290
     0
  0
SCALE
  5
48
102
{ACAD_REACTORS
330
3B
102
}
330
3B
100
AcDbScale
 70
     0
300
2:1
140
2.0
141
1.0
290
     0
  0
SCALE
  5
49
102
{ACAD_REACTORS
330
3B
102
}
330
3B
100
AcDbScale
 70
     0
300
4:1
140
4.0
141
1.0
290
     0
  0
SCALE
  5
4A
102
{ACAD_REACTORS
330
3B
102
}
330
3B
100
AcDbScale
 70
     0
300
8:1
140
8.0
141
1.0
290
     0
  0
SCALE
  5
4B
102
{ACAD_REACTORS
330
3B
102
}
330
3B
100
AcDbScale
 70
     0
300
10:1
140
10.0
141
1.0
290
     0
  0
SCALE
  5
4C
102
{ACAD_REACTORS
330
3B
102
}
330
3B
100
AcDbScale
 70
     0
300
100:1
140
100.0
141
1.0
290
     0
  0
SCALE
  5
4D
102
{ACAD_REACTORS
330
3B
102
}
330
3B
100
AcDbScale
 70
     0
300
1/128" = 1'-0"
140
0.0078125
141
12.0
290
     0
  0
SCALE
  5
4E
102
{ACAD_REACTORS
330
3B
102
}
330
3B
100
AcDbScale
 70
     0
300
1/64" = 1'-0"
140
0.015625
141
12.0
290
     0
  0
SCALE
  5
4F
102
{ACAD_REACTORS
330
3B
102
}
330
3B
100
AcDbScale
 70
     0
300
1/32" = 1'-0"
140
0.03125
141
12.0
290
     0
  0
SCALE
  5
50
102
{ACAD_REACTORS
330
3B
102
}
330
3B
100
AcDbScale
 70
     0
300
1/16" = 1'-0"
140
0.0625
141
12.0
290
     0
  0
SCALE
  5
51
102
{ACAD_REACTORS
330
3B
102
}
330
3B
100
AcDbScale
 70
     0
300
3/32" = 1'-0"
140
0.09375
141
12.0
290
     0
  0
SCALE
  5
52
102
{ACAD_REACTORS
330
3B
102
}
330
3B
100
AcDbScale
 70
     0
300
1/8" = 1'-0"
140
0.125
141
12.0
290
     0
  0
SCALE
  5
53
102
{ACAD_REACTORS
330
3B
102
}
330
3B
100
AcDbScale
 70
     0
300
3/16" = 1'-0"
140
0.1875
141
12.0
290
     0
  0
SCALE
  5
54
102
{ACAD_REACTORS
330
3B
102
}
330
3B
100
AcDbScale
 70
     0
300
1/4" = 1'-0"
140
0.25
141
12.0
290
     0
  0
SCALE
  5
55
102
{ACAD_REACTORS
330
3B
102
}
330
3B
100
AcDbScale
 70
     0
300
3/8" = 1'-0"
140
0.375
141
12.0
290
     0
  0
SCALE
  5
56
102
{ACAD_REACTORS
330
3B
102
}
330
3B
100
AcDbScale
 70
     0
300
1/2" = 1'-0"
140
0.5
141
12.0
290
     0
  0
SCALE
  5
57
102
{ACAD_REACTORS
330
3B
102
}
330
3B
100
AcDbScale
 70
     0
300
3/4" = 1'-0"
140
0.75
141
12.0
290
     0
  0
SCALE
  5
58
102
{ACAD_REACTORS
330
3B
102
}
330
3B
100
AcDbScale
 70
     0
300
1" = 1'-0"
140
1.0
141
12.0
290
     0
  0
SCALE
  5
59
102
{ACAD_REACTORS
330
3B
102
}
330
3B
100
AcDbScale
 70
     0
300
1-1/2" = 1'-0"
140
1.5
141
12.0
290
     0
  0
SCALE
  5
5A
102
{ACAD_REACTORS
330
3B
102
}
330
3B
100
AcDbScale
 70
     0
300
3" = 1'-0"
140
3.0
141
12.0
290
     0
  0
SCALE
  5
5B
102
{ACAD_REACTORS
330
3B
102
}
330
3B
100
AcDbScale
 70
     0
300
6" = 1'-0"
140
6.0
141
12.0
290
     0
  0
SCALE
  5
5C
102
{ACAD_REACTORS
330
3B
102
}
330
3B
100
AcDbScale
 70
     0
300
1'-0" = 1'-0"
140
12.0
141
12.0
290
     0
  0
VISUALSTYLE
  5
2F
102
{ACAD_REACTORS
330
2A
102
}
330
2A
100
AcDbVisualStyle
  2
2dWireframe
 70
     4
 71
     0
 72
     2
 73
     0
 90
        0
 40
-0.6
 41
-30.0
 62
     5
 63
     7
421
 16777215
 74
     1
 91
        4
 64
     7
 65
   257
 75
     1
175
     1
 42
1.0
 92
        0
 66
   257
 43
1.0
 76
     1
 77
     6
 78
     2
 67
     7
 79
     5
170
     0
171
     0
290
     0
174
     0
 93
        1
 44
0.0
173
     0
291
     0
 45
0.0
  0
VISUALSTYLE
  5
31
102
{ACAD_REACTORS
330
2A
102
}
330
2A
100
AcDbVisualStyle
  2
3D Hidden
 70
     6
 71
     1
 72
     2
 73
     2
 90
        0
 40
-0.6
 41
-30.0
 62
     5
 63
     7
421
 16777215
 74
     2
 91
        2
 64
     7
 65
   257
 75
     2
175
     1
 42
40.0
 92
        0
 66
   257
 43
1.0
 76
     1
 77
     6
 78
     2
 67
     7
 79
     3
170
     0
171
     0
290
     0
174
     0
 93
        1
 44
0.0
173
     0
291
     0
 45
0.0
  0
VISUALSTYLE
  5
30
102
{ACAD_REACTORS
330
2A
102
}
330
2A
100
AcDbVisualStyle
  2
3dWireframe
 70
     5
 71
     0
 72
     2
 73
     0
 90
        0
 40
-0.6
 41
-30.0
 62
     5
 63
     7
421
 16777215
 74
     1
 91
        4
 64
     7
 65
   257
 75
     1
175
     1
 42
1.0
 92
        0
 66
   257
 43
1.0
 76
     1
 77
     6
 78
     2
 67
     7
 79
     5
170
     0
171
     0
290
     0
174
     0
 93
        1
 44
0.0
173
     0
291
     0
 45
0.0
  0
VISUALSTYLE
  5
32
102
{ACAD_REACTORS
330
2A
102
}
330
2A
100
AcDbVisualStyle
  2
Basic
 70
     7
 71
     1
 72
     0
 73
     1
 90
        0
 40
-0.6
 41
-30.0
 62
     5
 63
     7
421
 16777215
 74
     0
 91
        4
 64
     7
 65
   257
 75
     1
175
     1
 42
1.0
 92
        8
 66
     7
 43
1.0
 76
     1
 77
     6
 78
     2
 67
     7
 79
     5
170
     0
171
     0
290
     0
174
     0
 93
        1
 44
0.0
173
     0
291
     1
 45
0.0
  0
VISUALSTYLE
  5
36
102
{ACAD_REACTORS
330
2A
102
}
330
2A
100
AcDbVisualStyle
  2
Brighten
 70
    12
 71
     2
 72
     2
 73
     0
 90
        0
 40
-0.6
 41
-30.0
 62
     5
 63
     7
421
 16777215
 74
     1
 91
        4
 64
     7
 65
   257
 75
     1
175
     1
 42
1.0
 92
        8
 66
     7
 43
1.0
 76
     1
 77
     6
 78
     2
 67
     7
 79
     5
170
     0
171
     0
290
     0
174
     0
 93
        1
 44
50.0
173
     0
291
     1
 45
0.0
  0
VISUALSTYLE
  5
3A
102
{ACAD_REACTORS
330
2A
102
}
330
2A
100
AcDbVisualStyle
  2
ColorChange
 70
    16
 71
     2
 72
     2
 73
     3
 90
        0
 40
-0.6
 41
-30.0
 62
     5
 63
     8
421
  8421504
 74
     1
 91
        4
 64
     7
 65
   257
 75
     1
175
     1
 42
1.0
 92
        8
 66
     8
424
  8421504
 43
1.0
 76
     1
 77
     6
 78
     2
 67
     7
 79
     5
170
     0
171
     0
290
     0
174
     0
 93
        1
 44
0.0
173
     0
291
     1
 45
0.0
  0
VISUALSTYLE
  5
34
102
{ACAD_REACTORS
330
2A
102
}
330
2A
100
AcDbVisualStyle
  2
Conceptual
 70
     9
 71
     3
 72
     2
 73
     0
 90
        0
 40
-0.6
 41
-30.0
 62
     5
 63
     7
421
 16777215
 74
     2
 91
        2
 64
     7
 65
   257
 75
     1
175
     1
 42
40.0
 92
        8
 66
     7
 43
1.0
 76
     1
 77
     6
 78
     2
 67
     7
 79
     3
170
     0
171
     0
290
     0
174
     0
 93
        1
 44
0.0
173
     0
291
     0
 45
0.0
  0
VISUALSTYLE
  5
35
102
{ACAD_REACTORS
330
2A
102
}
330
2A
100
AcDbVisualStyle
  2
Dim
 70
    11
 71
     2
 72
     2
 73
     0
 90
        0
 40
-0.6
 41
-30.0
 62
     5
 63
     7
421
 16777215
 74
     1
 91
        4
 64
     7
 65
   257
 75
     1
175
     1
 42
1.0
 92
        8
 66
     7
 43
1.0
 76
     1
 77
     6
 78
     2
 67
     7
 79
     5
170
     0
171
     0
290
     0
174
     0
 93
        1
 44
-50.0
173
     0
291
     1
 45
0.0
  0
VISUALSTYLE
  5
39
102
{ACAD_REACTORS
330
2A
102
}
330
2A
100
AcDbVisualStyle
  2
Facepattern
 70
    15
 71
     2
 72
     2
 73
     0
 90
        0
 40
-0.6
 41
-30.0
 62
     5
 63
     7
421
 16777215
 74
     1
 91
        4
 64
     7
 65
   257
 75
     1
175
     1
 42
1.0
 92
        8
 66
     7
 43
1.0
 76
     1
 77
     6
 78
     2
 67
     7
 79
     5
170
     0
171
     0
290
     0
174
     0
 93
        1
 44
0.0
173
     0
291
     1
 45
0.0
  0
VISUALSTYLE
  5
2B
102
{ACAD_REACTORS
330
2A
102
}
330
2A
100
AcDbVisualStyle
  2
Flat
 70
     0
 71
     2
 72
     1
 73
     1
 90
        2
 40
-0.6
 41
30.0
 62
     5
 63
     7
421
 16777215
 74
     0
 91
        4
 64
     7
 65
   257
 75
     1
175
     1
 42
1.0
 92
        8
 66
     7
 43
1.0
 76
     1
 77
     6
 78
     2
 67
     7
 79
     5
170
     0
171
     0
290
     0
174
     0
 93
       13
 44
0.0
173
     0
291
     1
 45
0.0
  0
VISUALSTYLE
  5
2C
102
{ACAD_REACTORS
330
2A
102
}
330
2A
100
AcDbVisualStyle
  2
FlatWithEdges
 70
     1
 71
     2
 72
     1
 73
     1
 90
        2
 40
-0.6
 41
30.0
 62
     5
 63
     7
421
 16777215
 74
     1
 91
        4
 64
     7
 65
   257
 75
     1
175
     1
 42
1.0
 92
        0
 66
   257
 43
1.0
 76
     1
 77
     6
 78
     2
 67
     7
 79
     5
170
     0
171
     0
290
     0
174
     0
 93
       13
 44
0.0
173
     0
291
     1
 45
0.0
  0
VISUALSTYLE
  5
2D
102
{ACAD_REACTORS
330
2A
102
}
330
2A
100
AcDbVisualStyle
  2
Gouraud
 70
     2
 71
     2
 72
     2
 73
     1
 90
        2
 40
-0.6
 41
30.0
 62
     5
 63
     7
421
 16777215
 74
     0
 91
        4
 64
     7
 65
   257
 75
     1
175
     1
 42
1.0
 92
        0
 66
     7
 43
1.0
 76
     1
 77
     6
 78
     2
 67
     7
 79
     5
170
     0
171
     0
290
     0
174
     0
 93
       13
 44
0.0
173
     0
291
     1
 45
0.0
  0
VISUALSTYLE
  5
2E
102
{ACAD_REACTORS
330
2A
102
}
330
2A
100
AcDbVisualStyle
  2
GouraudWithEdges
 70
     3
 71
     2
 72
     2
 73
     1
 90
        2
 40
-0.6
 41
30.0
 62
     5
 63
     7
421
 16777215
 74
     1
 91
        4
 64
     7
 65
   257
 75
     1
175
     1
 42
1.0
 92
        0
 66
   257
 43
1.0
 76
     1
 77
     6
 78
     2
 67
     7
 79
     5
170
     0
171
     0
290
     0
174
     0
 93
       13
 44
0.0
173
     0
291
     1
 45
0.0
  0
VISUALSTYLE
  5
38
102
{ACAD_REACTORS
330
2A
102
}
330
2A
100
AcDbVisualStyle
  2
Linepattern
 70
    14
 71
     2
 72
     2
 73
     0
 90
        0
 40
-0.6
 41
-30.0
 62
     5
 63
     7
421
 16777215
 74
     1
 91
        4
 64
     7
 65
   257
 75
     7
175
     7
 42
1.0
 92
        8
 66
     7
 43
1.0
 76
     1
 77
     6
 78
     2
 67
     7
 79
     5
170
     0
171
     0
290
     0
174
     0
 93
        1
 44
0.0
173
     0
291
     1
 45
0.0
  0
VISUALSTYLE
  5
33
102
{ACAD_REACTORS
330
2A
102
}
330
2A
100
AcDbVisualStyle
  2
Realistic
 70
     8
 71
     2
 72
     2
 73
     0
 90
        0
 40
-0.6
 41
-30.0
 62
     5
 63
     7
421
 16777215
 74
     1
 91
        0
 64
     7
 65
   257
 75
     1
175
     1
 42
1.0
 92
        8
 66
     8
424
  7895160
 43
1.0
 76
     1
 77
     6
 78
     2
 67
     7
 79
     5
170
     0
171
     0
290
     0
174
     0
 93
       13
 44
0.0
173
     0
291
     0
 45
0.0
  0
VISUALSTYLE
  5
37
102
{ACAD_REACTORS
330
2A
102
}
330
2A
100
AcDbVisualStyle
  2
Thicken
 70
    13
 71
     2
 72
     2
 73
     0
 90
        0
 40
-0.6
 41
-30.0
 62
     5
 63
     7
421
 16777215
 74
     1
 91
        4
 64
     7
 65
   257
 75
     1
175
     1
 42
1.0
 92
       12
 66
     7
 43
1.0
 76
     1
 77
     6
 78
     2
 67
     7
 79
     5
170
     0
171
     0
290
     0
174
     0
 93
        1
 44
0.0
173
     0
291
     1
 45
0.0
  0
ENDSEC
  0
EOF
