  0
SECTION
  2
HEADER
  9
$ACADVER
  1
AC1027
  9
$ACADMAINTVER
 70
     8
  9
$DWGCODEPAGE
  3
ANSI_932
  9
$REQUIREDVERSIONS
160
                 0
  9
$INSBASE
 10
0.0
 20
0.0
 30
0.0
  9
$EXTMIN
 10
8863.478551451557
 20
-827.9306538002329
 30
0.0
  9
$EXTMAX
 10
10683.47855145156
 20
82.0693461997671
 30
0.0
  9
$LIMMIN
 10
8863.478551451557
 20
-827.9306538002329
  9
$LIMMAX
 10
10683.47855145156
 20
82.0693461997671
  9
$ORTHOMODE
 70
     0
  9
$REGENMODE
 70
     1
  9
$FILLMODE
 70
     1
  9
$QTEXTMODE
 70
     0
  9
$MIRRTEXT
 70
     1
  9
$LTSCALE
 40
1.0
  9
$ATTMODE
 70
     1
  9
$TEXTSIZE
 40
0.2
  9
$TRACEWID
 40
0.05
  9
$TEXTSTYLE
  7
Standard
  9
$CLAYER
  8
0
  9
$CELTYPE
  6
ByLayer
  9
$CECOLOR
 62
   256
  9
$CELTSCALE
 40
1.0
  9
$DISPSILH
 70
     0
  9
$DIMSCALE
 40
1.0
  9
$DIMASZ
 40
0.18
  9
$DIMEXO
 40
0.0625
  9
$DIMDLI
 40
0.38
  9
$DIMRND
 40
0.0
  9
$DIMDLE
 40
0.0
  9
$DIMEXE
 40
0.18
  9
$DIMTP
 40
0.0
  9
$DIMTM
 40
0.0
  9
$DIMTXT
 40
0.18
  9
$DIMCEN
 40
0.09
  9
$DIMTSZ
 40
0.0
  9
$DIMTOL
 70
     0
  9
$DIMLIM
 70
     0
  9
$DIMTIH
 70
     1
  9
$DIMTOH
 70
     1
  9
$DIMSE1
 70
     0
  9
$DIMSE2
 70
     0
  9
$DIMTAD
 70
     0
  9
$DIMZIN
 70
     0
  9
$DIMBLK
  1

  9
$DIMASO
 70
     1
  9
$DIMSHO
 70
     1
  9
$DIMPOST
  1

  9
$DIMAPOST
  1

  9
$DIMALT
 70
     0
  9
$DIMALTD
 70
     2
  9
$DIMALTF
 40
25.4
  9
$DIMLFAC
 40
1.0
  9
$DIMTOFL
 70
     0
  9
$DIMTVP
 40
0.0
  9
$DIMTIX
 70
     0
  9
$DIMSOXD
 70
     0
  9
$DIMSAH
 70
     0
  9
$DIMBLK1
  1

  9
$DIMBLK2
  1

  9
$DIMSTYLE
  2
Standard
  9
$DIMCLRD
 70
     0
  9
$DIMCLRE
 70
     0
  9
$DIMCLRT
 70
     0
  9
$DIMTFAC
 40
1.0
  9
$DIMGAP
 40
0.09
  9
$DIMJUST
 70
     0
  9
$DIMSD1
 70
     0
  9
$DIMSD2
 70
     0
  9
$DIMTOLJ
 70
     1
  9
$DIMTZIN
 70
     0
  9
$DIMALTZ
 70
     0
  9
$DIMALTTZ
 70
     0
  9
$DIMUPT
 70
     0
  9
$DIMDEC
 70
     4
  9
$DIMTDEC
 70
     4
  9
$DIMALTU
 70
     2
  9
$DIMALTTD
 70
     2
  9
$DIMTXSTY
  7
Standard
  9
$DIMAUNIT
 70
     0
  9
$DIMADEC
 70
     0
  9
$DIMALTRND
 40
0.0
  9
$DIMAZIN
 70
     0
  9
$DIMDSEP
 70
    46
  9
$DIMATFIT
 70
     3
  9
$DIMFRAC
 70
     0
  9
$DIMLDRBLK
  1

  9
$DIMLUNIT
 70
     2
  9
$DIMLWD
 70
    -2
  9
$DIMLWE
 70
    -2
  9
$DIMTMOVE
 70
     0
  9
$DIMFXL
 40
1.0
  9
$DIMFXLON
 70
     0
  9
$DIMJOGANG
 40
0.7853981633974483
  9
$DIMTFILL
 70
     0
  9
$DIMTFILLCLR
 70
     0
  9
$DIMARCSYM
 70
     0
  9
$DIMLTYPE
  6

  9
$DIMLTEX1
  6

  9
$DIMLTEX2
  6

  9
$DIMTXTDIRECTION
 70
     0
  9
$LUNITS
 70
     2
  9
$LUPREC
 70
     4
  9
$SKETCHINC
 40
0.1
  9
$FILLETRAD
 40
0.5
  9
$AUNITS
 70
     0
  9
$AUPREC
 70
     0
  9
$MENU
  1
.
  9
$ELEVATION
 40
0.0
  9
$PELEVATION
 40
0.0
  9
$THICKNESS
 40
0.0
  9
$LIMCHECK
 70
     0
  9
$CHAMFERA
 40
0.0
  9
$CHAMFERB
 40
0.0
  9
$CHAMFERC
 40
0.0
  9
$CHAMFERD
 40
0.0
  9
$SKPOLY
 70
     0
  9
$TDCREATE
 40
2457722.678573183
  9
$TDUCREATE
 40
2457722.303573183
  9
$TDUPDATE
 40
2457722.678574954
  9
$TDUUPDATE
 40
2457722.303574954
  9
$TDINDWG
 40
0.0000000116
  9
$TDUSRTIMER
 40
0.0000000116
  9
$USRTIMER
 70
     1
  9
$ANGBASE
 50
0.0
  9
$ANGDIR
 70
     0
  9
$PDMODE
 70
     0
  9
$PDSIZE
 40
0.0
  9
$PLINEWID
 40
0.0
  9
$SPLFRAME
 70
     0
  9
$SPLINETYPE
 70
     6
  9
$SPLINESEGS
 70
     8
  9
$HANDSEED
  5
167
  9
$SURFTAB1
 70
     6
  9
$SURFTAB2
 70
     6
  9
$SURFTYPE
 70
     6
  9
$SURFU
 70
     6
  9
$SURFV
 70
     6
  9
$UCSBASE
  2

  9
$UCSNAME
  2

  9
$UCSORG
 10
0.0
 20
0.0
 30
0.0
  9
$UCSXDIR
 10
1.0
 20
0.0
 30
0.0
  9
$UCSYDIR
 10
0.0
 20
1.0
 30
0.0
  9
$UCSORTHOREF
  2

  9
$UCSORTHOVIEW
 70
     0
  9
$UCSORGTOP
 10
0.0
 20
0.0
 30
0.0
  9
$UCSORGBOTTOM
 10
0.0
 20
0.0
 30
0.0
  9
$UCSORGLEFT
 10
0.0
 20
0.0
 30
0.0
  9
$UCSORGRIGHT
 10
0.0
 20
0.0
 30
0.0
  9
$UCSORGFRONT
 10
0.0
 20
0.0
 30
0.0
  9
$UCSORGBACK
 10
0.0
 20
0.0
 30
0.0
  9
$PUCSBASE
  2

  9
$PUCSNAME
  2

  9
$PUCSORG
 10
0.0
 20
0.0
 30
0.0
  9
$PUCSXDIR
 10
1.0
 20
0.0
 30
0.0
  9
$PUCSYDIR
 10
0.0
 20
1.0
 30
0.0
  9
$PUCSORTHOREF
  2

  9
$PUCSORTHOVIEW
 70
     0
  9
$PUCSORGTOP
 10
0.0
 20
0.0
 30
0.0
  9
$PUCSORGBOTTOM
 10
0.0
 20
0.0
 30
0.0
  9
$PUCSORGLEFT
 10
0.0
 20
0.0
 30
0.0
  9
$PUCSORGRIGHT
 10
0.0
 20
0.0
 30
0.0
  9
$PUCSORGFRONT
 10
0.0
 20
0.0
 30
0.0
  9
$PUCSORGBACK
 10
0.0
 20
0.0
 30
0.0
  9
$USERI1
 70
     0
  9
$USERI2
 70
     0
  9
$USERI3
 70
     0
  9
$USERI4
 70
     0
  9
$USERI5
 70
     0
  9
$USERR1
 40
0.0
  9
$USERR2
 40
0.0
  9
$USERR3
 40
0.0
  9
$USERR4
 40
0.0
  9
$USERR5
 40
0.0
  9
$WORLDVIEW
 70
     1
  9
$SHADEDGE
 70
     3
  9
$SHADEDIF
 70
    70
  9
$TILEMODE
 70
     1
  9
$MAXACTVP
 70
    64
  9
$PINSBASE
 10
0.0
 20
0.0
 30
0.0
  9
$PLIMCHECK
 70
     0
  9
$PEXTMIN
 10
1.000000000000000E+20
 20
1.000000000000000E+20
 30
1.000000000000000E+20
  9
$PEXTMAX
 10
-1.000000000000000E+20
 20
-1.000000000000000E+20
 30
-1.000000000000000E+20
  9
$PLIMMIN
 10
0.0
 20
0.0
  9
$PLIMMAX
 10
12.0
 20
9.0
  9
$UNITMODE
 70
     0
  9
$VISRETAIN
 70
     1
  9
$PLINEGEN
 70
     0
  9
$PSLTSCALE
 70
     1
  9
$TREEDEPTH
 70
  3020
  9
$CMLSTYLE
  2
Standard
  9
$CMLJUST
 70
     0
  9
$CMLSCALE
 40
1.0
  9
$PROXYGRAPHICS
 70
     1
  9
$MEASUREMENT
 70
     0
  9
$CELWEIGHT
370
    -1
  9
$ENDCAPS
280
     0
  9
$JOINSTYLE
280
     0
  9
$LWDISPLAY
290
     0
  9
$INSUNITS
 70
     4
  9
$HYPERLINKBASE
  1

  9
$STYLESHEET
  1

  9
$XEDIT
290
     1
  9
$CEPSNTYPE
380
     0
  9
$PSTYLEMODE
290
     1
  9
$FINGERPRINTGUID
  2
{AF4C84DB-C2F3-4BC1-A717-46A89F984081}
  9
$VERSIONGUID
  2
{FAEB1C32-E019-11D5-929B-00C0DF256EC4}
  9
$EXTNAMES
290
     1
  9
$PSVPSCALE
 40
0.0
  9
$OLESTARTUP
290
     0
  9
$SORTENTS
280
   127
  9
$INDEXCTL
280
     0
  9
$HIDETEXT
280
     1
  9
$XCLIPFRAME
280
     2
  9
$HALOGAP
280
     0
  9
$OBSCOLOR
 70
   257
  9
$OBSLTYPE
280
     0
  9
$INTERSECTIONDISPLAY
280
     0
  9
$INTERSECTIONCOLOR
 70
   257
  9
$DIMASSOC
280
     2
  9
$PROJECTNAME
  1

  9
$CAMERADISPLAY
290
     0
  9
$LENSLENGTH
 40
50.0
  9
$CAMERAHEIGHT
 40
0.0
  9
$STEPSPERSEC
 40
2.0
  9
$STEPSIZE
 40
6.0
  9
$3DDWFPREC
 40
2.0
  9
$PSOLWIDTH
 40
0.25
  9
$PSOLHEIGHT
 40
4.0
  9
$LOFTANG1
 40
1.570796326794897
  9
$LOFTANG2
 40
1.570796326794897
  9
$LOFTMAG1
 40
0.0
  9
$LOFTMAG2
 40
0.0
  9
$LOFTPARAM
 70
     7
  9
$LOFTNORMALS
280
     1
  9
$LATITUDE
 40
37.795
  9
$LONGITUDE
 40
-122.394
  9
$NORTHDIRECTION
 40
0.0
  9
$TIMEZONE
 70
 -8000
  9
$LIGHTGLYPHDISPLAY
280
     1
  9
$TILEMODELIGHTSYNCH
280
     1
  9
$CMATERIAL
347
44
  9
$SOLIDHIST
280
     0
  9
$SHOWHIST
280
     1
  9
$DWFFRAME
280
     2
  9
$DGNFRAME
280
     2
  9
$REALWORLDSCALE
290
     1
  9
$INTERFERECOLOR
 62
   256
  9
$CSHADOW
280
     0
  9
$SHADOWPLANELOCATION
 40
0.0
  0
ENDSEC
  0
SECTION
  2
CLASSES
  0
CLASS
  1
ACDBDICTIONARYWDFLT
  2
AcDbDictionaryWithDefault
  3
ObjectDBX Classes
 90
        0
 91
        4
280
     0
281
     0
  0
CLASS
  1
VISUALSTYLE
  2
AcDbVisualStyle
  3
ObjectDBX Classes
 90
     4095
 91
        4
280
     0
281
     0
  0
CLASS
  1
MATERIAL
  2
AcDbMaterial
  3
ObjectDBX Classes
 90
     1153
 91
        4
280
     0
281
     0
  0
CLASS
  1
SCALE
  2
AcDbScale
  3
ObjectDBX Classes
 90
     1153
 91
        4
280
     0
281
     0
  0
CLASS
  1
TABLESTYLE
  2
AcDbTableStyle
  3
ObjectDBX Classes
 90
     4095
 91
        4
280
     0
281
     0
  0
CLASS
  1
MLEADERSTYLE
  2
AcDbMLeaderStyle
  3
ACDB_MLEADERSTYLE_CLASS
 90
     4095
 91
        4
280
     0
281
     0
  0
CLASS
  1
SUN
  2
AcDbSun
  3
SCENEOE
 90
     1153
 91
        4
280
     0
281
     0
  0
CLASS
  1
DICTIONARYVAR
  2
AcDbDictionaryVar
  3
ObjectDBX Classes
 90
        0
 91
        4
280
     0
281
     0
  0
CLASS
  1
CELLSTYLEMAP
  2
AcDbCellStyleMap
  3
ObjectDBX Classes
 90
     1152
 91
        4
280
     0
281
     0
  0
ENDSEC
  0
SECTION
  2
TABLES
  0
TABLE
  2
VPORT
  5
8
330
0
100
AcDbSymbolTable
 70
     1
  0
VPORT
  5
29
330
8
100
AcDbSymbolTableRecord
100
AcDbViewportTableRecord
  2
*Active
 70
     0
 10
0.0
 20
0.0
 11
1.0
 21
1.0
 12
9773.478551451557
 22
-372.9306538002329
 13
0.0
 23
0.0
 14
0.5
 24
0.5
 15
0.5
 25
0.5
 16
0.0
 26
0.0
 36
1.0
 17
0.0
 27
0.0
 37
0.0
 40
928.2
 41
2.0
 42
50.0
 43
0.0
 44
0.0
 50
0.0
 51
0.0
 71
     0
 72
   100
 73
     1
 74
     3
 75
     0
 76
     0
 77
     0
 78
     0
281
     0
 65
     1
110
0.0
120
0.0
130
0.0
111
1.0
121
0.0
131
0.0
112
0.0
122
1.0
132
0.0
 79
     0
146
0.0
 60
     3
 61
     5
292
     1
282
     1
141
0.0
142
0.0
 63
   250
361
6D
  0
ENDTAB
  0
TABLE
  2
LTYPE
  5
5
330
0
100
AcDbSymbolTable
 70
     1
  0
LTYPE
  5
14
330
5
100
AcDbSymbolTableRecord
100
AcDbLinetypeTableRecord
  2
ByBlock
 70
     0
  3

 72
    65
 73
     0
 40
0.0
  0
LTYPE
  5
15
330
5
100
AcDbSymbolTableRecord
100
AcDbLinetypeTableRecord
  2
ByLayer
 70
     0
  3

 72
    65
 73
     0
 40
0.0
  0
LTYPE
  5
16
330
5
100
AcDbSymbolTableRecord
100
AcDbLinetypeTableRecord
  2
Continuous
 70
     0
  3
Solid line
 72
    65
 73
     0
 40
0.0
  0
ENDTAB
  0
TABLE
  2
LAYER
  5
2
330
0
100
AcDbSymbolTable
 70
     2
  0
LAYER
  5
10
330
2
100
AcDbSymbolTableRecord
100
AcDbLayerTableRecord
  2
0
 70
     0
 62
     7
  6
Continuous
370
    -3
390
F
347
46
348
0
  0
LAYER
  5
6E
330
2
100
AcDbSymbolTableRecord
100
AcDbLayerTableRecord
  2
データ 001
 70
     0
 62
     7
  6
Continuous
370
    -3
390
F
347
46
348
0
  0
ENDTAB
  0
TABLE
  2
STYLE
  5
3
330
0
100
AcDbSymbolTable
 70
     2
  0
STYLE
  5
11
330
3
100
AcDbSymbolTableRecord
100
AcDbTextStyleTableRecord
  2
Standard
 70
     0
 40
0.0
 41
1.0
 50
0.0
 71
     0
 42
0.2
  3
txt
  4

  0
STYLE
  5
6F
330
3
100
AcDbSymbolTableRecord
100
AcDbTextStyleTableRecord
  2
STANDARD-FC
 70
     0
 40
0.0
 41
1.0
 50
0.0
 71
     0
 42
0.2
  3
txt
  4
bigfont
  0
ENDTAB
  0
TABLE
  2
VIEW
  5
6
330
0
100
AcDbSymbolTable
 70
     0
  0
ENDTAB
  0
TABLE
  2
UCS
  5
7
330
0
100
AcDbSymbolTable
 70
     0
  0
ENDTAB
  0
TABLE
  2
APPID
  5
9
330
0
100
AcDbSymbolTable
 70
     1
  0
APPID
  5
12
330
9
100
AcDbSymbolTableRecord
100
AcDbRegAppTableRecord
  2
ACAD
 70
     0
  0
ENDTAB
  0
TABLE
  2
DIMSTYLE
  5
A
330
0
100
AcDbSymbolTable
 70
     1
100
AcDbDimStyleTable
  0
DIMSTYLE
105
27
330
A
100
AcDbSymbolTableRecord
100
AcDbDimStyleTableRecord
  2
Standard
 70
     0
178
     0
340
11
  0
ENDTAB
  0
TABLE
  2
BLOCK_RECORD
  5
1
330
0
100
AcDbSymbolTable
 70
    13
  0
BLOCK_RECORD
  5
1F
330
1
100
AcDbSymbolTableRecord
100
AcDbBlockTableRecord
  2
*Model_Space
340
22
 70
     0
280
     1
281
     0
  0
BLOCK_RECORD
  5
1B
330
1
100
AcDbSymbolTableRecord
100
AcDbBlockTableRecord
  2
*Paper_Space
340
1E
 70
     0
280
     1
281
     0
  0
BLOCK_RECORD
  5
23
330
1
100
AcDbSymbolTableRecord
100
AcDbBlockTableRecord
  2
*Paper_Space0
340
26
 70
     0
280
     1
281
     0
  0
BLOCK_RECORD
  5
70
330
1
100
AcDbSymbolTableRecord
100
AcDbBlockTableRecord
  2
FcPack%d0
340
0
102
{BLKREFS
331
77
102
}
 70
     0
280
     1
281
     0
  0
BLOCK_RECORD
  5
7B
330
1
100
AcDbSymbolTableRecord
100
AcDbBlockTableRecord
  2
FcPack%d1
340
0
102
{BLKREFS
331
82
102
}
 70
     0
280
     1
281
     0
  0
BLOCK_RECORD
  5
83
330
1
100
AcDbSymbolTableRecord
100
AcDbBlockTableRecord
  2
FcPack%d2
340
0
102
{BLKREFS
331
8A
102
}
 70
     0
280
     1
281
     0
  0
BLOCK_RECORD
  5
8B
330
1
100
AcDbSymbolTableRecord
100
AcDbBlockTableRecord
  2
FcPack%d3
340
0
102
{BLKREFS
331
A2
102
}
 70
     0
280
     1
281
     0
  0
BLOCK_RECORD
  5
A4
330
1
100
AcDbSymbolTableRecord
100
AcDbBlockTableRecord
  2
FcPack%d4
340
0
102
{BLKREFS
331
BB
102
}
 70
     0
280
     1
281
     0
  0
BLOCK_RECORD
  5
BC
330
1
100
AcDbSymbolTableRecord
100
AcDbBlockTableRecord
  2
FcPack%d5
340
0
102
{BLKREFS
331
D3
102
}
 70
     0
280
     1
281
     0
  0
BLOCK_RECORD
  5
ED
330
1
100
AcDbSymbolTableRecord
100
AcDbBlockTableRecord
  2
FcPack%d6
340
0
102
{BLKREFS
331
F4
102
}
 70
     0
280
     1
281
     0
  0
BLOCK_RECORD
  5
102
330
1
100
AcDbSymbolTableRecord
100
AcDbBlockTableRecord
  2
FcPack%d7
340
0
102
{BLKREFS
331
119
102
}
 70
     0
280
     1
281
     0
  0
BLOCK_RECORD
  5
11A
330
1
100
AcDbSymbolTableRecord
100
AcDbBlockTableRecord
  2
FcPack%d8
340
0
102
{BLKREFS
331
131
102
}
 70
     0
280
     1
281
     0
  0
BLOCK_RECORD
  5
133
330
1
100
AcDbSymbolTableRecord
100
AcDbBlockTableRecord
  2
FcPack%d9
340
0
102
{BLKREFS
331
14A
102
}
 70
     0
280
     1
281
     0
  0
BLOCK_RECORD
  5
14B
330
1
100
AcDbSymbolTableRecord
100
AcDbBlockTableRecord
  2
FcPack%d10
340
0
102
{BLKREFS
331
152
102
}
 70
     0
280
     1
281
     0
  0
BLOCK_RECORD
  5
153
330
1
100
AcDbSymbolTableRecord
100
AcDbBlockTableRecord
  2
FcPack%d11
340
0
102
{BLKREFS
331
15A
102
}
 70
     0
280
     1
281
     0
  0
ENDTAB
  0
ENDSEC
  0
SECTION
  2
BLOCKS
  0
BLOCK
  5
20
330
1F
100
AcDbEntity
  8
0
100
AcDbBlockBegin
  2
*Model_Space
 70
     0
 10
0.0
 20
0.0
 30
0.0
  3
*Model_Space
  1
*Model_Space
  0
ENDBLK
  5
21
330
1F
100
AcDbEntity
  8
0
100
AcDbBlockEnd
  0
BLOCK
  5
1C
330
1B
100
AcDbEntity
 67
     1
  8
0
100
AcDbBlockBegin
  2
*Paper_Space
 70
     0
 10
0.0
 20
0.0
 30
0.0
  3
*Paper_Space
  1
*Paper_Space
  0
ENDBLK
  5
1D
330
1B
100
AcDbEntity
 67
     1
  8
0
100
AcDbBlockEnd
  0
BLOCK
  5
24
330
23
100
AcDbEntity
  8
0
100
AcDbBlockBegin
  2
*Paper_Space0
 70
     0
 10
0.0
 20
0.0
 30
0.0
  3
*Paper_Space0
  1
*Paper_Space0
  0
ENDBLK
  5
25
330
23
100
AcDbEntity
  8
0
100
AcDbBlockEnd
  0
BLOCK
  5
71
330
70
100
AcDbEntity
  8
0
100
AcDbBlockBegin
  2
FcPack%d0
 70
     0
 10
0.0
 20
0.0
 30
0.0
  3
FcPack%d0
  1
FcPack%d0
  0
LINE
  5
73
330
70
100
AcDbEntity
  8
データ 001
  6
Continuous
 62
     1
370
    13
100
AcDbLine
 10
-910.0
 20
-455.0
 30
0.0
 11
910.0
 21
-455.0
 31
0.0
  0
LINE
  5
74
330
70
100
AcDbEntity
  8
データ 001
  6
Continuous
 62
     1
370
    13
100
AcDbLine
 10
910.0
 20
-455.0
 30
0.0
 11
910.0
 21
455.0
 31
0.0
  0
LINE
  5
75
330
70
100
AcDbEntity
  8
データ 001
  6
Continuous
 62
     1
370
    13
100
AcDbLine
 10
910.0
 20
455.0
 30
0.0
 11
-910.0
 21
455.0
 31
0.0
  0
LINE
  5
76
330
70
100
AcDbEntity
  8
データ 001
  6
Continuous
 62
     1
370
    13
100
AcDbLine
 10
-910.0
 20
455.0
 30
0.0
 11
-910.0
 21
-455.0
 31
0.0
  0
ENDBLK
  5
72
330
70
100
AcDbEntity
  8
0
100
AcDbBlockEnd
  0
BLOCK
  5
7C
330
7B
100
AcDbEntity
  8
0
100
AcDbBlockBegin
  2
FcPack%d1
 70
     0
 10
0.0
 20
0.0
 30
0.0
  3
FcPack%d1
  1
FcPack%d1
  0
LINE
  5
7E
330
7B
100
AcDbEntity
  8
データ 001
  6
Continuous
 62
     1
370
    13
100
AcDbLine
 10
6.200000000000728
 20
23.70000000000005
 30
0.0
 11
6.200000000000728
 21
-23.70000000000005
 31
0.0
  0
LINE
  5
7F
330
7B
100
AcDbEntity
  8
データ 001
  6
Continuous
 62
     1
370
    13
100
AcDbLine
 10
6.200000000000728
 20
-23.70000000000005
 30
0.0
 11
-6.199999999998909
 21
-23.70000000000005
 31
0.0
  0
LINE
  5
80
330
7B
100
AcDbEntity
  8
データ 001
  6
Continuous
 62
     1
370
    13
100
AcDbLine
 10
-6.200000000000728
 20
-23.70000000000005
 30
0.0
 11
-6.200000000000728
 21
23.70000000000005
 31
0.0
  0
LINE
  5
81
330
7B
100
AcDbEntity
  8
データ 001
  6
Continuous
 62
     1
370
    13
100
AcDbLine
 10
-6.200000000000728
 20
23.70000000000005
 30
0.0
 11
6.199999999998909
 21
23.70000000000005
 31
0.0
  0
ENDBLK
  5
7D
330
7B
100
AcDbEntity
  8
0
100
AcDbBlockEnd
  0
BLOCK
  5
84
330
83
100
AcDbEntity
  8
0
100
AcDbBlockBegin
  2
FcPack%d2
 70
     0
 10
0.0
 20
0.0
 30
0.0
  3
FcPack%d2
  1
FcPack%d2
  0
LINE
  5
86
330
83
100
AcDbEntity
  8
データ 001
  6
Continuous
 62
     1
370
    13
100
AcDbLine
 10
-40.0
 20
-15.0
 30
0.0
 11
40.0
 21
-15.0
 31
0.0
  0
LINE
  5
87
330
83
100
AcDbEntity
  8
データ 001
  6
Continuous
 62
     1
370
    13
100
AcDbLine
 10
40.0
 20
15.0
 30
0.0
 11
-40.0
 21
15.0
 31
0.0
  0
ARC
  5
88
330
83
100
AcDbEntity
  8
データ 001
  6
Continuous
 62
     1
370
    13
100
AcDbCircle
 10
40.0
 20
0.0
 30
0.0
 40
15.0
100
AcDbArc
 50
270.0
 51
90.0
  0
ARC
  5
89
330
83
100
AcDbEntity
  8
データ 001
  6
Continuous
 62
     1
370
    13
100
AcDbCircle
 10
-40.0
 20
0.0
 30
0.0
 40
15.0
100
AcDbArc
 50
90.0
 51
270.0
  0
ENDBLK
  5
85
330
83
100
AcDbEntity
  8
0
100
AcDbBlockEnd
  0
BLOCK
  5
8C
330
8B
100
AcDbEntity
  8
0
100
AcDbBlockBegin
  2
FcPack%d3
 70
     0
 10
0.0
 20
0.0
 30
0.0
  3
FcPack%d3
  1
FcPack%d3
  0
LINE
  5
8E
330
8B
100
AcDbEntity
  8
データ 001
  6
Continuous
 62
     1
370
    13
100
AcDbLine
 10
111.9612690150516
 20
-106.5546800528181
 30
0.0
 11
96.2024122919247
 21
-107.6501364502643
 31
0.0
  0
LINE
  5
8F
330
8B
100
AcDbEntity
  8
データ 001
  6
Continuous
 62
     1
370
    13
100
AcDbLine
 10
96.2024122919247
 20
-107.6501364502643
 30
0.0
 11
80.54591886424896
 21
-108.6064742781683
 31
0.0
  0
LINE
  5
90
330
8B
100
AcDbEntity
  8
データ 001
  6
Continuous
 62
     1
370
    13
100
AcDbLine
 10
80.54591886424896
 20
-108.6064742781683
 30
0.0
 11
65.09415202747732
 21
-109.2845749669879
 31
0.0
  0
LINE
  5
91
330
8B
100
AcDbEntity
  8
データ 001
  6
Continuous
 62
     1
370
    13
100
AcDbLine
 10
65.09415202747732
 20
-109.2845749669879
 30
0.0
 11
49.94947507706092
 21
-109.5453199471809
 31
0.0
  0
LINE
  5
92
330
8B
100
AcDbEntity
  8
データ 001
  6
Continuous
 62
     1
370
    13
100
AcDbLine
 10
49.94947507706092
 20
-109.5453199471808
 30
0.0
 11
35.21425130845273
 21
-109.2495906492049
 31
0.0
  0
LINE
  5
93
330
8B
100
AcDbEntity
  8
データ 001
  6
Continuous
 62
     1
370
    13
100
AcDbLine
 10
35.21425130845273
 20
-109.249590649205
 30
0.0
 11
20.99084401710388
 21
-108.2582685035181
 31
0.0
  0
LINE
  5
94
330
8B
100
AcDbEntity
  8
データ 001
  6
Continuous
 62
     1
370
    13
100
AcDbLine
 10
20.99084401710206
 20
-108.2582685035181
 30
0.0
 11
7.381616498461881
 21
-106.432234940578
 31
0.0
  0
LINE
  5
95
330
8B
100
AcDbEntity
  8
データ 001
  6
Continuous
 62
     1
370
    13
100
AcDbLine
 10
7.381616498461881
 20
-106.4322349405781
 30
0.0
 11
-5.511067952014855
 21
-103.6323713908426
 31
0.0
  0
LINE
  5
96
330
8B
100
AcDbEntity
  8
データ 001
  6
Continuous
 62
     1
370
    13
100
AcDbLine
 10
-5.511067952014855
 20
-103.6323713908427
 30
0.0
 11
-17.584846038877
 21
-99.71955928476967
 31
0.0
  0
LINE
  5
97
330
8B
100
AcDbEntity
  8
データ 001
  6
Continuous
 62
     1
370
    13
100
AcDbLine
 10
-17.584846038877
 20
-99.71955928476967
 30
0.0
 11
-28.73735446667342
 21
-94.55468005281676
 31
0.0
  0
LINE
  5
98
330
8B
100
AcDbEntity
  8
データ 001
  6
Continuous
 62
     1
370
    13
100
AcDbLine
 10
-28.73735446667342
 20
-94.55468005281676
 30
0.0
 11
-44.16772803106687
 21
-83.80490346637981
 31
0.0
  0
LINE
  5
99
330
8B
100
AcDbEntity
  8
データ 001
  6
Continuous
 62
     1
370
    13
100
AcDbLine
 10
-44.16772803106687
 20
-83.8049034663797
 30
0.0
 11
-57.35347566612654
 21
-70.00453001250185
 31
0.0
  0
LINE
  5
9A
330
8B
100
AcDbEntity
  8
データ 001
  6
Continuous
 62
     1
370
    13
100
AcDbLine
 10
-57.35347566612654
 20
-70.0045300125019
 30
0.0
 11
-68.54400025289033
 21
-53.49251489867663
 31
0.0
  0
LINE
  5
9B
330
8B
100
AcDbEntity
  8
データ 001
  6
Continuous
 62
     1
370
    13
100
AcDbLine
 10
-68.54400025289033
 20
-53.49251489867669
 30
0.0
 11
-77.9887046723943
 21
-34.60781333239737
 31
0.0
  0
LINE
  5
9C
330
8B
100
AcDbEntity
  8
データ 001
  6
Continuous
 62
     1
370
    13
100
AcDbLine
 10
-77.9887046723943
 20
-34.60781333239737
 30
0.0
 11
-85.93699180567819
 21
-13.68938052115743
 31
0.0
  0
LINE
  5
9D
330
8B
100
AcDbEntity
  8
データ 001
  6
Continuous
 62
     1
370
    13
100
AcDbLine
 10
-85.93699180567819
 20
-13.68938052115737
 30
0.0
 11
-92.63826453377442
 21
8.923828327549643
 31
0.0
  0
LINE
  5
9E
330
8B
100
AcDbEntity
  8
データ 001
  6
Continuous
 62
     1
370
    13
100
AcDbLine
 10
-92.63826453377442
 20
8.923828327549643
 30
0.0
 11
-98.3419257377227
 21
32.89285800623043
 31
0.0
  0
LINE
  5
9F
330
8B
100
AcDbEntity
  8
データ 001
  6
Continuous
 62
     1
370
    13
100
AcDbLine
 10
-98.3419257377227
 20
32.89285800623048
 30
0.0
 11
-103.2973782985609
 21
57.87875330739158
 31
0.0
  0
LINE
  5
A0
330
8B
100
AcDbEntity
  8
データ 001
  6
Continuous
 62
     1
370
    13
100
AcDbLine
 10
-103.2973782985628
 20
57.87875330739149
 30
0.0
 11
-107.754025097327
 21
83.54255902353944
 31
0.0
  0
LINE
  5
A1
330
8B
100
AcDbEntity
  8
データ 001
  6
Continuous
 62
     1
370
    13
100
AcDbLine
 10
-107.7540250973252
 20
83.54255902353947
 30
0.0
 11
-111.9612690150516
 21
109.5453199471809
 31
0.0
  0
ENDBLK
  5
8D
330
8B
100
AcDbEntity
  8
0
100
AcDbBlockEnd
  0
BLOCK
  5
A5
330
A4
100
AcDbEntity
  8
0
100
AcDbBlockBegin
  2
FcPack%d4
 70
     0
 10
0.0
 20
0.0
 30
0.0
  3
FcPack%d4
  1
FcPack%d4
  0
LINE
  5
A7
330
A4
100
AcDbEntity
  8
データ 001
  6
Continuous
 62
     1
370
    13
100
AcDbLine
 10
83.89145824802472
 20
290.9500000000003
 30
0.0
 11
59.39738280761958
 21
262.8850215893739
 31
0.0
  0
LINE
  5
A8
330
A4
100
AcDbEntity
  8
データ 001
  6
Continuous
 62
     1
370
    13
100
AcDbLine
 10
59.39738280761958
 20
262.885021589374
 30
0.0
 11
35.3709306272649
 21
234.8018530814667
 31
0.0
  0
LINE
  5
A9
330
A4
100
AcDbEntity
  8
データ 001
  6
Continuous
 62
     1
370
    13
100
AcDbLine
 10
35.37093062726308
 20
234.8018530814667
 30
0.0
 11
12.27972496700386
 21
206.6823043789975
 31
0.0
  0
LINE
  5
AA
330
A4
100
AcDbEntity
  8
データ 001
  6
Continuous
 62
     1
370
    13
100
AcDbLine
 10
12.27972496700386
 20
206.6823043789975
 30
0.0
 11
-9.408610913109442
 21
178.5081853846855
 31
0.0
  0
LINE
  5
AB
330
A4
100
AcDbEntity
  8
データ 001
  6
Continuous
 62
     1
370
    13
100
AcDbLine
 10
-9.408610913109442
 20
178.5081853846855
 30
0.0
 11
-29.22645375303
 21
150.2613060012496
 31
0.0
  0
LINE
  5
AC
330
A4
100
AcDbEntity
  8
データ 001
  6
Continuous
 62
     1
370
    13
100
AcDbLine
 10
-29.22645375303182
 20
150.2613060012496
 30
0.0
 11
-46.70618029270918
 21
121.923476131409
 31
0.0
  0
LINE
  5
AD
330
A4
100
AcDbEntity
  8
データ 001
  6
Continuous
 62
     1
370
    13
100
AcDbLine
 10
-46.70618029270918
 20
121.923476131409
 30
0.0
 11
-61.3801672720947
 21
93.47650567788276
 31
0.0
  0
LINE
  5
AE
330
A4
100
AcDbEntity
  8
データ 001
  6
Continuous
 62
     1
370
    13
100
AcDbLine
 10
-61.3801672720947
 20
93.47650567788276
 30
0.0
 11
-72.78079143114155
 21
64.90220454338987
 31
0.0
  0
LINE
  5
AF
330
A4
100
AcDbEntity
  8
データ 001
  6
Continuous
 62
     1
370
    13
100
AcDbLine
 10
-72.78079143114155
 20
64.90220454338987
 30
0.0
 11
-80.4404295098011
 21
36.18238263064927
 31
0.0
  0
LINE
  5
B0
330
A4
100
AcDbEntity
  8
データ 001
  6
Continuous
 62
     1
370
    13
100
AcDbLine
 10
-80.44042950980293
 20
36.18238263064927
 30
0.0
 11
-83.89145824802654
 21
7.29884984238015
 31
0.0
  0
LINE
  5
B1
330
A4
100
AcDbEntity
  8
データ 001
  6
Continuous
 62
     1
370
    13
100
AcDbLine
 10
-83.89145824802472
 20
7.29884984238015
 30
0.0
 11
-82.79472545601311
 21
-21.99909616938737
 31
0.0
  0
LINE
  5
B2
330
A4
100
AcDbEntity
  8
データ 001
  6
Continuous
 62
     1
370
    13
100
AcDbLine
 10
-82.79472545601311
 20
-21.99909616938726
 30
0.0
 11
-77.4202066794387
 21
-51.46344396193501
 31
0.0
  0
LINE
  5
B3
330
A4
100
AcDbEntity
  8
データ 001
  6
Continuous
 62
     1
370
    13
100
AcDbLine
 10
-77.4202066794387
 20
-51.46344396193513
 30
0.0
 11
-68.24321147214141
 21
-81.07570444850967
 31
0.0
  0
LINE
  5
B4
330
A4
100
AcDbEntity
  8
データ 001
  6
Continuous
 62
     1
370
    13
100
AcDbLine
 10
-68.24321147214141
 20
-81.07570444850967
 30
0.0
 11
-55.73904938796113
 21
-110.8173885423577
 31
0.0
  0
LINE
  5
B5
330
A4
100
AcDbEntity
  8
データ 001
  6
Continuous
 62
     1
370
    13
100
AcDbLine
 10
-55.73904938796113
 20
-110.8173885423575
 30
0.0
 11
-40.38302998073959
 21
-140.6700071567255
 31
0.0
  0
LINE
  5
B6
330
A4
100
AcDbEntity
  8
データ 001
  6
Continuous
 62
     1
370
    13
100
AcDbLine
 10
-40.38302998073777
 20
-140.6700071567257
 30
0.0
 11
-22.65046280431488
 21
-170.6150712048606
 31
0.0
  0
LINE
  5
B7
330
A4
100
AcDbEntity
  8
データ 001
  6
Continuous
 62
     1
370
    13
100
AcDbLine
 10
-22.65046280431488
 20
-170.6150712048607
 30
0.0
 11
-3.01665741252873
 21
-200.6340916000089
 31
0.0
  0
LINE
  5
B8
330
A4
100
AcDbEntity
  8
データ 001
  6
Continuous
 62
     1
370
    13
100
AcDbLine
 10
-3.01665741252873
 20
-200.6340916000088
 30
0.0
 11
18.04307664077714
 21
-230.708579255417
 31
0.0
  0
LINE
  5
B9
330
A4
100
AcDbEntity
  8
データ 001
  6
Continuous
 62
     1
370
    13
100
AcDbLine
 10
18.04307664077714
 20
-230.7085792554171
 30
0.0
 11
40.05342980176283
 21
-260.820045084332
 31
0.0
  0
LINE
  5
BA
330
A4
100
AcDbEntity
  8
データ 001
  6
Continuous
 62
     1
370
    13
100
AcDbLine
 10
40.05342980176283
 20
-260.8200450843319
 30
0.0
 11
62.53909251659024
 21
-290.9500000000003
 31
0.0
  0
ENDBLK
  5
A6
330
A4
100
AcDbEntity
  8
0
100
AcDbBlockEnd
  0
BLOCK
  5
BD
330
BC
100
AcDbEntity
  8
0
100
AcDbBlockBegin
  2
FcPack%d5
 70
     0
 10
0.0
 20
0.0
 30
0.0
  3
FcPack%d5
  1
FcPack%d5
  0
LINE
  5
BF
330
BC
100
AcDbEntity
  8
データ 001
  6
Continuous
 62
     1
370
    13
100
AcDbLine
 10
-128.6826357998143
 20
399.0000000000001
 30
0.0
 11
-86.42622907403347
 21
346.8186112376523
 31
0.0
  0
LINE
  5
C0
330
BC
100
AcDbEntity
  8
データ 001
  6
Continuous
 62
     1
370
    13
100
AcDbLine
 10
-86.42622907403347
 20
346.8186112376523
 30
0.0
 11
-45.19434225602163
 21
294.660879101325
 31
0.0
  0
LINE
  5
C1
330
BC
100
AcDbEntity
  8
データ 001
  6
Continuous
 62
     1
370
    13
100
AcDbLine
 10
-45.19434225602163
 20
294.660879101325
 30
0.0
 11
-6.011495253549583
 21
242.5504602170384
 31
0.0
  0
LINE
  5
C2
330
BC
100
AcDbEntity
  8
データ 001
  6
Continuous
 62
     1
370
    13
100
AcDbLine
 10
-6.011495253551402
 20
242.5504602170385
 30
0.0
 11
30.09779202560821
 21
190.5110112108133
 31
0.0
  0
LINE
  5
C3
330
BC
100
AcDbEntity
  8
データ 001
  6
Continuous
 62
     1
370
    13
100
AcDbLine
 10
30.09779202561003
 20
190.5110112108133
 30
0.0
 11
62.10899967369187
 21
138.5661887086698
 31
0.0
  0
LINE
  5
C4
330
BC
100
AcDbEntity
  8
データ 001
  6
Continuous
 62
     1
370
    13
100
AcDbLine
 10
62.10899967369187
 20
138.5661887086698
 30
0.0
 11
88.9976077829233
 21
86.73964933662842
 31
0.0
  0
LINE
  5
C5
330
BC
100
AcDbEntity
  8
データ 001
  6
Continuous
 62
     1
370
    13
100
AcDbLine
 10
88.9976077829233
 20
86.73964933662836
 30
0.0
 11
109.7390964455335
 21
35.05504972070952
 31
0.0
  0
LINE
  5
C6
330
BC
100
AcDbEntity
  8
データ 001
  6
Continuous
 62
     1
370
    13
100
AcDbLine
 10
109.7390964455335
 20
35.05504972070952
 30
0.0
 11
123.3089457537535
 21
-16.46395351306643
 31
0.0
  0
LINE
  5
C7
330
BC
100
AcDbEntity
  8
データ 001
  6
Continuous
 62
     1
370
    13
100
AcDbLine
 10
123.3089457537535
 20
-16.46395351306643
 30
0.0
 11
128.6826357998143
 21
-67.79370373867886
 31
0.0
  0
LINE
  5
C8
330
BC
100
AcDbEntity
  8
データ 001
  6
Continuous
 62
     1
370
    13
100
AcDbLine
 10
128.6826357998143
 20
-67.79370373867886
 30
0.0
 11
124.8356466759433
 21
-118.9105443301075
 31
0.0
  0
LINE
  5
C9
330
BC
100
AcDbEntity
  8
データ 001
  6
Continuous
 62
     1
370
    13
100
AcDbLine
 10
124.8356466759433
 20
-118.9105443301076
 30
0.0
 11
118.4425505155323
 21
-147.1263510551826
 31
0.0
  0
LINE
  5
CA
330
BC
100
AcDbEntity
  8
データ 001
  6
Continuous
 62
     1
370
    13
100
AcDbLine
 10
118.4425505155341
 20
-147.1263510551824
 30
0.0
 11
109.2203810644387
 21
-175.2768332040199
 31
0.0
  0
LINE
  5
CB
330
BC
100
AcDbEntity
  8
データ 001
  6
Continuous
 62
     1
370
    13
100
AcDbLine
 10
109.2203810644387
 20
-175.2768332040201
 30
0.0
 11
97.48347979940445
 21
-203.3692490628685
 31
0.0
  0
LINE
  5
CC
330
BC
100
AcDbEntity
  8
データ 001
  6
Continuous
 62
     1
370
    13
100
AcDbLine
 10
97.48347979940263
 20
-203.3692490628683
 30
0.0
 11
83.5461881971678
 21
-231.4108569179763
 31
0.0
  0
LINE
  5
CD
330
BC
100
AcDbEntity
  8
データ 001
  6
Continuous
 62
     1
370
    13
100
AcDbLine
 10
83.5461881971678
 20
-231.4108569179764
 30
0.0
 11
67.72284773447791
 21
-259.4089150555927
 31
0.0
  0
LINE
  5
CE
330
BC
100
AcDbEntity
  8
データ 001
  6
Continuous
 62
     1
370
    13
100
AcDbLine
 10
67.72284773447791
 20
-259.4089150555927
 30
0.0
 11
50.32779988807488
 21
-287.370681761966
 31
0.0
  0
LINE
  5
CF
330
BC
100
AcDbEntity
  8
データ 001
  6
Continuous
 62
     1
370
    13
100
AcDbLine
 10
50.32779988807488
 20
-287.370681761966
 30
0.0
 11
31.67538613470242
 21
-315.3034153233446
 31
0.0
  0
LINE
  5
D0
330
BC
100
AcDbEntity
  8
データ 001
  6
Continuous
 62
     1
370
    13
100
AcDbLine
 10
31.67538613470242
 20
-315.3034153233446
 30
0.0
 11
12.07994795110062
 21
-343.2143740259775
 31
0.0
  0
LINE
  5
D1
330
BC
100
AcDbEntity
  8
データ 001
  6
Continuous
 62
     1
370
    13
100
AcDbLine
 10
12.07994795110062
 20
-343.2143740259776
 30
0.0
 11
-8.144173185984982
 21
-371.1108161561132
 31
0.0
  0
LINE
  5
D2
330
BC
100
AcDbEntity
  8
データ 001
  6
Continuous
 62
     1
370
    13
100
AcDbLine
 10
-8.144173185984982
 20
-371.1108161561131
 30
0.0
 11
-28.68263579981431
 21
-399.0000000000001
 31
0.0
  0
ENDBLK
  5
BE
330
BC
100
AcDbEntity
  8
0
100
AcDbBlockEnd
  0
BLOCK
  5
EE
330
ED
100
AcDbEntity
  8
0
100
AcDbBlockBegin
  2
FcPack%d6
 70
     0
 10
0.0
 20
0.0
 30
0.0
  3
FcPack%d6
  1
FcPack%d6
  0
LINE
  5
F0
330
ED
100
AcDbEntity
  8
データ 001
  6
Continuous
 62
     1
370
    13
100
AcDbLine
 10
24.10000000000036
 20
105.4750299869738
 30
0.0
 11
-24.10000000000036
 21
105.4750299869738
 31
0.0
  0
LINE
  5
F1
330
ED
100
AcDbEntity
  8
データ 001
  6
Continuous
 62
     1
370
    13
100
AcDbLine
 10
-24.10000000000036
 20
105.4750299869738
 30
0.0
 11
-24.10000000000036
 21
-105.4750299869738
 31
0.0
  0
LINE
  5
F2
330
ED
100
AcDbEntity
  8
データ 001
  6
Continuous
 62
     1
370
    13
100
AcDbLine
 10
-24.10000000000036
 20
-105.4750299869738
 30
0.0
 11
24.10000000000036
 21
-105.4750299869738
 31
0.0
  0
LINE
  5
F3
330
ED
100
AcDbEntity
  8
データ 001
  6
Continuous
 62
     1
370
    13
100
AcDbLine
 10
24.10000000000036
 20
-105.4750299869738
 30
0.0
 11
24.10000000000036
 21
105.4750299869738
 31
0.0
  0
ENDBLK
  5
EF
330
ED
100
AcDbEntity
  8
0
100
AcDbBlockEnd
  0
BLOCK
  5
103
330
102
100
AcDbEntity
  8
0
100
AcDbBlockBegin
  2
FcPack%d7
 70
     0
 10
0.0
 20
0.0
 30
0.0
  3
FcPack%d7
  1
FcPack%d7
  0
LINE
  5
105
330
102
100
AcDbEntity
  8
データ 001
  6
Continuous
 62
     1
370
    13
100
AcDbLine
 10
128.6826357998143
 20
399.0000000000001
 30
0.0
 11
86.42622907403347
 21
346.8186112376523
 31
0.0
  0
LINE
  5
106
330
102
100
AcDbEntity
  8
データ 001
  6
Continuous
 62
     1
370
    13
100
AcDbLine
 10
86.42622907403347
 20
346.8186112376523
 30
0.0
 11
45.19434225602163
 21
294.660879101325
 31
0.0
  0
LINE
  5
107
330
102
100
AcDbEntity
  8
データ 001
  6
Continuous
 62
     1
370
    13
100
AcDbLine
 10
45.19434225602163
 20
294.660879101325
 30
0.0
 11
6.011495253549583
 21
242.5504602170384
 31
0.0
  0
LINE
  5
108
330
102
100
AcDbEntity
  8
データ 001
  6
Continuous
 62
     1
370
    13
100
AcDbLine
 10
6.011495253551402
 20
242.5504602170385
 30
0.0
 11
-30.09779202560821
 21
190.5110112108133
 31
0.0
  0
LINE
  5
109
330
102
100
AcDbEntity
  8
データ 001
  6
Continuous
 62
     1
370
    13
100
AcDbLine
 10
-30.09779202561003
 20
190.5110112108133
 30
0.0
 11
-62.10899967369187
 21
138.5661887086698
 31
0.0
  0
LINE
  5
10A
330
102
100
AcDbEntity
  8
データ 001
  6
Continuous
 62
     1
370
    13
100
AcDbLine
 10
-62.10899967369187
 20
138.5661887086698
 30
0.0
 11
-88.9976077829233
 21
86.73964933662842
 31
0.0
  0
LINE
  5
10B
330
102
100
AcDbEntity
  8
データ 001
  6
Continuous
 62
     1
370
    13
100
AcDbLine
 10
-88.9976077829233
 20
86.73964933662836
 30
0.0
 11
-109.7390964455335
 21
35.05504972070952
 31
0.0
  0
LINE
  5
10C
330
102
100
AcDbEntity
  8
データ 001
  6
Continuous
 62
     1
370
    13
100
AcDbLine
 10
-109.7390964455335
 20
35.05504972070952
 30
0.0
 11
-123.3089457537535
 21
-16.46395351306643
 31
0.0
  0
LINE
  5
10D
330
102
100
AcDbEntity
  8
データ 001
  6
Continuous
 62
     1
370
    13
100
AcDbLine
 10
-123.3089457537535
 20
-16.46395351306643
 30
0.0
 11
-128.6826357998143
 21
-67.79370373867886
 31
0.0
  0
LINE
  5
10E
330
102
100
AcDbEntity
  8
データ 001
  6
Continuous
 62
     1
370
    13
100
AcDbLine
 10
-128.6826357998143
 20
-67.79370373867886
 30
0.0
 11
-124.8356466759433
 21
-118.9105443301075
 31
0.0
  0
LINE
  5
10F
330
102
100
AcDbEntity
  8
データ 001
  6
Continuous
 62
     1
370
    13
100
AcDbLine
 10
-124.8356466759433
 20
-118.9105443301076
 30
0.0
 11
-118.4425505155323
 21
-147.1263510551826
 31
0.0
  0
LINE
  5
110
330
102
100
AcDbEntity
  8
データ 001
  6
Continuous
 62
     1
370
    13
100
AcDbLine
 10
-118.4425505155341
 20
-147.1263510551824
 30
0.0
 11
-109.2203810644387
 21
-175.2768332040199
 31
0.0
  0
LINE
  5
111
330
102
100
AcDbEntity
  8
データ 001
  6
Continuous
 62
     1
370
    13
100
AcDbLine
 10
-109.2203810644387
 20
-175.2768332040201
 30
0.0
 11
-97.48347979940445
 21
-203.3692490628685
 31
0.0
  0
LINE
  5
112
330
102
100
AcDbEntity
  8
データ 001
  6
Continuous
 62
     1
370
    13
100
AcDbLine
 10
-97.48347979940263
 20
-203.3692490628683
 30
0.0
 11
-83.5461881971678
 21
-231.4108569179763
 31
0.0
  0
LINE
  5
113
330
102
100
AcDbEntity
  8
データ 001
  6
Continuous
 62
     1
370
    13
100
AcDbLine
 10
-83.5461881971678
 20
-231.4108569179764
 30
0.0
 11
-67.72284773447791
 21
-259.4089150555927
 31
0.0
  0
LINE
  5
114
330
102
100
AcDbEntity
  8
データ 001
  6
Continuous
 62
     1
370
    13
100
AcDbLine
 10
-67.72284773447791
 20
-259.4089150555927
 30
0.0
 11
-50.32779988807488
 21
-287.370681761966
 31
0.0
  0
LINE
  5
115
330
102
100
AcDbEntity
  8
データ 001
  6
Continuous
 62
     1
370
    13
100
AcDbLine
 10
-50.32779988807488
 20
-287.370681761966
 30
0.0
 11
-31.67538613470242
 21
-315.3034153233446
 31
0.0
  0
LINE
  5
116
330
102
100
AcDbEntity
  8
データ 001
  6
Continuous
 62
     1
370
    13
100
AcDbLine
 10
-31.67538613470242
 20
-315.3034153233446
 30
0.0
 11
-12.07994795110062
 21
-343.2143740259775
 31
0.0
  0
LINE
  5
117
330
102
100
AcDbEntity
  8
データ 001
  6
Continuous
 62
     1
370
    13
100
AcDbLine
 10
-12.07994795110062
 20
-343.2143740259776
 30
0.0
 11
8.144173185984982
 21
-371.1108161561132
 31
0.0
  0
LINE
  5
118
330
102
100
AcDbEntity
  8
データ 001
  6
Continuous
 62
     1
370
    13
100
AcDbLine
 10
8.144173185984982
 20
-371.1108161561131
 30
0.0
 11
28.68263579981431
 21
-399.0000000000001
 31
0.0
  0
ENDBLK
  5
104
330
102
100
AcDbEntity
  8
0
100
AcDbBlockEnd
  0
BLOCK
  5
11B
330
11A
100
AcDbEntity
  8
0
100
AcDbBlockBegin
  2
FcPack%d8
 70
     0
 10
0.0
 20
0.0
 30
0.0
  3
FcPack%d8
  1
FcPack%d8
  0
LINE
  5
11D
330
11A
100
AcDbEntity
  8
データ 001
  6
Continuous
 62
     1
370
    13
100
AcDbLine
 10
-83.89145824802472
 20
290.9500000000003
 30
0.0
 11
-59.39738280761958
 21
262.8850215893739
 31
0.0
  0
LINE
  5
11E
330
11A
100
AcDbEntity
  8
データ 001
  6
Continuous
 62
     1
370
    13
100
AcDbLine
 10
-59.39738280761958
 20
262.885021589374
 30
0.0
 11
-35.3709306272649
 21
234.8018530814667
 31
0.0
  0
LINE
  5
11F
330
11A
100
AcDbEntity
  8
データ 001
  6
Continuous
 62
     1
370
    13
100
AcDbLine
 10
-35.37093062726308
 20
234.8018530814667
 30
0.0
 11
-12.27972496700386
 21
206.6823043789975
 31
0.0
  0
LINE
  5
120
330
11A
100
AcDbEntity
  8
データ 001
  6
Continuous
 62
     1
370
    13
100
AcDbLine
 10
-12.27972496700386
 20
206.6823043789975
 30
0.0
 11
9.408610913109442
 21
178.5081853846855
 31
0.0
  0
LINE
  5
121
330
11A
100
AcDbEntity
  8
データ 001
  6
Continuous
 62
     1
370
    13
100
AcDbLine
 10
9.408610913109442
 20
178.5081853846855
 30
0.0
 11
29.22645375303
 21
150.2613060012496
 31
0.0
  0
LINE
  5
122
330
11A
100
AcDbEntity
  8
データ 001
  6
Continuous
 62
     1
370
    13
100
AcDbLine
 10
29.22645375303182
 20
150.2613060012496
 30
0.0
 11
46.70618029270918
 21
121.923476131409
 31
0.0
  0
LINE
  5
123
330
11A
100
AcDbEntity
  8
データ 001
  6
Continuous
 62
     1
370
    13
100
AcDbLine
 10
46.70618029270918
 20
121.923476131409
 30
0.0
 11
61.3801672720947
 21
93.47650567788276
 31
0.0
  0
LINE
  5
124
330
11A
100
AcDbEntity
  8
データ 001
  6
Continuous
 62
     1
370
    13
100
AcDbLine
 10
61.3801672720947
 20
93.47650567788276
 30
0.0
 11
72.78079143114155
 21
64.90220454338987
 31
0.0
  0
LINE
  5
125
330
11A
100
AcDbEntity
  8
データ 001
  6
Continuous
 62
     1
370
    13
100
AcDbLine
 10
72.78079143114155
 20
64.90220454338987
 30
0.0
 11
80.4404295098011
 21
36.18238263064927
 31
0.0
  0
LINE
  5
126
330
11A
100
AcDbEntity
  8
データ 001
  6
Continuous
 62
     1
370
    13
100
AcDbLine
 10
80.44042950980293
 20
36.18238263064927
 30
0.0
 11
83.89145824802654
 21
7.29884984238015
 31
0.0
  0
LINE
  5
127
330
11A
100
AcDbEntity
  8
データ 001
  6
Continuous
 62
     1
370
    13
100
AcDbLine
 10
83.89145824802472
 20
7.29884984238015
 30
0.0
 11
82.79472545601311
 21
-21.99909616938737
 31
0.0
  0
LINE
  5
128
330
11A
100
AcDbEntity
  8
データ 001
  6
Continuous
 62
     1
370
    13
100
AcDbLine
 10
82.79472545601311
 20
-21.99909616938726
 30
0.0
 11
77.4202066794387
 21
-51.46344396193501
 31
0.0
  0
LINE
  5
129
330
11A
100
AcDbEntity
  8
データ 001
  6
Continuous
 62
     1
370
    13
100
AcDbLine
 10
77.4202066794387
 20
-51.46344396193513
 30
0.0
 11
68.24321147214141
 21
-81.07570444850967
 31
0.0
  0
LINE
  5
12A
330
11A
100
AcDbEntity
  8
データ 001
  6
Continuous
 62
     1
370
    13
100
AcDbLine
 10
68.24321147214141
 20
-81.07570444850967
 30
0.0
 11
55.73904938796113
 21
-110.8173885423577
 31
0.0
  0
LINE
  5
12B
330
11A
100
AcDbEntity
  8
データ 001
  6
Continuous
 62
     1
370
    13
100
AcDbLine
 10
55.73904938796113
 20
-110.8173885423575
 30
0.0
 11
40.38302998073959
 21
-140.6700071567255
 31
0.0
  0
LINE
  5
12C
330
11A
100
AcDbEntity
  8
データ 001
  6
Continuous
 62
     1
370
    13
100
AcDbLine
 10
40.38302998073777
 20
-140.6700071567257
 30
0.0
 11
22.65046280431488
 21
-170.6150712048606
 31
0.0
  0
LINE
  5
12D
330
11A
100
AcDbEntity
  8
データ 001
  6
Continuous
 62
     1
370
    13
100
AcDbLine
 10
22.65046280431488
 20
-170.6150712048607
 30
0.0
 11
3.01665741252873
 21
-200.6340916000089
 31
0.0
  0
LINE
  5
12E
330
11A
100
AcDbEntity
  8
データ 001
  6
Continuous
 62
     1
370
    13
100
AcDbLine
 10
3.01665741252873
 20
-200.6340916000088
 30
0.0
 11
-18.04307664077714
 21
-230.708579255417
 31
0.0
  0
LINE
  5
12F
330
11A
100
AcDbEntity
  8
データ 001
  6
Continuous
 62
     1
370
    13
100
AcDbLine
 10
-18.04307664077714
 20
-230.7085792554171
 30
0.0
 11
-40.05342980176283
 21
-260.820045084332
 31
0.0
  0
LINE
  5
130
330
11A
100
AcDbEntity
  8
データ 001
  6
Continuous
 62
     1
370
    13
100
AcDbLine
 10
-40.05342980176283
 20
-260.8200450843319
 30
0.0
 11
-62.53909251659024
 21
-290.9500000000003
 31
0.0
  0
ENDBLK
  5
11C
330
11A
100
AcDbEntity
  8
0
100
AcDbBlockEnd
  0
BLOCK
  5
134
330
133
100
AcDbEntity
  8
0
100
AcDbBlockBegin
  2
FcPack%d9
 70
     0
 10
0.0
 20
0.0
 30
0.0
  3
FcPack%d9
  1
FcPack%d9
  0
LINE
  5
136
330
133
100
AcDbEntity
  8
データ 001
  6
Continuous
 62
     1
370
    13
100
AcDbLine
 10
-111.9612690150516
 20
-106.5546800528181
 30
0.0
 11
-96.2024122919247
 21
-107.6501364502643
 31
0.0
  0
LINE
  5
137
330
133
100
AcDbEntity
  8
データ 001
  6
Continuous
 62
     1
370
    13
100
AcDbLine
 10
-96.2024122919247
 20
-107.6501364502643
 30
0.0
 11
-80.54591886424896
 21
-108.6064742781683
 31
0.0
  0
LINE
  5
138
330
133
100
AcDbEntity
  8
データ 001
  6
Continuous
 62
     1
370
    13
100
AcDbLine
 10
-80.54591886424896
 20
-108.6064742781683
 30
0.0
 11
-65.09415202747732
 21
-109.2845749669879
 31
0.0
  0
LINE
  5
139
330
133
100
AcDbEntity
  8
データ 001
  6
Continuous
 62
     1
370
    13
100
AcDbLine
 10
-65.09415202747732
 20
-109.2845749669879
 30
0.0
 11
-49.94947507706092
 21
-109.5453199471809
 31
0.0
  0
LINE
  5
13A
330
133
100
AcDbEntity
  8
データ 001
  6
Continuous
 62
     1
370
    13
100
AcDbLine
 10
-49.94947507706092
 20
-109.5453199471808
 30
0.0
 11
-35.21425130845273
 21
-109.2495906492049
 31
0.0
  0
LINE
  5
13B
330
133
100
AcDbEntity
  8
データ 001
  6
Continuous
 62
     1
370
    13
100
AcDbLine
 10
-35.21425130845273
 20
-109.249590649205
 30
0.0
 11
-20.99084401710388
 21
-108.2582685035181
 31
0.0
  0
LINE
  5
13C
330
133
100
AcDbEntity
  8
データ 001
  6
Continuous
 62
     1
370
    13
100
AcDbLine
 10
-20.99084401710206
 20
-108.2582685035181
 30
0.0
 11
-7.381616498461881
 21
-106.432234940578
 31
0.0
  0
LINE
  5
13D
330
133
100
AcDbEntity
  8
データ 001
  6
Continuous
 62
     1
370
    13
100
AcDbLine
 10
-7.381616498461881
 20
-106.4322349405781
 30
0.0
 11
5.511067952014855
 21
-103.6323713908426
 31
0.0
  0
LINE
  5
13E
330
133
100
AcDbEntity
  8
データ 001
  6
Continuous
 62
     1
370
    13
100
AcDbLine
 10
5.511067952014855
 20
-103.6323713908427
 30
0.0
 11
17.584846038877
 21
-99.71955928476967
 31
0.0
  0
LINE
  5
13F
330
133
100
AcDbEntity
  8
データ 001
  6
Continuous
 62
     1
370
    13
100
AcDbLine
 10
17.584846038877
 20
-99.71955928476967
 30
0.0
 11
28.73735446667342
 21
-94.55468005281676
 31
0.0
  0
LINE
  5
140
330
133
100
AcDbEntity
  8
データ 001
  6
Continuous
 62
     1
370
    13
100
AcDbLine
 10
28.73735446667342
 20
-94.55468005281676
 30
0.0
 11
44.16772803106687
 21
-83.80490346637981
 31
0.0
  0
LINE
  5
141
330
133
100
AcDbEntity
  8
データ 001
  6
Continuous
 62
     1
370
    13
100
AcDbLine
 10
44.16772803106687
 20
-83.8049034663797
 30
0.0
 11
57.35347566612654
 21
-70.00453001250185
 31
0.0
  0
LINE
  5
142
330
133
100
AcDbEntity
  8
データ 001
  6
Continuous
 62
     1
370
    13
100
AcDbLine
 10
57.35347566612654
 20
-70.0045300125019
 30
0.0
 11
68.54400025289033
 21
-53.49251489867663
 31
0.0
  0
LINE
  5
143
330
133
100
AcDbEntity
  8
データ 001
  6
Continuous
 62
     1
370
    13
100
AcDbLine
 10
68.54400025289033
 20
-53.49251489867669
 30
0.0
 11
77.9887046723943
 21
-34.60781333239737
 31
0.0
  0
LINE
  5
144
330
133
100
AcDbEntity
  8
データ 001
  6
Continuous
 62
     1
370
    13
100
AcDbLine
 10
77.9887046723943
 20
-34.60781333239737
 30
0.0
 11
85.93699180567819
 21
-13.68938052115743
 31
0.0
  0
LINE
  5
145
330
133
100
AcDbEntity
  8
データ 001
  6
Continuous
 62
     1
370
    13
100
AcDbLine
 10
85.93699180567819
 20
-13.68938052115737
 30
0.0
 11
92.63826453377442
 21
8.923828327549643
 31
0.0
  0
LINE
  5
146
330
133
100
AcDbEntity
  8
データ 001
  6
Continuous
 62
     1
370
    13
100
AcDbLine
 10
92.63826453377442
 20
8.923828327549643
 30
0.0
 11
98.3419257377227
 21
32.89285800623043
 31
0.0
  0
LINE
  5
147
330
133
100
AcDbEntity
  8
データ 001
  6
Continuous
 62
     1
370
    13
100
AcDbLine
 10
98.3419257377227
 20
32.89285800623048
 30
0.0
 11
103.2973782985609
 21
57.87875330739158
 31
0.0
  0
LINE
  5
148
330
133
100
AcDbEntity
  8
データ 001
  6
Continuous
 62
     1
370
    13
100
AcDbLine
 10
103.2973782985628
 20
57.87875330739149
 30
0.0
 11
107.754025097327
 21
83.54255902353944
 31
0.0
  0
LINE
  5
149
330
133
100
AcDbEntity
  8
データ 001
  6
Continuous
 62
     1
370
    13
100
AcDbLine
 10
107.7540250973252
 20
83.54255902353947
 30
0.0
 11
111.9612690150516
 21
109.5453199471809
 31
0.0
  0
ENDBLK
  5
135
330
133
100
AcDbEntity
  8
0
100
AcDbBlockEnd
  0
BLOCK
  5
14C
330
14B
100
AcDbEntity
  8
0
100
AcDbBlockBegin
  2
FcPack%d10
 70
     0
 10
0.0
 20
0.0
 30
0.0
  3
FcPack%d10
  1
FcPack%d10
  0
LINE
  5
14E
330
14B
100
AcDbEntity
  8
データ 001
  6
Continuous
 62
     1
370
    13
100
AcDbLine
 10
40.0
 20
-15.0
 30
0.0
 11
-40.0
 21
-15.0
 31
0.0
  0
LINE
  5
14F
330
14B
100
AcDbEntity
  8
データ 001
  6
Continuous
 62
     1
370
    13
100
AcDbLine
 10
-40.0
 20
15.0
 30
0.0
 11
40.0
 21
15.0
 31
0.0
  0
ARC
  5
150
330
14B
100
AcDbEntity
  8
データ 001
  6
Continuous
 62
     1
370
    13
100
AcDbCircle
 10
-40.0
 20
0.0
 30
0.0
 40
15.0
100
AcDbArc
 50
90.0
 51
270.0
  0
ARC
  5
151
330
14B
100
AcDbEntity
  8
データ 001
  6
Continuous
 62
     1
370
    13
100
AcDbCircle
 10
40.0
 20
0.0
 30
0.0
 40
15.0
100
AcDbArc
 50
270.0
 51
90.0
  0
ENDBLK
  5
14D
330
14B
100
AcDbEntity
  8
0
100
AcDbBlockEnd
  0
BLOCK
  5
154
330
153
100
AcDbEntity
  8
0
100
AcDbBlockBegin
  2
FcPack%d11
 70
     0
 10
0.0
 20
0.0
 30
0.0
  3
FcPack%d11
  1
FcPack%d11
  0
LINE
  5
156
330
153
100
AcDbEntity
  8
データ 001
  6
Continuous
 62
     1
370
    13
100
AcDbLine
 10
-6.200000000000728
 20
23.70000000000005
 30
0.0
 11
-6.200000000000728
 21
-23.70000000000005
 31
0.0
  0
LINE
  5
157
330
153
100
AcDbEntity
  8
データ 001
  6
Continuous
 62
     1
370
    13
100
AcDbLine
 10
-6.200000000000728
 20
-23.70000000000005
 30
0.0
 11
6.199999999998909
 21
-23.70000000000005
 31
0.0
  0
LINE
  5
158
330
153
100
AcDbEntity
  8
データ 001
  6
Continuous
 62
     1
370
    13
100
AcDbLine
 10
6.200000000000728
 20
-23.70000000000005
 30
0.0
 11
6.200000000000728
 21
23.70000000000005
 31
0.0
  0
LINE
  5
159
330
153
100
AcDbEntity
  8
データ 001
  6
Continuous
 62
     1
370
    13
100
AcDbLine
 10
6.200000000000728
 20
23.70000000000005
 30
0.0
 11
-6.199999999998909
 21
23.70000000000005
 31
0.0
  0
ENDBLK
  5
155
330
153
100
AcDbEntity
  8
0
100
AcDbBlockEnd
  0
ENDSEC
  0
SECTION
  2
ENTITIES
  0
INSERT
  5
77
330
1F
100
AcDbEntity
  8
データ 001
  6
Continuous
 62
     1
370
    13
100
AcDbBlockReference
  2
FcPack%d0
 10
9773.478551451557
 20
-372.9306538002329
 30
0.0
  0
LINE
  5
78
330
1F
100
AcDbEntity
  8
データ 001
  6
Continuous
 62
     1
370
    13
100
AcDbLine
 10
9001.1725701535
 20
-4.770575183173378
 30
0.0
 11
9001.1725701535
 21
12.72942481682662
 31
0.0
  0
LINE
  5
79
330
1F
100
AcDbEntity
  8
データ 001
  6
Continuous
 62
     1
370
    13
100
AcDbLine
 10
8976.972570153499
 20
-4.770575183173378
 30
0.0
 11
8976.972570153499
 21
12.72942481682662
 31
0.0
  0
LINE
  5
7A
330
1F
100
AcDbEntity
  8
データ 001
  6
Continuous
 62
     1
370
    13
100
AcDbLine
 10
8976.972570153499
 20
-4.770575183173378
 30
0.0
 11
9001.1725701535
 21
-4.770575183173378
 31
0.0
  0
INSERT
  5
82
330
1F
100
AcDbEntity
  8
データ 001
  6
Continuous
 62
     1
370
    13
100
AcDbBlockReference
  2
FcPack%d1
 10
9205.838160981195
 20
-465.4361249909789
 30
0.0
  0
INSERT
  5
8A
330
1F
100
AcDbEntity
  8
データ 001
  6
Continuous
 62
     1
370
    13
100
AcDbBlockReference
  2
FcPack%d2
 10
9230.232934266183
 20
-248.3705751831715
 30
0.0
  0
INSERT
  5
A2
330
1F
100
AcDbEntity
  8
データ 001
  6
Continuous
 62
     1
370
    13
100
AcDbBlockReference
  2
FcPack%d3
 10
9206.408869155524
 20
-96.81589513035425
 30
0.0
  0
ARC
  5
A3
330
1F
100
AcDbEntity
  8
データ 001
  6
Continuous
 62
     1
370
    13
100
AcDbCircle
 10
9187.970481458968
 20
-737.0714957234557
 30
0.0
 40
67.67275376727767
100
AcDbArc
 50
314.5827348517241
 51
225.4172651482759
  0
INSERT
  5
BB
330
1F
100
AcDbEntity
  8
データ 001
  6
Continuous
 62
     1
370
    13
100
AcDbBlockReference
  2
FcPack%d4
 10
9341.158447649934
 20
-494.3205751831731
 30
0.0
  0
INSERT
  5
D3
330
1F
100
AcDbEntity
  8
データ 001
  6
Continuous
 62
     1
370
    13
100
AcDbBlockReference
  2
FcPack%d5
 10
9012.38017596634
 20
-386.2705751831733
 30
0.0
  0
LINE
  5
D4
330
1F
100
AcDbEntity
  8
データ 001
  6
Continuous
 62
     1
370
    13
100
AcDbLine
 10
9140.468372645964
 20
-785.2705751831734
 30
0.0
 11
8983.697540166526
 21
-785.2705751831734
 31
0.0
  0
LINE
  5
D5
330
1F
100
AcDbEntity
  8
データ 001
  6
Continuous
 62
     1
370
    13
100
AcDbLine
 10
9094.447600140473
 20
12.72942481682662
 30
0.0
 11
9001.1725701535
 21
12.72942481682662
 31
0.0
  0
LINE
  5
D6
330
1F
100
AcDbEntity
  8
データ 001
  6
Continuous
 62
     1
370
    13
100
AcDbLine
 10
9425.049905897959
 20
-203.3705751831728
 30
0.0
 11
9318.370138170576
 21
-203.3705751831724
 31
0.0
  0
LINE
  5
D7
330
1F
100
AcDbEntity
  8
データ 001
  6
Continuous
 62
     1
370
    13
100
AcDbLine
 10
8976.972570153499
 20
12.72942481682662
 30
0.0
 11
8883.697540166526
 21
12.72942481682674
 31
0.0
  0
LINE
  5
D8
330
1F
100
AcDbEntity
  8
データ 001
  6
Continuous
 62
     1
370
    13
100
AcDbLine
 10
9235.472590271971
 20
-785.2705751831734
 30
0.0
 11
9403.697540166524
 21
-785.2705751831734
 31
0.0
  0
ARC
  5
D9
330
1F
100
AcDbEntity
  8
データ 001
  6
Continuous
 62
     1
370
    13
100
AcDbCircle
 10
10069.87757346555
 20
-318.0773517007793
 30
0.0
 40
30.0
100
AcDbArc
 50
270.0
 51
0.0
  0
ARC
  5
DA
330
1F
100
AcDbEntity
  8
データ 001
  6
Continuous
 62
     1
370
    13
100
AcDbCircle
 10
10069.87757346555
 20
-28.07735170077933
 30
0.0
 40
30.0
100
AcDbArc
 50
0.0
 51
90.0
  0
LINE
  5
DB
330
1F
100
AcDbEntity
  8
データ 001
  6
Continuous
 62
     1
370
    13
100
AcDbLine
 10
10099.87757346555
 20
-318.0773517007793
 30
0.0
 11
10099.87757346555
 21
-28.07735170077933
 31
0.0
  0
LINE
  5
DC
330
1F
100
AcDbEntity
  8
データ 001
  6
Continuous
 62
     1
370
    13
100
AcDbLine
 10
9479.877573465554
 20
-348.0773517007793
 30
0.0
 11
10069.87757346555
 21
-348.0773517007796
 31
0.0
  0
ARC
  5
DD
330
1F
100
AcDbEntity
  8
データ 001
  6
Continuous
 62
     1
370
    13
100
AcDbCircle
 10
9479.877573465554
 20
-318.0773517007793
 30
0.0
 40
30.0
100
AcDbArc
 50
180.0
 51
270.0
  0
ARC
  5
DE
330
1F
100
AcDbEntity
  8
データ 001
  6
Continuous
 62
     1
370
    13
100
AcDbCircle
 10
9479.877573465554
 20
-28.07735170077933
 30
0.0
 40
30.0
100
AcDbArc
 50
90.0
 51
180.0
  0
LINE
  5
DF
330
1F
100
AcDbEntity
  8
データ 001
  6
Continuous
 62
     1
370
    13
100
AcDbLine
 10
9449.877573465554
 20
-28.0773517007791
 30
0.0
 11
9449.877573465554
 21
-318.0773517007791
 31
0.0
  0
LINE
  5
E0
330
1F
100
AcDbEntity
  8
データ 001
  6
Continuous
 62
     1
370
    13
100
AcDbLine
 10
10069.87757346555
 20
1.922648299220668
 30
0.0
 11
9479.877573465554
 21
1.922648299220885
 31
0.0
  0
LINE
  5
E1
330
1F
100
AcDbEntity
  8
データ 001
  6
Continuous
 62
     1
370
    13
100
AcDbLine
 10
9694.07952943756
 20
-576.0589858866595
 30
0.0
 11
9719.07952943756
 21
-576.0589858866595
 31
0.0
  0
LINE
  5
E2
330
1F
100
AcDbEntity
  8
データ 001
  6
Continuous
 62
     1
370
    13
100
AcDbLine
 10
9719.07952943756
 20
-600.2589858866602
 30
0.0
 11
9719.07952943756
 21
-576.0589858866595
 31
0.0
  0
LINE
  5
E3
330
1F
100
AcDbEntity
  8
データ 001
  6
Continuous
 62
     1
370
    13
100
AcDbLine
 10
9693.97952943756
 20
-600.3589858866605
 30
0.0
 11
9719.17952943756
 21
-600.3589858866605
 31
0.0
  0
LINE
  5
E4
330
1F
100
AcDbEntity
  8
データ 001
  6
Continuous
 62
     1
370
    13
100
AcDbLine
 10
9693.97952943756
 20
-600.3589858866605
 30
0.0
 11
9693.97952943756
 21
-575.9589858866591
 31
0.0
  0
LINE
  5
E5
330
1F
100
AcDbEntity
  8
データ 001
  6
Continuous
 62
     1
370
    13
100
AcDbLine
 10
9693.97952943756
 20
-575.9589858866591
 30
0.0
 11
9719.17952943756
 21
-575.9589858866591
 31
0.0
  0
LINE
  5
E6
330
1F
100
AcDbEntity
  8
データ 001
  6
Continuous
 62
     1
370
    13
100
AcDbLine
 10
9719.17952943756
 20
-600.3589858866605
 30
0.0
 11
9719.17952943756
 21
-575.9589858866591
 31
0.0
  0
LINE
  5
E7
330
1F
100
AcDbEntity
  8
データ 001
  6
Continuous
 62
     1
370
    13
100
AcDbLine
 10
9824.97952943756
 20
-600.3589858866605
 30
0.0
 11
9824.97952943756
 21
-575.9589858866591
 31
0.0
  0
LINE
  5
E8
330
1F
100
AcDbEntity
  8
データ 001
  6
Continuous
 62
     1
370
    13
100
AcDbLine
 10
9850.17952943756
 20
-575.9589858866591
 30
0.0
 11
9824.97952943756
 21
-575.9589858866591
 31
0.0
  0
LINE
  5
E9
330
1F
100
AcDbEntity
  8
データ 001
  6
Continuous
 62
     1
370
    13
100
AcDbLine
 10
9850.17952943756
 20
-600.3589858866605
 30
0.0
 11
9850.17952943756
 21
-575.9589858866591
 31
0.0
  0
LINE
  5
EA
330
1F
100
AcDbEntity
  8
データ 001
  6
Continuous
 62
     1
370
    13
100
AcDbLine
 10
9850.17952943756
 20
-600.3589858866605
 30
0.0
 11
9824.97952943756
 21
-600.3589858866605
 31
0.0
  0
LINE
  5
EB
330
1F
100
AcDbEntity
  8
データ 001
  6
Continuous
 62
     1
370
    13
100
AcDbLine
 10
9825.07952943756
 20
-600.2589858866602
 30
0.0
 11
9825.07952943756
 21
-576.0589858866595
 31
0.0
  0
LINE
  5
EC
330
1F
100
AcDbEntity
  8
データ 001
  6
Continuous
 62
     1
370
    13
100
AcDbLine
 10
9850.07952943756
 20
-576.0589858866595
 30
0.0
 11
9825.07952943756
 21
-576.0589858866595
 31
0.0
  0
INSERT
  5
F4
330
1F
100
AcDbEntity
  8
データ 001
  6
Continuous
 62
     1
370
    13
100
AcDbBlockReference
  2
FcPack%d6
 10
9772.07952943756
 20
-588.1589858866598
 30
0.0
  0
ARC
  5
F5
330
1F
100
AcDbEntity
  8
データ 001
  6
Continuous
 62
     1
370
    13
100
AcDbCircle
 10
10067.07952943756
 20
-737.7839558996864
 30
0.0
 40
30.0
100
AcDbArc
 50
270.0
 51
0.0
  0
ARC
  5
F6
330
1F
100
AcDbEntity
  8
データ 001
  6
Continuous
 62
     1
370
    13
100
AcDbCircle
 10
10067.07952943756
 20
-447.7839558996865
 30
0.0
 40
30.0
100
AcDbArc
 50
0.0
 51
90.0
  0
LINE
  5
F7
330
1F
100
AcDbEntity
  8
データ 001
  6
Continuous
 62
     1
370
    13
100
AcDbLine
 10
10097.07952943756
 20
-737.7839558996864
 30
0.0
 11
10097.07952943756
 21
-447.7839558996864
 31
0.0
  0
LINE
  5
F8
330
1F
100
AcDbEntity
  8
データ 001
  6
Continuous
 62
     1
370
    13
100
AcDbLine
 10
9477.07952943756
 20
-767.7839558996864
 30
0.0
 11
10067.07952943756
 21
-767.7839558996866
 31
0.0
  0
ARC
  5
F9
330
1F
100
AcDbEntity
  8
データ 001
  6
Continuous
 62
     1
370
    13
100
AcDbCircle
 10
9477.07952943756
 20
-737.7839558996864
 30
0.0
 40
30.0
100
AcDbArc
 50
180.0
 51
270.0
  0
ARC
  5
FA
330
1F
100
AcDbEntity
  8
データ 001
  6
Continuous
 62
     1
370
    13
100
AcDbCircle
 10
9477.07952943756
 20
-447.7839558996865
 30
0.0
 40
30.0
100
AcDbArc
 50
90.0
 51
180.0
  0
LINE
  5
FB
330
1F
100
AcDbEntity
  8
データ 001
  6
Continuous
 62
     1
370
    13
100
AcDbLine
 10
9447.07952943756
 20
-447.7839558996865
 30
0.0
 11
9447.07952943756
 21
-737.7839558996865
 31
0.0
  0
LINE
  5
FC
330
1F
100
AcDbEntity
  8
データ 001
  6
Continuous
 62
     1
370
    13
100
AcDbLine
 10
10067.07952943756
 20
-417.7839558996862
 30
0.0
 11
9477.07952943756
 21
-417.783955899686
 31
0.0
  0
LINE
  5
FD
330
1F
100
AcDbEntity
  8
データ 001
  6
Continuous
 62
     1
370
    13
100
AcDbLine
 10
10311.48451263114
 20
-785.2705751831734
 30
0.0
 11
10143.25956273659
 21
-785.2705751831734
 31
0.0
  0
LINE
  5
FE
330
1F
100
AcDbEntity
  8
データ 001
  6
Continuous
 62
     1
370
    13
100
AcDbLine
 10
10569.98453274962
 20
12.72942481682662
 30
0.0
 11
10663.25956273659
 21
12.72942481682674
 31
0.0
  0
LINE
  5
FF
330
1F
100
AcDbEntity
  8
データ 001
  6
Continuous
 62
     1
370
    13
100
AcDbLine
 10
10121.90719700516
 20
-203.3705751831728
 30
0.0
 11
10228.58696473254
 21
-203.3705751831724
 31
0.0
  0
LINE
  5
100
330
1F
100
AcDbEntity
  8
データ 001
  6
Continuous
 62
     1
370
    13
100
AcDbLine
 10
10452.50950276264
 20
12.72942481682662
 30
0.0
 11
10545.78453274961
 21
12.72942481682662
 31
0.0
  0
LINE
  5
101
330
1F
100
AcDbEntity
  8
データ 001
  6
Continuous
 62
     1
370
    13
100
AcDbLine
 10
10406.48873025715
 20
-785.2705751831734
 30
0.0
 11
10563.25956273659
 21
-785.2705751831734
 31
0.0
  0
INSERT
  5
119
330
1F
100
AcDbEntity
  8
データ 001
  6
Continuous
 62
     1
370
    13
100
AcDbBlockReference
  2
FcPack%d7
 10
10534.57692693677
 20
-386.2705751831733
 30
0.0
  0
INSERT
  5
131
330
1F
100
AcDbEntity
  8
データ 001
  6
Continuous
 62
     1
370
    13
100
AcDbBlockReference
  2
FcPack%d8
 10
10205.79865525318
 20
-494.3205751831731
 30
0.0
  0
ARC
  5
132
330
1F
100
AcDbEntity
  8
データ 001
  6
Continuous
 62
     1
370
    13
100
AcDbCircle
 10
10358.98662144415
 20
-737.0714957234557
 30
0.0
 40
67.67275376727767
100
AcDbArc
 50
314.5827348517241
 51
225.4172651482759
  0
INSERT
  5
14A
330
1F
100
AcDbEntity
  8
データ 001
  6
Continuous
 62
     1
370
    13
100
AcDbBlockReference
  2
FcPack%d9
 10
10340.54823374759
 20
-96.81589513035425
 30
0.0
  0
INSERT
  5
152
330
1F
100
AcDbEntity
  8
データ 001
  6
Continuous
 62
     1
370
    13
100
AcDbBlockReference
  2
FcPack%d10
 10
10316.72416863693
 20
-248.3705751831715
 30
0.0
  0
INSERT
  5
15A
330
1F
100
AcDbEntity
  8
データ 001
  6
Continuous
 62
     1
370
    13
100
AcDbBlockReference
  2
FcPack%d11
 10
10341.11894192192
 20
-465.4361249909789
 30
0.0
  0
LINE
  5
15B
330
1F
100
AcDbEntity
  8
データ 001
  6
Continuous
 62
     1
370
    13
100
AcDbLine
 10
10569.98453274962
 20
-4.770575183173378
 30
0.0
 11
10545.78453274961
 21
-4.770575183173378
 31
0.0
  0
LINE
  5
15C
330
1F
100
AcDbEntity
  8
データ 001
  6
Continuous
 62
     1
370
    13
100
AcDbLine
 10
10569.98453274962
 20
-4.770575183173378
 30
0.0
 11
10569.98453274962
 21
12.72942481682662
 31
0.0
  0
LINE
  5
15D
330
1F
100
AcDbEntity
  8
データ 001
  6
Continuous
 62
     1
370
    13
100
AcDbLine
 10
10545.78453274961
 20
-4.770575183173378
 30
0.0
 11
10545.78453274961
 21
12.72942481682662
 31
0.0
  0
ENDSEC
  0
SECTION
  2
OBJECTS
  0
DICTIONARY
  5
C
330
0
100
AcDbDictionary
281
     1
  3
ACAD_DETAILVIEWSTYLE
350
165
  3
ACAD_GROUP
350
D
  3
ACAD_LAYOUT
350
1A
  3
ACAD_MATERIAL
350
43
  3
ACAD_MLEADERSTYLE
350
6B
  3
ACAD_MLINESTYLE
350
17
  3
ACAD_PLOTSETTINGS
350
19
  3
ACAD_PLOTSTYLENAME
350
E
  3
ACAD_SCALELIST
350
47
  3
ACAD_SECTIONVIEWSTYLE
350
166
  3
ACAD_TABLESTYLE
350
69
  3
ACAD_VISUALSTYLE
350
2A
  3
ACDB_RECOMPOSE_DATA
350
162
  3
AcDbVariableDictionary
350
15E
  0
SUN
  5
6D
330
29
100
AcDbSun
 90
        1
290
     0
 63
     7
421
 16777215
 40
1.0
291
     1
 91
  2455826
 92
 54000000
292
     0
 70
     2
 71
   256
280
     1
  0
DICTIONARY
  5
165
102
{ACAD_REACTORS
330
C
102
}
330
C
100
AcDbDictionary
281
     1
  0
DICTIONARY
  5
D
102
{ACAD_REACTORS
330
C
102
}
330
C
100
AcDbDictionary
281
     1
  0
DICTIONARY
  5
1A
102
{ACAD_REACTORS
330
C
102
}
330
C
100
AcDbDictionary
281
     1
  3
Layout1
350
1E
  3
Layout2
350
26
  3
Model
350
22
  0
DICTIONARY
  5
43
102
{ACAD_REACTORS
330
C
102
}
330
C
100
AcDbDictionary
281
     1
  3
ByBlock
350
45
  3
ByLayer
350
44
  3
Global
350
46
  0
DICTIONARY
  5
6B
102
{ACAD_REACTORS
330
C
102
}
330
C
100
AcDbDictionary
281
     1
  3
Standard
350
6C
  0
DICTIONARY
  5
17
102
{ACAD_REACTORS
330
C
102
}
330
C
100
AcDbDictionary
281
     1
  3
Standard
350
18
  0
DICTIONARY
  5
19
102
{ACAD_REACTORS
330
C
102
}
330
C
100
AcDbDictionary
281
     1
  0
ACDBDICTIONARYWDFLT
  5
E
102
{ACAD_REACTORS
330
C
102
}
330
C
100
AcDbDictionary
281
     1
  3
Normal
350
F
100
AcDbDictionaryWithDefault
340
F
  0
DICTIONARY
  5
47
102
{ACAD_REACTORS
330
C
102
}
330
C
100
AcDbDictionary
281
     1
  3
A0
350
48
  3
A1
350
49
  3
A2
350
4A
  3
A3
350
4B
  3
A4
350
4C
  3
A5
350
4D
  3
A6
350
4E
  3
A7
350
4F
  3
A8
350
50
  3
A9
350
51
  3
B0
350
52
  3
B1
350
53
  3
B2
350
54
  3
B3
350
55
  3
B4
350
56
  3
B5
350
57
  3
B6
350
58
  3
B7
350
59
  3
B8
350
5A
  3
B9
350
5B
  3
C0
350
5C
  3
C1
350
5D
  3
C2
350
5E
  3
C3
350
5F
  3
C4
350
60
  3
C5
350
61
  3
C6
350
62
  3
C7
350
63
  3
C8
350
64
  3
C9
350
65
  3
D0
350
66
  3
D1
350
67
  3
D2
350
68
  0
DICTIONARY
  5
166
102
{ACAD_REACTORS
330
C
102
}
330
C
100
AcDbDictionary
281
     1
  0
DICTIONARY
  5
69
102
{ACAD_REACTORS
330
C
102
}
330
C
100
AcDbDictionary
281
     1
  3
Standard
350
6A
  0
DICTIONARY
  5
2A
102
{ACAD_REACTORS
330
C
102
}
330
C
100
AcDbDictionary
281
     1
  3
2dWireframe
350
2F
  3
Basic
350
32
  3
Brighten
350
36
  3
ColorChange
350
3A
  3
Conceptual
350
34
  3
Dim
350
35
  3
EdgeColorOff
350
3D
  3
Facepattern
350
39
  3
Flat
350
2B
  3
FlatWithEdges
350
2C
  3
Gouraud
350
2D
  3
GouraudWithEdges
350
2E
  3
Hidden
350
31
  3
JitterOff
350
3B
  3
Linepattern
350
38
  3
OverhangOff
350
3C
  3
Realistic
350
33
  3
Shaded
350
42
  3
Shaded with edges
350
41
  3
Shades of Gray
350
3E
  3
Sketchy
350
3F
  3
Thicken
350
37
  3
Wireframe
350
30
  3
X-Ray
350
40
  0
XRECORD
  5
162
102
{ACAD_REACTORS
330
C
102
}
330
C
100
AcDbXrecord
280
     1
 90
        1
330
6A
  0
DICTIONARY
  5
15E
102
{ACAD_REACTORS
330
C
102
}
330
C
100
AcDbDictionary
281
     1
  3
CANNOSCALE
350
15F
  3
CMLEADERSTYLE
350
164
  3
CTABLESTYLE
350
163
  0
LAYOUT
  5
1E
102
{ACAD_REACTORS
330
1A
102
}
330
1A
100
AcDbPlotSettings
  1

  2
none_device
  4

  6

 40
0.0
 41
0.0
 42
0.0
 43
0.0
 44
0.0
 45
0.0
 46
0.0
 47
0.0
 48
0.0
 49
0.0
140
0.0
141
0.0
142
1.0
143
1.0
 70
   688
 72
     0
 73
     0
 74
     5
  7

 75
    16
 76
     0
 77
     2
 78
   300
147
1.0
148
0.0
149
0.0
100
AcDbLayout
  1
Layout1
 70
     1
 71
     1
 10
0.0
 20
0.0
 11
12.0
 21
9.0
 12
0.0
 22
0.0
 32
0.0
 14
1.000000000000000E+20
 24
1.000000000000000E+20
 34
1.000000000000000E+20
 15
-1.000000000000000E+20
 25
-1.000000000000000E+20
 35
-1.000000000000000E+20
146
0.0
 13
0.0
 23
0.0
 33
0.0
 16
1.0
 26
0.0
 36
0.0
 17
0.0
 27
1.0
 37
0.0
 76
     0
330
1B
  0
LAYOUT
  5
26
102
{ACAD_REACTORS
330
1A
102
}
330
1A
100
AcDbPlotSettings
  1

  2
none_device
  4

  6

 40
0.0
 41
0.0
 42
0.0
 43
0.0
 44
0.0
 45
0.0
 46
0.0
 47
0.0
 48
0.0
 49
0.0
140
0.0
141
0.0
142
1.0
143
1.0
 70
   688
 72
     0
 73
     0
 74
     5
  7

 75
    16
 76
     0
 77
     2
 78
   300
147
1.0
148
0.0
149
0.0
100
AcDbLayout
  1
Layout2
 70
     1
 71
     2
 10
0.0
 20
0.0
 11
0.0
 21
0.0
 12
0.0
 22
0.0
 32
0.0
 14
0.0
 24
0.0
 34
0.0
 15
0.0
 25
0.0
 35
0.0
146
0.0
 13
0.0
 23
0.0
 33
0.0
 16
1.0
 26
0.0
 36
0.0
 17
0.0
 27
1.0
 37
0.0
 76
     0
330
23
  0
LAYOUT
  5
22
102
{ACAD_REACTORS
330
1A
102
}
330
1A
100
AcDbPlotSettings
  1

  2
none_device
  4
Letter_(8.50_x_11.00_Inches)
  6

 40
6.35
 41
6.35
 42
6.35000508
 43
6.35000508
 44
215.9
 45
279.4
 46
0.0
 47
0.0
 48
0.0
 49
0.0
140
0.0
141
0.0
142
1.0
143
1.0
 70
  1712
 72
     0
 73
     0
 74
     0
  7

 75
     0
 76
     0
 77
     2
 78
   300
147
1.0
148
0.0
149
0.0
100
AcDbLayout
  1
Model
 70
     1
 71
     0
 10
8863.478551451557
 20
-827.9306538002329
 11
10683.47855145156
 21
82.0693461997671
 12
0.0
 22
0.0
 32
0.0
 14
8863.478551451557
 24
-827.9306538002329
 34
0.0
 15
10683.47855145156
 25
82.0693461997671
 35
0.0
146
0.0
 13
0.0
 23
0.0
 33
0.0
 16
1.0
 26
0.0
 36
0.0
 17
0.0
 27
1.0
 37
0.0
 76
     0
330
1F
331
29
  0
MATERIAL
  5
45
102
{ACAD_REACTORS
330
43
102
}
330
43
100
AcDbMaterial
  1
ByBlock
 72
     1
 94
      127
  0
MATERIAL
  5
44
102
{ACAD_REACTORS
330
43
102
}
330
43
100
AcDbMaterial
  1
ByLayer
 72
     1
 94
      127
  0
MATERIAL
  5
46
102
{ACAD_REACTORS
330
43
102
}
330
43
100
AcDbMaterial
  1
Global
 72
     1
 94
      127
  0
MLEADERSTYLE
  5
6C
102
{ACAD_REACTORS
330
6B
102
}
330
6B
100
AcDbMLeaderStyle
179
     2
170
     2
171
     1
172
     0
 90
        2
 40
0.0
 41
0.0
173
     1
 91
-1056964608
340
14
 92
       -2
290
     1
 42
0.09
291
     1
 43
0.36
  3
Standard
341
0
 44
0.18
300

342
11
174
     1
178
     6
175
     1
176
     0
 93
-1056964608
 45
0.18
292
     0
297
     0
 46
0.18
343
0
 94
-1056964608
 47
1.0
 49
1.0
140
1.0
293
     1
141
0.0
294
     1
177
     0
142
1.0
295
     0
296
     0
143
0.125
271
     0
272
     9
273
     9
298
     0
  0
MLINESTYLE
  5
18
102
{ACAD_REACTORS
330
17
102
}
330
17
100
AcDbMlineStyle
  2
Standard
 70
     0
  3

 62
   256
 51
90.0
 52
90.0
 71
     2
 49
0.5
 62
   256
  6
BYLAYER
 49
-0.5
 62
   256
  6
BYLAYER
  0
ACDBPLACEHOLDER
  5
F
102
{ACAD_REACTORS
330
E
102
}
330
E
  0
SCALE
  5
48
102
{ACAD_REACTORS
330
47
102
}
330
47
100
AcDbScale
 70
     0
300
1:1
140
1.0
141
1.0
290
     1
  0
SCALE
  5
49
102
{ACAD_REACTORS
330
47
102
}
330
47
100
AcDbScale
 70
     0
300
1:2
140
1.0
141
2.0
290
     0
  0
SCALE
  5
4A
102
{ACAD_REACTORS
330
47
102
}
330
47
100
AcDbScale
 70
     0
300
1:4
140
1.0
141
4.0
290
     0
  0
SCALE
  5
4B
102
{ACAD_REACTORS
330
47
102
}
330
47
100
AcDbScale
 70
     0
300
1:5
140
1.0
141
5.0
290
     0
  0
SCALE
  5
4C
102
{ACAD_REACTORS
330
47
102
}
330
47
100
AcDbScale
 70
     0
300
1:8
140
1.0
141
8.0
290
     0
  0
SCALE
  5
4D
102
{ACAD_REACTORS
330
47
102
}
330
47
100
AcDbScale
 70
     0
300
1:10
140
1.0
141
10.0
290
     0
  0
SCALE
  5
4E
102
{ACAD_REACTORS
330
47
102
}
330
47
100
AcDbScale
 70
     0
300
1:16
140
1.0
141
16.0
290
     0
  0
SCALE
  5
4F
102
{ACAD_REACTORS
330
47
102
}
330
47
100
AcDbScale
 70
     0
300
1:20
140
1.0
141
20.0
290
     0
  0
SCALE
  5
50
102
{ACAD_REACTORS
330
47
102
}
330
47
100
AcDbScale
 70
     0
300
1:30
140
1.0
141
30.0
290
     0
  0
SCALE
  5
51
102
{ACAD_REACTORS
330
47
102
}
330
47
100
AcDbScale
 70
     0
300
1:40
140
1.0
141
40.0
290
     0
  0
SCALE
  5
52
102
{ACAD_REACTORS
330
47
102
}
330
47
100
AcDbScale
 70
     0
300
1:50
140
1.0
141
50.0
290
     0
  0
SCALE
  5
53
102
{ACAD_REACTORS
330
47
102
}
330
47
100
AcDbScale
 70
     0
300
1:100
140
1.0
141
100.0
290
     0
  0
SCALE
  5
54
102
{ACAD_REACTORS
330
47
102
}
330
47
100
AcDbScale
 70
     0
300
2:1
140
2.0
141
1.0
290
     0
  0
SCALE
  5
55
102
{ACAD_REACTORS
330
47
102
}
330
47
100
AcDbScale
 70
     0
300
4:1
140
4.0
141
1.0
290
     0
  0
SCALE
  5
56
102
{ACAD_REACTORS
330
47
102
}
330
47
100
AcDbScale
 70
     0
300
8:1
140
8.0
141
1.0
290
     0
  0
SCALE
  5
57
102
{ACAD_REACTORS
330
47
102
}
330
47
100
AcDbScale
 70
     0
300
10:1
140
10.0
141
1.0
290
     0
  0
SCALE
  5
58
102
{ACAD_REACTORS
330
47
102
}
330
47
100
AcDbScale
 70
     0
300
100:1
140
100.0
141
1.0
290
     0
  0
SCALE
  5
59
102
{ACAD_REACTORS
330
47
102
}
330
47
100
AcDbScale
 70
     0
300
1/128" = 1'-0"
140
0.0078125
141
12.0
290
     0
  0
SCALE
  5
5A
102
{ACAD_REACTORS
330
47
102
}
330
47
100
AcDbScale
 70
     0
300
1/64" = 1'-0"
140
0.015625
141
12.0
290
     0
  0
SCALE
  5
5B
102
{ACAD_REACTORS
330
47
102
}
330
47
100
AcDbScale
 70
     0
300
1/32" = 1'-0"
140
0.03125
141
12.0
290
     0
  0
SCALE
  5
5C
102
{ACAD_REACTORS
330
47
102
}
330
47
100
AcDbScale
 70
     0
300
1/16" = 1'-0"
140
0.0625
141
12.0
290
     0
  0
SCALE
  5
5D
102
{ACAD_REACTORS
330
47
102
}
330
47
100
AcDbScale
 70
     0
300
3/32" = 1'-0"
140
0.09375
141
12.0
290
     0
  0
SCALE
  5
5E
102
{ACAD_REACTORS
330
47
102
}
330
47
100
AcDbScale
 70
     0
300
1/8" = 1'-0"
140
0.125
141
12.0
290
     0
  0
SCALE
  5
5F
102
{ACAD_REACTORS
330
47
102
}
330
47
100
AcDbScale
 70
     0
300
3/16" = 1'-0"
140
0.1875
141
12.0
290
     0
  0
SCALE
  5
60
102
{ACAD_REACTORS
330
47
102
}
330
47
100
AcDbScale
 70
     0
300
1/4" = 1'-0"
140
0.25
141
12.0
290
     0
  0
SCALE
  5
61
102
{ACAD_REACTORS
330
47
102
}
330
47
100
AcDbScale
 70
     0
300
3/8" = 1'-0"
140
0.375
141
12.0
290
     0
  0
SCALE
  5
62
102
{ACAD_REACTORS
330
47
102
}
330
47
100
AcDbScale
 70
     0
300
1/2" = 1'-0"
140
0.5
141
12.0
290
     0
  0
SCALE
  5
63
102
{ACAD_REACTORS
330
47
102
}
330
47
100
AcDbScale
 70
     0
300
3/4" = 1'-0"
140
0.75
141
12.0
290
     0
  0
SCALE
  5
64
102
{ACAD_REACTORS
330
47
102
}
330
47
100
AcDbScale
 70
     0
300
1" = 1'-0"
140
1.0
141
12.0
290
     0
  0
SCALE
  5
65
102
{ACAD_REACTORS
330
47
102
}
330
47
100
AcDbScale
 70
     0
300
1-1/2" = 1'-0"
140
1.5
141
12.0
290
     0
  0
SCALE
  5
66
102
{ACAD_REACTORS
330
47
102
}
330
47
100
AcDbScale
 70
     0
300
3" = 1'-0"
140
3.0
141
12.0
290
     0
  0
SCALE
  5
67
102
{ACAD_REACTORS
330
47
102
}
330
47
100
AcDbScale
 70
     0
300
6" = 1'-0"
140
6.0
141
12.0
290
     0
  0
SCALE
  5
68
102
{ACAD_REACTORS
330
47
102
}
330
47
100
AcDbScale
 70
     0
300
1'-0" = 1'-0"
140
12.0
141
12.0
290
     0
  0
TABLESTYLE
  5
6A
102
{ACAD_REACTORS
330
69
102
}
102
{ACAD_XDICTIONARY
360
160
102
}
330
69
100
AcDbTableStyle
  3
Standard
 70
     0
 71
     0
 40
0.06
 41
0.06
280
     0
281
     0
  7
Standard
140
0.18
170
     2
 62
     0
 63
   257
283
     0
 90
        4
 91
        0
  1

274
    -2
284
     1
 64
     0
275
    -2
285
     1
 65
     0
276
    -2
286
     1
 66
     0
277
    -2
287
     1
 67
     0
278
    -2
288
     1
 68
     0
279
    -2
289
     1
 69
     0
  7
Standard
140
0.25
170
     5
 62
     0
 63
   257
283
     0
 90
        4
 91
        0
  1

274
    -2
284
     1
 64
     0
275
    -2
285
     1
 65
     0
276
    -2
286
     1
 66
     0
277
    -2
287
     1
 67
     0
278
    -2
288
     1
 68
     0
279
    -2
289
     1
 69
     0
  7
Standard
140
0.18
170
     5
 62
     0
 63
   257
283
     0
 90
        4
 91
        0
  1

274
    -2
284
     1
 64
     0
275
    -2
285
     1
 65
     0
276
    -2
286
     1
 66
     0
277
    -2
287
     1
 67
     0
278
    -2
288
     1
 68
     0
279
    -2
289
     1
 69
     0
  0
VISUALSTYLE
  5
2F
102
{ACAD_REACTORS
330
2A
102
}
330
2A
100
AcDbVisualStyle
  2
2dWireframe
 70
     4
177
     3
291
     0
 70
    58
 90
        0
176
     1
 90
        2
176
     1
 90
        0
176
     1
 90
        0
176
     1
 40
0.6
176
     1
 40
30.0
176
     1
 62
     7
420
 16777215
176
     1
 90
        1
176
     1
 90
        4
176
     1
 62
     7
176
     1
 62
   257
176
     1
 90
        1
176
     1
 90
        1
176
     1
 40
1.0
176
     1
 90
        0
176
     1
 62
   257
176
     1
 40
1.0
176
     1
 90
        1
176
     1
 90
        6
176
     1
 90
        2
176
     1
 62
     7
176
     1
 90
        5
176
     1
 90
        0
176
     1
 90
        0
176
     1
290
     0
176
     1
 90
        1
176
     1
 40
0.0
176
     1
 90
        0
176
     1
290
     1
176
     1
290
     1
176
     1
290
     0
176
     1
290
     0
176
     1
290
     0
176
     1
290
     0
176
     1
290
     0
176
     1
290
     0
176
     1
290
     0
176
     1
 90
       50
176
     1
 40
0.0
176
     1
 40
1.0
176
     1
 90
        0
176
     1
 62
    18
420
        0
176
     1
 90
       50
176
     1
 90
        3
176
     1
 62
     5
420
      255
176
     1
290
     0
176
     1
 90
       50
176
     1
 90
       50
176
     1
 90
       50
176
     1
290
     0
176
     1
 90
       50
176
     1
 62
   256
176
     0
 40
1.0
176
     0
 90
        2
176
     1
  1
strokes_ogs.tif
176
     1
290
     0
176
     1
 40
1.0
176
     1
 40
1.0
176
     1
  0
VISUALSTYLE
  5
32
102
{ACAD_REACTORS
330
2A
102
}
330
2A
100
AcDbVisualStyle
  2
Basic
 70
     7
177
     3
291
     1
 70
    58
 90
        1
176
     1
 90
        0
176
     1
 90
        1
176
     1
 90
        0
176
     1
 40
0.6
176
     1
 40
30.0
176
     1
 62
     7
420
 16777215
176
     1
 90
        0
176
     1
 90
        4
176
     1
 62
     7
176
     1
 62
   257
176
     1
 90
        1
176
     1
 90
        1
176
     1
 40
1.0
176
     1
 90
        8
176
     1
 62
     7
176
     1
 40
1.0
176
     1
 90
        1
176
     1
 90
        6
176
     1
 90
        2
176
     1
 62
     7
176
     1
 90
        5
176
     1
 90
        0
176
     1
 90
        0
176
     1
290
     0
176
     1
 90
        1
176
     1
 40
0.0
176
     1
 90
        0
176
     1
290
     0
176
     1
290
     1
176
     1
290
     1
176
     1
290
     0
176
     1
290
     0
176
     1
290
     0
176
     1
290
     0
176
     1
290
     0
176
     1
290
     0
176
     1
 90
       50
176
     1
 40
0.0
176
     1
 40
1.0
176
     1
 90
        0
176
     1
 62
    18
420
        0
176
     1
 90
       50
176
     1
 90
        3
176
     1
 62
     5
420
      255
176
     1
290
     0
176
     1
 90
       50
176
     1
 90
       50
176
     1
 90
       50
176
     1
290
     0
176
     1
 90
       50
176
     1
 62
   256
176
     0
 40
1.0
176
     0
 90
        2
176
     1
  1
strokes_ogs.tif
176
     1
290
     0
176
     1
 40
1.0
176
     1
 40
1.0
176
     1
  0
VISUALSTYLE
  5
36
102
{ACAD_REACTORS
330
2A
102
}
330
2A
100
AcDbVisualStyle
  2
Brighten
 70
    12
177
     3
291
     1
 70
    58
 90
        2
176
     1
 90
        2
176
     1
 90
        0
176
     1
 90
        0
176
     1
 40
0.6
176
     1
 40
30.0
176
     1
 62
     7
420
 16777215
176
     1
 90
        1
176
     1
 90
        4
176
     1
 62
     7
176
     1
 62
   257
176
     1
 90
        1
176
     1
 90
        1
176
     1
 40
1.0
176
     1
 90
        8
176
     1
 62
     7
176
     1
 40
1.0
176
     1
 90
        1
176
     1
 90
        6
176
     1
 90
        2
176
     1
 62
     7
176
     1
 90
        5
176
     1
 90
        0
176
     1
 90
        0
176
     1
290
     0
176
     1
 90
        1
176
     1
 40
50.0
176
     1
 90
        0
176
     1
290
     0
176
     1
290
     1
176
     1
290
     1
176
     1
290
     0
176
     1
290
     0
176
     1
290
     0
176
     1
290
     0
176
     1
290
     0
176
     1
290
     0
176
     1
 90
       50
176
     1
 40
0.0
176
     1
 40
1.0
176
     1
 90
        0
176
     1
 62
    18
420
        0
176
     1
 90
       50
176
     1
 90
        3
176
     1
 62
     5
420
      255
176
     1
290
     0
176
     1
 90
       50
176
     1
 90
       50
176
     1
 90
       50
176
     1
290
     0
176
     1
 90
       50
176
     1
 62
   256
176
     0
 40
1.0
176
     0
 90
        2
176
     1
  1
strokes_ogs.tif
176
     1
290
     0
176
     1
 40
1.0
176
     1
 40
1.0
176
     1
  0
VISUALSTYLE
  5
3A
102
{ACAD_REACTORS
330
2A
102
}
330
2A
100
AcDbVisualStyle
  2
ColorChange
 70
    16
177
     3
291
     1
 70
    58
 90
        2
176
     1
 90
        2
176
     1
 90
        3
176
     1
 90
        0
176
     1
 40
0.6
176
     1
 40
30.0
176
     1
 62
     8
420
  8421504
176
     1
 90
        1
176
     1
 90
        4
176
     1
 62
     7
176
     1
 62
   257
176
     1
 90
        1
176
     1
 90
        1
176
     1
 40
1.0
176
     1
 90
        8
176
     1
 62
     8
420
  8421504
176
     1
 40
1.0
176
     1
 90
        1
176
     1
 90
        6
176
     1
 90
        2
176
     1
 62
     7
176
     1
 90
        5
176
     1
 90
        0
176
     1
 90
        0
176
     1
290
     0
176
     1
 90
        1
176
     1
 40
0.0
176
     1
 90
        0
176
     1
290
     0
176
     1
290
     1
176
     1
290
     1
176
     1
290
     0
176
     1
290
     0
176
     1
290
     0
176
     1
290
     0
176
     1
290
     0
176
     1
290
     0
176
     1
 90
       50
176
     1
 40
0.0
176
     1
 40
1.0
176
     1
 90
        0
176
     1
 62
    18
420
        0
176
     1
 90
       50
176
     1
 90
        3
176
     1
 62
     5
420
      255
176
     1
290
     0
176
     1
 90
       50
176
     1
 90
       50
176
     1
 90
       50
176
     1
290
     0
176
     1
 90
       50
176
     1
 62
   256
176
     0
 40
1.0
176
     0
 90
        2
176
     1
  1
strokes_ogs.tif
176
     1
290
     0
176
     1
 40
1.0
176
     1
 40
1.0
176
     1
  0
VISUALSTYLE
  5
34
102
{ACAD_REACTORS
330
2A
102
}
330
2A
100
AcDbVisualStyle
  2
Conceptual
 70
     9
177
     3
291
     0
 70
    58
 90
        3
176
     1
 90
        2
176
     1
 90
        0
176
     1
 90
        0
176
     1
 40
0.6
176
     1
 40
30.0
176
     1
 62
     7
420
 16777215
176
     1
 90
        2
176
     1
 90
        2
176
     1
 62
     7
176
     1
 62
   257
176
     1
 90
        1
176
     1
 90
        1
176
     1
 40
179.0
176
     1
 90
        8
176
     1
 62
     7
176
     1
 40
1.0
176
     1
 90
        1
176
     1
 90
        6
176
     1
 90
        2
176
     1
 62
     7
176
     1
 90
        3
176
     1
 90
        0
176
     1
 90
        0
176
     1
290
     0
176
     1
 90
        1
176
     1
 40
0.0
176
     1
 90
        0
176
     1
290
     0
176
     1
290
     1
176
     1
290
     1
176
     1
290
     0
176
     1
290
     0
176
     1
290
     0
176
     1
290
     0
176
     1
290
     0
176
     1
290
     0
176
     1
 90
       50
176
     1
 40
0.0
176
     1
 40
1.0
176
     1
 90
        0
176
     1
 62
    18
420
        0
176
     1
 90
       50
176
     1
 90
        3
176
     1
 62
     5
420
      255
176
     1
290
     0
176
     1
 90
       50
176
     1
 90
       50
176
     1
 90
       50
176
     1
290
     0
176
     1
 90
       50
176
     1
 62
   256
176
     0
 40
1.0
176
     0
 90
        2
176
     1
  1
strokes_ogs.tif
176
     1
290
     0
176
     1
 40
1.0
176
     1
 40
1.0
176
     1
  0
VISUALSTYLE
  5
35
102
{ACAD_REACTORS
330
2A
102
}
330
2A
100
AcDbVisualStyle
  2
Dim
 70
    11
177
     3
291
     1
 70
    58
 90
        2
176
     1
 90
        2
176
     1
 90
        0
176
     1
 90
        0
176
     1
 40
0.6
176
     1
 40
30.0
176
     1
 62
     7
420
 16777215
176
     1
 90
        1
176
     1
 90
        4
176
     1
 62
     7
176
     1
 62
   257
176
     1
 90
        1
176
     1
 90
        1
176
     1
 40
1.0
176
     1
 90
        8
176
     1
 62
     7
176
     1
 40
1.0
176
     1
 90
        1
176
     1
 90
        6
176
     1
 90
        2
176
     1
 62
     7
176
     1
 90
        5
176
     1
 90
        0
176
     1
 90
        0
176
     1
290
     0
176
     1
 90
        1
176
     1
 40
-50.0
176
     1
 90
        0
176
     1
290
     0
176
     1
290
     1
176
     1
290
     1
176
     1
290
     0
176
     1
290
     0
176
     1
290
     0
176
     1
290
     0
176
     1
290
     0
176
     1
290
     0
176
     1
 90
       50
176
     1
 40
0.0
176
     1
 40
1.0
176
     1
 90
        0
176
     1
 62
    18
420
        0
176
     1
 90
       50
176
     1
 90
        3
176
     1
 62
     5
420
      255
176
     1
290
     0
176
     1
 90
       50
176
     1
 90
       50
176
     1
 90
       50
176
     1
290
     0
176
     1
 90
       50
176
     1
 62
   256
176
     0
 40
1.0
176
     0
 90
        2
176
     1
  1
strokes_ogs.tif
176
     1
290
     0
176
     1
 40
1.0
176
     1
 40
1.0
176
     1
  0
VISUALSTYLE
  5
3D
102
{ACAD_REACTORS
330
2A
102
}
330
2A
100
AcDbVisualStyle
  2
EdgeColorOff
 70
    22
177
     3
291
     1
 70
    58
 90
        2
176
     0
 90
        2
176
     0
 90
        0
176
     0
 90
        0
176
     0
 40
0.6
176
     0
 40
30.0
176
     0
 62
     7
420
 16777215
176
     0
 90
        1
176
     0
 90
        4
176
     0
 62
     7
176
     0
 62
   257
176
     0
 90
        1
176
     0
 90
        1
176
     0
 40
1.0
176
     0
 90
        8
176
     2
 62
     7
176
     0
 40
1.0
176
     0
 90
        1
176
     0
 90
        6
176
     0
 90
        2
176
     0
 62
     7
176
     0
 90
        5
176
     0
 90
        0
176
     0
 90
        0
176
     0
290
     0
176
     0
 90
        1
176
     0
 40
0.0
176
     0
 90
        0
176
     0
290
     0
176
     0
290
     1
176
     0
290
     1
176
     0
290
     0
176
     0
290
     0
176
     0
290
     0
176
     0
290
     0
176
     0
290
     0
176
     0
290
     0
176
     0
 90
       50
176
     0
 40
0.0
176
     0
 40
1.0
176
     0
 90
        0
176
     0
 62
    18
420
        0
176
     0
 90
       50
176
     0
 90
        3
176
     0
 62
     5
420
      255
176
     0
290
     0
176
     0
 90
       50
176
     0
 90
       50
176
     0
 90
       50
176
     0
290
     0
176
     0
 90
       50
176
     0
 62
   256
176
     0
 40
1.0
176
     0
 90
        2
176
     0
  1
strokes_ogs.tif
176
     0
290
     0
176
     0
 40
1.0
176
     0
 40
1.0
176
     0
  0
VISUALSTYLE
  5
39
102
{ACAD_REACTORS
330
2A
102
}
330
2A
100
AcDbVisualStyle
  2
Facepattern
 70
    15
177
     3
291
     1
 70
    58
 90
        2
176
     1
 90
        2
176
     1
 90
        0
176
     1
 90
        0
176
     1
 40
0.6
176
     1
 40
30.0
176
     1
 62
     7
420
 16777215
176
     1
 90
        1
176
     1
 90
        4
176
     1
 62
     7
176
     1
 62
   257
176
     1
 90
        1
176
     1
 90
        1
176
     1
 40
1.0
176
     1
 90
        8
176
     1
 62
     7
176
     1
 40
1.0
176
     1
 90
        1
176
     1
 90
        6
176
     1
 90
        2
176
     1
 62
     7
176
     1
 90
        5
176
     1
 90
        0
176
     1
 90
        0
176
     1
290
     0
176
     1
 90
        1
176
     1
 40
0.0
176
     1
 90
        0
176
     1
290
     0
176
     1
290
     1
176
     1
290
     1
176
     1
290
     0
176
     1
290
     0
176
     1
290
     0
176
     1
290
     0
176
     1
290
     0
176
     1
290
     0
176
     1
 90
       50
176
     1
 40
0.0
176
     1
 40
1.0
176
     1
 90
        0
176
     1
 62
    18
420
        0
176
     1
 90
       50
176
     1
 90
        3
176
     1
 62
     5
420
      255
176
     1
290
     0
176
     1
 90
       50
176
     1
 90
       50
176
     1
 90
       50
176
     1
290
     0
176
     1
 90
       50
176
     1
 62
   256
176
     0
 40
1.0
176
     0
 90
        2
176
     1
  1
strokes_ogs.tif
176
     1
290
     0
176
     1
 40
1.0
176
     1
 40
1.0
176
     1
  0
VISUALSTYLE
  5
2B
102
{ACAD_REACTORS
330
2A
102
}
330
2A
100
AcDbVisualStyle
  2
Flat
 70
     0
177
     3
291
     1
 70
    58
 90
        2
176
     1
 90
        1
176
     1
 90
        1
176
     1
 90
        2
176
     1
 40
0.6
176
     1
 40
30.0
176
     1
 62
     7
420
 16777215
176
     1
 90
        0
176
     1
 90
        0
176
     1
 62
     7
176
     1
 62
   257
176
     1
 90
        1
176
     1
 90
        1
176
     1
 40
1.0
176
     1
 90
        8
176
     1
 62
     7
176
     1
 40
1.0
176
     1
 90
        1
176
     1
 90
        6
176
     1
 90
        2
176
     1
 62
     7
176
     1
 90
        5
176
     1
 90
        0
176
     1
 90
        0
176
     1
290
     0
176
     1
 90
       13
176
     1
 40
0.0
176
     1
 90
        0
176
     1
290
     0
176
     1
290
     1
176
     1
290
     1
176
     1
290
     0
176
     1
290
     0
176
     1
290
     0
176
     1
290
     0
176
     1
290
     0
176
     1
290
     0
176
     1
 90
       50
176
     1
 40
0.0
176
     1
 40
1.0
176
     1
 90
        0
176
     1
 62
    18
420
        0
176
     1
 90
       50
176
     1
 90
        3
176
     1
 62
     5
420
      255
176
     1
290
     0
176
     1
 90
       50
176
     1
 90
       50
176
     1
 90
       50
176
     1
290
     0
176
     1
 90
       50
176
     1
 62
   256
176
     0
 40
1.0
176
     0
 90
        2
176
     1
  1
strokes_ogs.tif
176
     1
290
     0
176
     1
 40
1.0
176
     1
 40
1.0
176
     1
  0
VISUALSTYLE
  5
2C
102
{ACAD_REACTORS
330
2A
102
}
330
2A
100
AcDbVisualStyle
  2
FlatWithEdges
 70
     1
177
     3
291
     1
 70
    58
 90
        2
176
     1
 90
        1
176
     1
 90
        1
176
     1
 90
        2
176
     1
 40
0.6
176
     1
 40
30.0
176
     1
 62
     7
420
 16777215
176
     1
 90
        1
176
     1
 90
        0
176
     1
 62
     7
176
     1
 62
   257
176
     1
 90
        1
176
     1
 90
        1
176
     1
 40
1.0
176
     1
 90
        0
176
     1
 62
   257
176
     1
 40
1.0
176
     1
 90
        1
176
     1
 90
        6
176
     1
 90
        2
176
     1
 62
     7
176
     1
 90
        5
176
     1
 90
        0
176
     1
 90
        0
176
     1
290
     0
176
     1
 90
       13
176
     1
 40
0.0
176
     1
 90
        0
176
     1
290
     0
176
     1
290
     1
176
     1
290
     1
176
     1
290
     0
176
     1
290
     0
176
     1
290
     0
176
     1
290
     0
176
     1
290
     0
176
     1
290
     0
176
     1
 90
       50
176
     1
 40
0.0
176
     1
 40
1.0
176
     1
 90
        0
176
     1
 62
    18
420
        0
176
     1
 90
       50
176
     1
 90
        3
176
     1
 62
     5
420
      255
176
     1
290
     0
176
     1
 90
       50
176
     1
 90
       50
176
     1
 90
       50
176
     1
290
     0
176
     1
 90
       50
176
     1
 62
   256
176
     0
 40
1.0
176
     0
 90
        2
176
     1
  1
strokes_ogs.tif
176
     1
290
     0
176
     1
 40
1.0
176
     1
 40
1.0
176
     1
  0
VISUALSTYLE
  5
2D
102
{ACAD_REACTORS
330
2A
102
}
330
2A
100
AcDbVisualStyle
  2
Gouraud
 70
     2
177
     3
291
     1
 70
    58
 90
        2
176
     1
 90
        2
176
     1
 90
        1
176
     1
 90
        2
176
     1
 40
0.6
176
     1
 40
30.0
176
     1
 62
     7
420
 16777215
176
     1
 90
        0
176
     1
 90
        0
176
     1
 62
     7
176
     1
 62
   257
176
     1
 90
        1
176
     1
 90
        1
176
     1
 40
1.0
176
     1
 90
        0
176
     1
 62
     7
176
     1
 40
1.0
176
     1
 90
        1
176
     1
 90
        6
176
     1
 90
        2
176
     1
 62
     7
176
     1
 90
        5
176
     1
 90
        0
176
     1
 90
        0
176
     1
290
     0
176
     1
 90
       13
176
     1
 40
0.0
176
     1
 90
        0
176
     1
290
     0
176
     1
290
     1
176
     1
290
     1
176
     1
290
     0
176
     1
290
     0
176
     1
290
     0
176
     1
290
     0
176
     1
290
     0
176
     1
290
     0
176
     1
 90
       50
176
     1
 40
0.0
176
     1
 40
1.0
176
     1
 90
        0
176
     1
 62
    18
420
        0
176
     1
 90
       50
176
     1
 90
        3
176
     1
 62
     5
420
      255
176
     1
290
     0
176
     1
 90
       50
176
     1
 90
       50
176
     1
 90
       50
176
     1
290
     0
176
     1
 90
       50
176
     1
 62
   256
176
     0
 40
1.0
176
     0
 90
        2
176
     1
  1
strokes_ogs.tif
176
     1
290
     0
176
     1
 40
1.0
176
     1
 40
1.0
176
     1
  0
VISUALSTYLE
  5
2E
102
{ACAD_REACTORS
330
2A
102
}
330
2A
100
AcDbVisualStyle
  2
GouraudWithEdges
 70
     3
177
     3
291
     1
 70
    58
 90
        2
176
     1
 90
        2
176
     1
 90
        1
176
     1
 90
        2
176
     1
 40
0.6
176
     1
 40
30.0
176
     1
 62
     7
420
 16777215
176
     1
 90
        1
176
     1
 90
        0
176
     1
 62
     7
176
     1
 62
   257
176
     1
 90
        1
176
     1
 90
        1
176
     1
 40
1.0
176
     1
 90
        0
176
     1
 62
   257
176
     1
 40
1.0
176
     1
 90
        1
176
     1
 90
        6
176
     1
 90
        2
176
     1
 62
     7
176
     1
 90
        5
176
     1
 90
        0
176
     1
 90
        0
176
     1
290
     0
176
     1
 90
       13
176
     1
 40
0.0
176
     1
 90
        0
176
     1
290
     0
176
     1
290
     1
176
     1
290
     1
176
     1
290
     0
176
     1
290
     0
176
     1
290
     0
176
     1
290
     0
176
     1
290
     0
176
     1
290
     0
176
     1
 90
       50
176
     1
 40
0.0
176
     1
 40
1.0
176
     1
 90
        0
176
     1
 62
    18
420
        0
176
     1
 90
       50
176
     1
 90
        3
176
     1
 62
     5
420
      255
176
     1
290
     0
176
     1
 90
       50
176
     1
 90
       50
176
     1
 90
       50
176
     1
290
     0
176
     1
 90
       50
176
     1
 62
   256
176
     0
 40
1.0
176
     0
 90
        2
176
     1
  1
strokes_ogs.tif
176
     1
290
     0
176
     1
 40
1.0
176
     1
 40
1.0
176
     1
  0
VISUALSTYLE
  5
31
102
{ACAD_REACTORS
330
2A
102
}
330
2A
100
AcDbVisualStyle
  2
Hidden
 70
     6
177
     3
291
     0
 70
    58
 90
        1
176
     1
 90
        2
176
     1
 90
        2
176
     1
 90
        0
176
     1
 40
0.6
176
     1
 40
30.0
176
     1
 62
     7
420
 16777215
176
     1
 90
        2
176
     1
 90
        2
176
     1
 62
     7
176
     1
 62
   257
176
     1
 90
        2
176
     1
 90
        1
176
     1
 40
40.0
176
     1
 90
        0
176
     1
 62
   257
176
     1
 40
1.0
176
     1
 90
        1
176
     1
 90
        6
176
     1
 90
        2
176
     1
 62
     7
176
     1
 90
        3
176
     1
 90
        0
176
     1
 90
        0
176
     1
290
     0
176
     1
 90
        1
176
     1
 40
0.0
176
     1
 90
        0
176
     1
290
     0
176
     1
290
     1
176
     1
290
     1
176
     1
290
     0
176
     1
290
     0
176
     1
290
     0
176
     1
290
     0
176
     1
290
     0
176
     1
290
     0
176
     1
 90
       50
176
     1
 40
0.0
176
     1
 40
1.0
176
     1
 90
        0
176
     1
 62
    18
420
        0
176
     1
 90
       50
176
     1
 90
        3
176
     1
 62
     5
420
      255
176
     1
290
     0
176
     1
 90
       50
176
     1
 90
       50
176
     1
 90
       50
176
     1
290
     0
176
     1
 90
       50
176
     1
 62
   256
176
     0
 40
1.0
176
     0
 90
        2
176
     1
  1
strokes_ogs.tif
176
     1
290
     0
176
     1
 40
1.0
176
     1
 40
1.0
176
     1
  0
VISUALSTYLE
  5
3B
102
{ACAD_REACTORS
330
2A
102
}
330
2A
100
AcDbVisualStyle
  2
JitterOff
 70
    20
177
     3
291
     1
 70
    58
 90
        2
176
     0
 90
        2
176
     0
 90
        0
176
     0
 90
        0
176
     0
 40
0.6
176
     0
 40
30.0
176
     0
 62
     7
420
 16777215
176
     0
 90
        1
176
     0
 90
        4
176
     0
 62
     7
176
     0
 62
   257
176
     0
 90
        1
176
     0
 90
        1
176
     0
 40
1.0
176
     0
 90
       10
176
     2
 62
     7
176
     0
 40
1.0
176
     0
 90
        1
176
     0
 90
        6
176
     0
 90
        2
176
     0
 62
     7
176
     0
 90
        5
176
     0
 90
        0
176
     0
 90
        0
176
     0
290
     0
176
     0
 90
        1
176
     0
 40
0.0
176
     0
 90
        0
176
     0
290
     0
176
     0
290
     1
176
     0
290
     1
176
     0
290
     0
176
     0
290
     0
176
     0
290
     0
176
     0
290
     0
176
     0
290
     0
176
     0
290
     0
176
     0
 90
       50
176
     0
 40
0.0
176
     0
 40
1.0
176
     0
 90
        0
176
     0
 62
    18
420
        0
176
     0
 90
       50
176
     0
 90
        3
176
     0
 62
     5
420
      255
176
     0
290
     0
176
     0
 90
       50
176
     0
 90
       50
176
     0
 90
       50
176
     0
290
     0
176
     0
 90
       50
176
     0
 62
   256
176
     0
 40
1.0
176
     0
 90
        2
176
     0
  1
strokes_ogs.tif
176
     0
290
     0
176
     0
 40
1.0
176
     0
 40
1.0
176
     0
  0
VISUALSTYLE
  5
38
102
{ACAD_REACTORS
330
2A
102
}
330
2A
100
AcDbVisualStyle
  2
Linepattern
 70
    14
177
     3
291
     1
 70
    58
 90
        2
176
     1
 90
        2
176
     1
 90
        0
176
     1
 90
        0
176
     1
 40
0.6
176
     1
 40
30.0
176
     1
 62
     7
420
 16777215
176
     1
 90
        1
176
     1
 90
        4
176
     1
 62
     7
176
     1
 62
   257
176
     1
 90
        7
176
     1
 90
        7
176
     1
 40
1.0
176
     1
 90
        8
176
     1
 62
     7
176
     1
 40
1.0
176
     1
 90
        1
176
     1
 90
        6
176
     1
 90
        2
176
     1
 62
     7
176
     1
 90
        5
176
     1
 90
        0
176
     1
 90
        0
176
     1
290
     0
176
     1
 90
        1
176
     1
 40
0.0
176
     1
 90
        0
176
     1
290
     0
176
     1
290
     1
176
     1
290
     1
176
     1
290
     0
176
     1
290
     0
176
     1
290
     0
176
     1
290
     0
176
     1
290
     0
176
     1
290
     0
176
     1
 90
       50
176
     1
 40
0.0
176
     1
 40
1.0
176
     1
 90
        0
176
     1
 62
    18
420
        0
176
     1
 90
       50
176
     1
 90
        3
176
     1
 62
     5
420
      255
176
     1
290
     0
176
     1
 90
       50
176
     1
 90
       50
176
     1
 90
       50
176
     1
290
     0
176
     1
 90
       50
176
     1
 62
   256
176
     0
 40
1.0
176
     0
 90
        2
176
     1
  1
strokes_ogs.tif
176
     1
290
     0
176
     1
 40
1.0
176
     1
 40
1.0
176
     1
  0
VISUALSTYLE
  5
3C
102
{ACAD_REACTORS
330
2A
102
}
330
2A
100
AcDbVisualStyle
  2
OverhangOff
 70
    21
177
     3
291
     1
 70
    58
 90
        2
176
     0
 90
        2
176
     0
 90
        0
176
     0
 90
        0
176
     0
 40
0.6
176
     0
 40
30.0
176
     0
 62
     7
420
 16777215
176
     0
 90
        1
176
     0
 90
        4
176
     0
 62
     7
176
     0
 62
   257
176
     0
 90
        1
176
     0
 90
        1
176
     0
 40
1.0
176
     0
 90
        9
176
     2
 62
     7
176
     0
 40
1.0
176
     0
 90
        1
176
     0
 90
        6
176
     0
 90
        2
176
     0
 62
     7
176
     0
 90
        5
176
     0
 90
        0
176
     0
 90
        0
176
     0
290
     0
176
     0
 90
        1
176
     0
 40
0.0
176
     0
 90
        0
176
     0
290
     0
176
     0
290
     1
176
     0
290
     1
176
     0
290
     0
176
     0
290
     0
176
     0
290
     0
176
     0
290
     0
176
     0
290
     0
176
     0
290
     0
176
     0
 90
       50
176
     0
 40
0.0
176
     0
 40
1.0
176
     0
 90
        0
176
     0
 62
    18
420
        0
176
     0
 90
       50
176
     0
 90
        3
176
     0
 62
     5
420
      255
176
     0
290
     0
176
     0
 90
       50
176
     0
 90
       50
176
     0
 90
       50
176
     0
290
     0
176
     0
 90
       50
176
     0
 62
   256
176
     0
 40
1.0
176
     0
 90
        2
176
     0
  1
strokes_ogs.tif
176
     0
290
     0
176
     0
 40
1.0
176
     0
 40
1.0
176
     0
  0
VISUALSTYLE
  5
33
102
{ACAD_REACTORS
330
2A
102
}
330
2A
100
AcDbVisualStyle
  2
Realistic
 70
     8
177
     3
291
     0
 70
    58
 90
        2
176
     1
 90
        3
176
     1
 90
        0
176
     1
 90
        2
176
     1
 40
0.6
176
     1
 40
30.0
176
     1
 62
     7
420
 16777215
176
     1
 90
        0
176
     1
 90
        0
176
     1
 62
     7
176
     1
 62
   257
176
     1
 90
        1
176
     1
 90
        1
176
     1
 40
1.0
176
     1
 90
        8
176
     1
 62
   257
176
     1
 40
1.0
176
     1
 90
        1
176
     1
 90
        6
176
     1
 90
        2
176
     1
 62
     7
176
     1
 90
        3
176
     1
 90
        0
176
     1
 90
        0
176
     1
290
     0
176
     1
 90
       13
176
     1
 40
0.0
176
     1
 90
        0
176
     1
290
     0
176
     1
290
     1
176
     1
290
     1
176
     1
290
     0
176
     1
290
     0
176
     1
290
     0
176
     1
290
     0
176
     1
290
     0
176
     1
290
     0
176
     1
 90
       50
176
     1
 40
0.0
176
     1
 40
1.0
176
     1
 90
        0
176
     1
 62
    18
420
        0
176
     1
 90
       50
176
     1
 90
        3
176
     1
 62
     5
420
      255
176
     1
290
     0
176
     1
 90
       50
176
     1
 90
       50
176
     1
 90
       50
176
     1
290
     0
176
     1
 90
       50
176
     1
 62
   256
176
     0
 40
1.0
176
     0
 90
        2
176
     1
  1
strokes_ogs.tif
176
     1
290
     0
176
     1
 40
1.0
176
     1
 40
1.0
176
     1
  0
VISUALSTYLE
  5
42
102
{ACAD_REACTORS
330
2A
102
}
330
2A
100
AcDbVisualStyle
  2
Shaded
 70
    27
177
     3
291
     0
 70
    58
 90
        2
176
     1
 90
        2
176
     1
 90
        1
176
     1
 90
        2
176
     1
 40
0.6
176
     1
 40
30.0
176
     1
 62
     7
420
 16777215
176
     1
 90
        0
176
     1
 90
        4
176
     1
 62
     7
176
     1
 62
   257
176
     1
 90
        1
176
     1
 90
        1
176
     1
 40
1.0
176
     1
 90
        8
176
     1
 62
   257
176
     1
 40
1.0
176
     1
 90
        1
176
     1
 90
        6
176
     1
 90
        2
176
     1
 62
     8
420
  7895160
176
     1
 90
        3
176
     1
 90
        0
176
     1
 90
        0
176
     1
290
     0
176
     1
 90
        5
176
     1
 40
0.0
176
     1
 90
        0
176
     1
290
     0
176
     1
290
     1
176
     1
290
     1
176
     1
290
     0
176
     1
290
     0
176
     1
290
     0
176
     1
290
     0
176
     1
290
     0
176
     1
290
     0
176
     1
 90
       50
176
     1
 40
0.0
176
     1
 40
1.0
176
     1
 90
        0
176
     1
 62
    18
420
        0
176
     1
 90
       50
176
     1
 90
        3
176
     1
 62
     5
420
      255
176
     1
290
     0
176
     1
 90
       50
176
     1
 90
       50
176
     1
 90
       50
176
     1
290
     0
176
     1
 90
       50
176
     1
 62
   256
176
     0
 40
1.0
176
     0
 90
        2
176
     1
  1
strokes_ogs.tif
176
     1
290
     0
176
     1
 40
1.0
176
     1
 40
1.0
176
     1
  0
VISUALSTYLE
  5
41
102
{ACAD_REACTORS
330
2A
102
}
330
2A
100
AcDbVisualStyle
  2
Shaded with edges
 70
    26
177
     3
291
     0
 70
    58
 90
        2
176
     1
 90
        2
176
     1
 90
        1
176
     1
 90
        2
176
     1
 40
0.6
176
     1
 40
30.0
176
     1
 62
     7
420
 16777215
176
     1
 90
        1
176
     1
 90
       10
176
     1
 62
     7
176
     1
 62
   257
176
     1
 90
        2
176
     1
 90
        1
176
     1
 40
1.0
176
     1
 90
        8
176
     1
 62
   257
176
     1
 40
1.0
176
     1
 90
        1
176
     1
 90
        6
176
     1
 90
        2
176
     1
 62
     7
176
     1
 90
        3
176
     1
 90
        0
176
     1
 90
        0
176
     1
290
     0
176
     1
 90
        5
176
     1
 40
0.0
176
     1
 90
        0
176
     1
290
     0
176
     1
290
     1
176
     1
290
     1
176
     1
290
     0
176
     1
290
     0
176
     1
290
     0
176
     1
290
     0
176
     1
290
     0
176
     1
290
     0
176
     1
 90
       50
176
     1
 40
0.0
176
     1
 40
1.0
176
     1
 90
        0
176
     1
 62
    18
420
        0
176
     1
 90
       50
176
     1
 90
        3
176
     1
 62
     5
420
      255
176
     1
290
     0
176
     1
 90
       50
176
     1
 90
       50
176
     1
 90
       50
176
     1
290
     0
176
     1
 90
       50
176
     1
 62
   256
176
     0
 40
1.0
176
     0
 90
        2
176
     1
  1
strokes_ogs.tif
176
     1
290
     0
176
     1
 40
1.0
176
     1
 40
1.0
176
     1
  0
VISUALSTYLE
  5
3E
102
{ACAD_REACTORS
330
2A
102
}
330
2A
100
AcDbVisualStyle
  2
Shades of Gray
 70
    23
177
     3
291
     0
 70
    58
 90
        2
176
     1
 90
        2
176
     1
 90
        3
176
     1
 90
        0
176
     1
 40
0.6
176
     1
 40
30.0
176
     1
 62
     7
420
 16777215
176
     1
 90
        2
176
     1
 90
        2
176
     1
 62
     7
176
     1
 62
     7
176
     1
 90
        1
176
     1
 90
        1
176
     1
 40
40.0
176
     1
 90
        8
176
     1
 62
     7
176
     1
 40
1.0
176
     1
 90
        1
176
     1
 90
        6
176
     1
 90
        2
176
     1
 62
     7
176
     1
 90
        3
176
     1
 90
        0
176
     1
 90
        0
176
     1
290
     0
176
     1
 90
        1
176
     1
 40
0.0
176
     1
 90
        0
176
     1
290
     0
176
     1
290
     1
176
     1
290
     1
176
     1
290
     0
176
     1
290
     0
176
     1
290
     0
176
     1
290
     0
176
     1
290
     0
176
     1
290
     0
176
     1
 90
       50
176
     1
 40
0.0
176
     1
 40
1.0
176
     1
 90
        0
176
     1
 62
    18
420
        0
176
     1
 90
       50
176
     1
 90
        3
176
     1
 62
     5
420
      255
176
     1
290
     0
176
     1
 90
       50
176
     1
 90
       50
176
     1
 90
       50
176
     1
290
     0
176
     1
 90
       50
176
     1
 62
   256
176
     0
 40
1.0
176
     0
 90
        2
176
     1
  1
strokes_ogs.tif
176
     1
290
     0
176
     1
 40
1.0
176
     1
 40
1.0
176
     1
  0
VISUALSTYLE
  5
3F
102
{ACAD_REACTORS
330
2A
102
}
330
2A
100
AcDbVisualStyle
  2
Sketchy
 70
    24
177
     3
291
     0
 70
    58
 90
        1
176
     1
 90
        2
176
     1
 90
        2
176
     1
 90
        0
176
     1
 40
0.6
176
     1
 40
30.0
176
     1
 62
     7
420
 16777215
176
     1
 90
        2
176
     1
 90
        2
176
     1
 62
     7
176
     1
 62
     7
176
     1
 90
        1
176
     1
 90
        1
176
     1
 40
40.0
176
     1
 90
       11
176
     1
 62
     7
176
     1
 40
1.0
176
     1
 90
        1
176
     1
 90
        6
176
     1
 90
        2
176
     1
 62
     7
176
     1
 90
        6
176
     1
 90
        0
176
     1
 90
        0
176
     1
290
     0
176
     1
 90
        1
176
     1
 40
0.0
176
     1
 90
        0
176
     1
290
     0
176
     1
290
     1
176
     1
290
     1
176
     1
290
     0
176
     1
290
     0
176
     1
290
     0
176
     1
290
     0
176
     1
290
     0
176
     1
290
     0
176
     1
 90
       50
176
     1
 40
0.0
176
     1
 40
1.0
176
     1
 90
        0
176
     1
 62
    18
420
        0
176
     1
 90
       50
176
     1
 90
        3
176
     1
 62
     5
420
      255
176
     1
290
     0
176
     1
 90
       50
176
     1
 90
       50
176
     1
 90
       50
176
     1
290
     0
176
     1
 90
       50
176
     1
 62
   256
176
     0
 40
1.0
176
     0
 90
        2
176
     1
  1
strokes_ogs.tif
176
     1
290
     0
176
     1
 40
1.0
176
     1
 40
1.0
176
     1
  0
VISUALSTYLE
  5
37
102
{ACAD_REACTORS
330
2A
102
}
330
2A
100
AcDbVisualStyle
  2
Thicken
 70
    13
177
     3
291
     1
 70
    58
 90
        2
176
     1
 90
        2
176
     1
 90
        0
176
     1
 90
        0
176
     1
 40
0.6
176
     1
 40
30.0
176
     1
 62
     7
420
 16777215
176
     1
 90
        1
176
     1
 90
        4
176
     1
 62
     7
176
     1
 62
   257
176
     1
 90
        1
176
     1
 90
        1
176
     1
 40
1.0
176
     1
 90
       12
176
     1
 62
     7
176
     1
 40
1.0
176
     1
 90
        1
176
     1
 90
        6
176
     1
 90
        2
176
     1
 62
     7
176
     1
 90
        5
176
     1
 90
        0
176
     1
 90
        0
176
     1
290
     0
176
     1
 90
        1
176
     1
 40
0.0
176
     1
 90
        0
176
     1
290
     0
176
     1
290
     1
176
     1
290
     1
176
     1
290
     0
176
     1
290
     0
176
     1
290
     0
176
     1
290
     0
176
     1
290
     0
176
     1
290
     0
176
     1
 90
       50
176
     1
 40
0.0
176
     1
 40
1.0
176
     1
 90
        0
176
     1
 62
    18
420
        0
176
     1
 90
       50
176
     1
 90
        3
176
     1
 62
     5
420
      255
176
     1
290
     0
176
     1
 90
       50
176
     1
 90
       50
176
     1
 90
       50
176
     1
290
     0
176
     1
 90
       50
176
     1
 62
   256
176
     0
 40
1.0
176
     0
 90
        2
176
     1
  1
strokes_ogs.tif
176
     1
290
     0
176
     1
 40
1.0
176
     1
 40
1.0
176
     1
  0
VISUALSTYLE
  5
30
102
{ACAD_REACTORS
330
2A
102
}
330
2A
100
AcDbVisualStyle
  2
Wireframe
 70
     5
177
     3
291
     0
 70
    58
 90
        0
176
     1
 90
        2
176
     1
 90
        0
176
     1
 90
        0
176
     1
 40
0.6
176
     1
 40
30.0
176
     1
 62
     7
420
 16777215
176
     1
 90
        1
176
     1
 90
        4
176
     1
 62
     7
176
     1
 62
   257
176
     1
 90
        1
176
     1
 90
        1
176
     1
 40
1.0
176
     1
 90
        0
176
     1
 62
   257
176
     1
 40
1.0
176
     1
 90
        1
176
     1
 90
        6
176
     1
 90
        2
176
     1
 62
     7
176
     1
 90
        3
176
     1
 90
        0
176
     1
 90
        0
176
     1
290
     0
176
     1
 90
        1
176
     1
 40
0.0
176
     1
 90
        0
176
     1
290
     0
176
     1
290
     1
176
     1
290
     1
176
     1
290
     0
176
     1
290
     0
176
     1
290
     0
176
     1
290
     0
176
     1
290
     0
176
     1
290
     0
176
     1
 90
       50
176
     1
 40
0.0
176
     1
 40
1.0
176
     1
 90
        0
176
     1
 62
    18
420
        0
176
     1
 90
       50
176
     1
 90
        3
176
     1
 62
     5
420
      255
176
     1
290
     0
176
     1
 90
       50
176
     1
 90
       50
176
     1
 90
       50
176
     1
290
     0
176
     1
 90
       50
176
     1
 62
   256
176
     0
 40
1.0
176
     0
 90
        2
176
     1
  1
strokes_ogs.tif
176
     1
290
     0
176
     1
 40
1.0
176
     1
 40
1.0
176
     1
  0
VISUALSTYLE
  5
40
102
{ACAD_REACTORS
330
2A
102
}
330
2A
100
AcDbVisualStyle
  2
X-Ray
 70
    25
177
     3
291
     0
 70
    58
 90
        2
176
     1
 90
        2
176
     1
 90
        1
176
     1
 90
        1
176
     1
 40
0.5
176
     1
 40
30.0
176
     1
 62
     7
420
 16777215
176
     1
 90
        1
176
     1
 90
        0
176
     1
 62
     7
176
     1
 62
   257
176
     1
 90
        1
176
     1
 90
        1
176
     1
 40
1.0
176
     1
 90
        8
176
     1
 62
     7
176
     1
 40
1.0
176
     1
 90
        1
176
     1
 90
        6
176
     1
 90
        2
176
     1
 62
     7
176
     1
 90
        3
176
     1
 90
        0
176
     1
 90
        0
176
     1
290
     0
176
     1
 90
       13
176
     1
 40
0.0
176
     1
 90
        0
176
     1
290
     0
176
     1
290
     1
176
     1
290
     1
176
     1
290
     0
176
     1
290
     0
176
     1
290
     0
176
     1
290
     0
176
     1
290
     0
176
     1
290
     0
176
     1
 90
       50
176
     1
 40
0.0
176
     1
 40
1.0
176
     1
 90
        0
176
     1
 62
    18
420
        0
176
     1
 90
       50
176
     1
 90
        3
176
     1
 62
     5
420
      255
176
     1
290
     0
176
     1
 90
       50
176
     1
 90
       50
176
     1
 90
       50
176
     1
290
     0
176
     1
 90
       50
176
     1
 62
   256
176
     0
 40
1.0
176
     0
 90
        2
176
     1
  1
strokes_ogs.tif
176
     1
290
     0
176
     1
 40
1.0
176
     1
 40
1.0
176
     1
  0
DICTIONARYVAR
  5
15F
102
{ACAD_REACTORS
330
15E
102
}
330
15E
100
DictionaryVariables
280
     0
  1
1:1
  0
DICTIONARYVAR
  5
164
102
{ACAD_REACTORS
330
15E
102
}
330
15E
100
DictionaryVariables
280
     0
  1
Standard
  0
DICTIONARYVAR
  5
163
102
{ACAD_REACTORS
330
15E
102
}
330
15E
100
DictionaryVariables
280
     0
  1
Standard
  0
DICTIONARY
  5
160
330
6A
100
AcDbDictionary
280
     1
281
     1
  3
ACAD_ROUNDTRIP_2008_TABLESTYLE_CELLSTYLEMAP
360
161
  0
CELLSTYLEMAP
  5
161
102
{ACAD_REACTORS
330
160
102
}
330
160
100
AcDbCellStyleMap
 90
        3
300
CELLSTYLE
  1
TABLEFORMAT_BEGIN
 90
        5
170
     1
 91
        0
 92
    32768
 62
   257
 93
        1
300
CONTENTFORMAT
  1
CONTENTFORMAT_BEGIN
 90
        0
 91
        0
 92
        4
 93
        0
300

 40
0.0
140
1.0
 94
        5
 62
     0
340
11
144
0.25
309
CONTENTFORMAT_END
171
     1
301
MARGIN
  1
CELLMARGIN_BEGIN
 40
0.06
 40
0.06
 40
0.06
 40
0.06
 40
0.06
 40
0.06
309
CELLMARGIN_END
 94
        6
 95
        1
302
GRIDFORMAT
  1
GRIDFORMAT_BEGIN
 90
        0
 91
        1
 62
     0
 92
       -2
340
14
 93
        0
 40
0.045
309
GRIDFORMAT_END
 95
        2
302
GRIDFORMAT
  1
GRIDFORMAT_BEGIN
 90
        0
 91
        1
 62
     0
 92
       -2
340
14
 93
        0
 40
0.045
309
GRIDFORMAT_END
 95
        4
302
GRIDFORMAT
  1
GRIDFORMAT_BEGIN
 90
        0
 91
        1
 62
     0
 92
       -2
340
14
 93
        0
 40
0.045
309
GRIDFORMAT_END
 95
        8
302
GRIDFORMAT
  1
GRIDFORMAT_BEGIN
 90
        0
 91
        1
 62
     0
 92
       -2
340
14
 93
        0
 40
0.045
309
GRIDFORMAT_END
 95
       16
302
GRIDFORMAT
  1
GRIDFORMAT_BEGIN
 90
        0
 91
        1
 62
     0
 92
       -2
340
14
 93
        0
 40
0.045
309
GRIDFORMAT_END
 95
       32
302
GRIDFORMAT
  1
GRIDFORMAT_BEGIN
 90
        0
 91
        1
 62
     0
 92
       -2
340
14
 93
        0
 40
0.045
309
GRIDFORMAT_END
309
TABLEFORMAT_END
  1
CELLSTYLE_BEGIN
 90
        1
 91
        1
300
_TITLE
309
CELLSTYLE_END
300
CELLSTYLE
  1
TABLEFORMAT_BEGIN
 90
        5
170
     1
 91
        0
 92
        0
 62
   257
 93
        1
300
CONTENTFORMAT
  1
CONTENTFORMAT_BEGIN
 90
        0
 91
        0
 92
        4
 93
        0
300

 40
0.0
140
1.0
 94
        5
 62
     0
340
11
144
0.18
309
CONTENTFORMAT_END
171
     1
301
MARGIN
  1
CELLMARGIN_BEGIN
 40
0.06
 40
0.06
 40
0.06
 40
0.06
 40
0.06
 40
0.06
309
CELLMARGIN_END
 94
        6
 95
        1
302
GRIDFORMAT
  1
GRIDFORMAT_BEGIN
 90
        0
 91
        1
 62
     0
 92
       -2
340
14
 93
        0
 40
0.045
309
GRIDFORMAT_END
 95
        2
302
GRIDFORMAT
  1
GRIDFORMAT_BEGIN
 90
        0
 91
        1
 62
     0
 92
       -2
340
14
 93
        0
 40
0.045
309
GRIDFORMAT_END
 95
        4
302
GRIDFORMAT
  1
GRIDFORMAT_BEGIN
 90
        0
 91
        1
 62
     0
 92
       -2
340
14
 93
        0
 40
0.045
309
GRIDFORMAT_END
 95
        8
302
GRIDFORMAT
  1
GRIDFORMAT_BEGIN
 90
        0
 91
        1
 62
     0
 92
       -2
340
14
 93
        0
 40
0.045
309
GRIDFORMAT_END
 95
       16
302
GRIDFORMAT
  1
GRIDFORMAT_BEGIN
 90
        0
 91
        1
 62
     0
 92
       -2
340
14
 93
        0
 40
0.045
309
GRIDFORMAT_END
 95
       32
302
GRIDFORMAT
  1
GRIDFORMAT_BEGIN
 90
        0
 91
        1
 62
     0
 92
       -2
340
14
 93
        0
 40
0.045
309
GRIDFORMAT_END
309
TABLEFORMAT_END
  1
CELLSTYLE_BEGIN
 90
        2
 91
        1
300
_HEADER
309
CELLSTYLE_END
300
CELLSTYLE
  1
TABLEFORMAT_BEGIN
 90
        5
170
     1
 91
        0
 92
        0
 62
   257
 93
        1
300
CONTENTFORMAT
  1
CONTENTFORMAT_BEGIN
 90
        0
 91
        0
 92
        4
 93
        0
300

 40
0.0
140
1.0
 94
        2
 62
     0
340
11
144
0.18
309
CONTENTFORMAT_END
171
     1
301
MARGIN
  1
CELLMARGIN_BEGIN
 40
0.06
 40
0.06
 40
0.06
 40
0.06
 40
0.06
 40
0.06
309
CELLMARGIN_END
 94
        6
 95
        1
302
GRIDFORMAT
  1
GRIDFORMAT_BEGIN
 90
        0
 91
        1
 62
     0
 92
       -2
340
14
 93
        0
 40
0.045
309
GRIDFORMAT_END
 95
        2
302
GRIDFORMAT
  1
GRIDFORMAT_BEGIN
 90
        0
 91
        1
 62
     0
 92
       -2
340
14
 93
        0
 40
0.045
309
GRIDFORMAT_END
 95
        4
302
GRIDFORMAT
  1
GRIDFORMAT_BEGIN
 90
        0
 91
        1
 62
     0
 92
       -2
340
14
 93
        0
 40
0.045
309
GRIDFORMAT_END
 95
        8
302
GRIDFORMAT
  1
GRIDFORMAT_BEGIN
 90
        0
 91
        1
 62
     0
 92
       -2
340
14
 93
        0
 40
0.045
309
GRIDFORMAT_END
 95
       16
302
GRIDFORMAT
  1
GRIDFORMAT_BEGIN
 90
        0
 91
        1
 62
     0
 92
       -2
340
14
 93
        0
 40
0.045
309
GRIDFORMAT_END
 95
       32
302
GRIDFORMAT
  1
GRIDFORMAT_BEGIN
 90
        0
 91
        1
 62
     0
 92
       -2
340
14
 93
        0
 40
0.045
309
GRIDFORMAT_END
309
TABLEFORMAT_END
  1
CELLSTYLE_BEGIN
 90
        3
 91
        2
300
_DATA
309
CELLSTYLE_END
  0
ENDSEC
  0
EOF
