  0
SECTION
  2
ENTITIES
  0
LINE
  8
APS_GEOMETRY
 10
-7.609957
 11
-7.609957
 20
-48.436
 21
-58.686
  0
ARC
  8
APS_GEOMETRY
 10
-10.575789
 20
-58.436
 40
0.25
 50
180.0
 51
270.0
  0
LINE
  8
APS_GEOMETRY
 10
-10.825789
 11
-10.825789
 20
-58.436
 21
-48.186
  0
ARC
  8
APS_GEOMETRY
 10
-10.575789
 20
-48.186
 40
0.25
 50
90.0
 51
180.0
  0
LINE
  8
APS_GEOMETRY
 10
-10.575789
 11
-4.644126
 20
-47.936
 21
-47.936
  0
ARC
  8
APS_GEOMETRY
 10
-4.644126
 20
-48.186
 40
0.25
 50
0.0
 51
90.0
  0
LINE
  8
APS_GEOMETRY
 10
-4.394126
 11
-4.394126
 20
-48.186
 21
-58.436
  0
ARC
  8
APS_GEOMETRY
 10
-4.644126
 20
-58.436
 40
0.25
 50
270.0
 51
0.0
  0
LINE
  8
APS_GEOMETRY
 10
-4.644126
 11
-10.575789
 20
-58.686
 21
-58.686
  0
ARC
  8
APS_GEOMETRY
 10
-8.736842
 20
-55.739314
 40
0.2625
 50
135.0
 51
315.0
  0
LINE
  8
APS_GEOMETRY
 10
-8.922457
 11
-8.922457
 20
-55.553699
 21
-52.621161
  0
ARC
  8
APS_GEOMETRY
 10
-8.736842
 20
-52.435545
 40
0.2625
 50
45.0
 51
225.0
  0
LINE
  8
APS_GEOMETRY
 10
-8.551226
 11
-6.668689
 20
-52.24993
 21
-52.24993
  0
ARC
  8
APS_GEOMETRY
 10
-6.483073
 20
-52.435545
 40
0.2625
 50
315.0
 51
135.0
  0
LINE
  8
APS_GEOMETRY
 10
-6.297457
 11
-6.297457
 20
-52.621161
 21
-55.553699
  0
ARC
  8
APS_GEOMETRY
 10
-6.483073
 20
-55.739314
 40
0.2625
 50
225.0
 51
45.0
  0
LINE
  8
APS_GEOMETRY
 10
-6.668689
 11
-8.551226
 20
-55.92493
 21
-55.92493
  0
LINE
  8
APS_GEOMETRY
 10
-9.184957
 11
-6.034957
 20
-56.18743
 21
-56.18743
  0
LINE
  8
APS_GEOMETRY
 10
-6.034957
 11
-6.034957
 20
-56.18743
 21
-51.98743
  0
LINE
  8
APS_GEOMETRY
 10
-6.034957
 11
-9.184957
 20
-51.98743
 21
-51.98743
  0
LINE
  8
APS_GEOMETRY
 10
-9.184957
 11
-9.184957
 20
-51.98743
 21
-56.18743
  0
LINE
  8
APS_GEOMETRY
 10
-4.894126
 11
-4.894126
 20
-51.151831
 21
-55.470168
  0
ARC
  8
APS_GEOMETRY
 10
-7.609957
 20
-55.470168
 40
2.715831
 50
180.0
 51
0.0
  0
LINE
  8
APS_GEOMETRY
 10
-10.325789
 11
-10.325789
 20
-55.470168
 21
-51.151831
  0
ARC
  8
APS_GEOMETRY
 10
-7.609957
 20
-51.151831
 40
2.715831
 50
0.0
 51
180.0
  0
LINE
  8
APS_GEOMETRY
 10
-5.951876
 11
-5.944126
 20
-59.427634
 21
-59.427634
  0
LINE
  8
APS_GEOMETRY
 10
-10.325789
 11
-9.660564
 20
-55.173251
 21
-55.173251
  0
LINE
  8
APS_GEOMETRY
 10
-9.660564
 11
-9.660564
 20
-55.173251
 21
-56.809666
  0
LINE
  8
APS_GEOMETRY
 10
-9.660564
 11
-5.589008
 20
-56.809666
 21
-56.809666
  0
LINE
  8
APS_GEOMETRY
 10
-5.589008
 11
-5.589008
 20
-56.809666
 21
-55.173251
  0
LINE
  8
APS_GEOMETRY
 10
-5.589008
 11
-4.894126
 20
-55.173251
 21
-55.173251
  0
LINE
  8
APS_GEOMETRY
 10
-4.894126
 11
-4.894126
 20
-55.173251
 21
-58.686
  0
LINE
  8
APS_GEOMETRY
 10
-10.325789
 11
-10.325789
 20
-58.686
 21
-55.173251
  0
CIRCLE
  8
APS_GEOMETRY
 10
-7.609957
 20
-50.027404
 40
1.0
  0
CIRCLE
  8
APS_GEOMETRY
 10
-7.609957
 20
-50.027404
 40
0.625
  0
CIRCLE
  8
APS_GEOMETRY
 10
-7.609957
 20
-50.027404
 40
1.05
  0
LINE
  8
APS_GEOMETRY
 10
-4.788126
 11
-4.788126
 20
-51.151831
 21
-58.686
  0
LINE
  8
APS_GEOMETRY
 10
-10.431789
 11
-10.431789
 20
-58.686
 21
-51.151831
  0
ARC
  8
APS_GEOMETRY
 10
-7.609957
 20
-51.151832
 40
2.821831
 50
0.000003
 51
179.999997
  0
ENDSEC
  0
EOF
