ISO-10303-21;
HEADER;
/* Generated by software containing ST-Developer
 * from STEP Tools, Inc. (www.steptools.com) 
 */

FILE_DESCRIPTION(
/* description */ (''),
/* implementation_level */ '2;1');

FILE_NAME(
/* name */ 
'C:\\Users\\Mark\\Desktop\\Inventor Projects\\Hexagon_Puzzle\\Alt\\Hex
_SubAssy1.stp',
/* time_stamp */ '2019-03-18T18:17:46-04:00',
/* author */ ('Mark'),
/* organization */ (''),
/* preprocessor_version */ 'ST-DEVELOPER v16.1',
/* originating_system */ 'Autodesk Inventor 2016',
/* authorisation */ '');

FILE_SCHEMA (('AUTOMOTIVE_DESIGN { 1 0 10303 214 3 1 1 }'));
ENDSEC;

DATA;
#10=MECHANICAL_DESIGN_GEOMETRIC_PRESENTATION_REPRESENTATION('',(#31,#32),
#374);
#11=ITEM_DEFINED_TRANSFORMATION($,$,#221,#236);
#12=ITEM_DEFINED_TRANSFORMATION($,$,#228,#237);
#13=ITEM_DEFINED_TRANSFORMATION($,$,#235,#239);
#14=ITEM_DEFINED_TRANSFORMATION($,$,#235,#240);
#15=(
REPRESENTATION_RELATIONSHIP($,$,#396,#398)
REPRESENTATION_RELATIONSHIP_WITH_TRANSFORMATION(#11)
SHAPE_REPRESENTATION_RELATIONSHIP()
);
#16=(
REPRESENTATION_RELATIONSHIP($,$,#397,#398)
REPRESENTATION_RELATIONSHIP_WITH_TRANSFORMATION(#12)
SHAPE_REPRESENTATION_RELATIONSHIP()
);
#17=(
REPRESENTATION_RELATIONSHIP($,$,#398,#399)
REPRESENTATION_RELATIONSHIP_WITH_TRANSFORMATION(#13)
SHAPE_REPRESENTATION_RELATIONSHIP()
);
#18=(
REPRESENTATION_RELATIONSHIP($,$,#398,#399)
REPRESENTATION_RELATIONSHIP_WITH_TRANSFORMATION(#14)
SHAPE_REPRESENTATION_RELATIONSHIP()
);
#19=CONTEXT_DEPENDENT_SHAPE_REPRESENTATION(#15,#391);
#20=CONTEXT_DEPENDENT_SHAPE_REPRESENTATION(#16,#392);
#21=CONTEXT_DEPENDENT_SHAPE_REPRESENTATION(#17,#394);
#22=CONTEXT_DEPENDENT_SHAPE_REPRESENTATION(#18,#395);
#23=NEXT_ASSEMBLY_USAGE_OCCURRENCE('Part:1','Part:1','Part:1',#403,#401,
'Part:1');
#24=NEXT_ASSEMBLY_USAGE_OCCURRENCE('Part2:1','Part2:1','Part2:1',#403,#402,
'Part2:1');
#25=NEXT_ASSEMBLY_USAGE_OCCURRENCE('Hex_SubAssy:1','Hex_SubAssy:1',
'Hex_SubAssy:1',#404,#403,'Hex_SubAssy:1');
#26=NEXT_ASSEMBLY_USAGE_OCCURRENCE('Hex_SubAssy:2','Hex_SubAssy:2',
'Hex_SubAssy:2',#404,#403,'Hex_SubAssy:2');
#27=SHAPE_REPRESENTATION_RELATIONSHIP('SRR','None',#396,#29);
#28=SHAPE_REPRESENTATION_RELATIONSHIP('SRR','None',#397,#30);
#29=ADVANCED_BREP_SHAPE_REPRESENTATION('',(#33),#370);
#30=ADVANCED_BREP_SHAPE_REPRESENTATION('',(#34),#371);
#31=STYLED_ITEM('',(#420),#33);
#32=STYLED_ITEM('',(#420),#34);
#33=MANIFOLD_SOLID_BREP('Solid1',#219);
#34=MANIFOLD_SOLID_BREP('Solid1',#220);
#35=FACE_OUTER_BOUND('',#47,.T.);
#36=FACE_OUTER_BOUND('',#48,.T.);
#37=FACE_OUTER_BOUND('',#49,.T.);
#38=FACE_OUTER_BOUND('',#50,.T.);
#39=FACE_OUTER_BOUND('',#51,.T.);
#40=FACE_OUTER_BOUND('',#52,.T.);
#41=FACE_OUTER_BOUND('',#53,.T.);
#42=FACE_OUTER_BOUND('',#54,.T.);
#43=FACE_OUTER_BOUND('',#55,.T.);
#44=FACE_OUTER_BOUND('',#56,.T.);
#45=FACE_OUTER_BOUND('',#57,.T.);
#46=FACE_OUTER_BOUND('',#58,.T.);
#47=EDGE_LOOP('',(#147,#148,#149,#150));
#48=EDGE_LOOP('',(#151,#152,#153,#154));
#49=EDGE_LOOP('',(#155,#156,#157,#158));
#50=EDGE_LOOP('',(#159,#160,#161,#162));
#51=EDGE_LOOP('',(#163,#164,#165,#166));
#52=EDGE_LOOP('',(#167,#168,#169,#170));
#53=EDGE_LOOP('',(#171,#172,#173,#174));
#54=EDGE_LOOP('',(#175,#176,#177,#178));
#55=EDGE_LOOP('',(#179,#180,#181,#182));
#56=EDGE_LOOP('',(#183,#184,#185,#186));
#57=EDGE_LOOP('',(#187,#188,#189,#190));
#58=EDGE_LOOP('',(#191,#192,#193,#194));
#59=LINE('',#309,#83);
#60=LINE('',#311,#84);
#61=LINE('',#313,#85);
#62=LINE('',#314,#86);
#63=LINE('',#317,#87);
#64=LINE('',#319,#88);
#65=LINE('',#320,#89);
#66=LINE('',#324,#90);
#67=LINE('',#325,#91);
#68=LINE('',#326,#92);
#69=LINE('',#328,#93);
#70=LINE('',#330,#94);
#71=LINE('',#336,#95);
#72=LINE('',#338,#96);
#73=LINE('',#340,#97);
#74=LINE('',#341,#98);
#75=LINE('',#344,#99);
#76=LINE('',#346,#100);
#77=LINE('',#347,#101);
#78=LINE('',#351,#102);
#79=LINE('',#352,#103);
#80=LINE('',#353,#104);
#81=LINE('',#355,#105);
#82=LINE('',#357,#106);
#83=VECTOR('',#245,1.15470053837925);
#84=VECTOR('',#246,0.75);
#85=VECTOR('',#247,1.15470053837925);
#86=VECTOR('',#248,0.75);
#87=VECTOR('',#251,2.30964973081037);
#88=VECTOR('',#252,1.15470053837925);
#89=VECTOR('',#253,2.30964973081037);
#90=VECTOR('',#256,1.15470053837925);
#91=VECTOR('',#257,0.75);
#92=VECTOR('',#258,0.75);
#93=VECTOR('',#261,2.30964973081037);
#94=VECTOR('',#264,2.30964973081037);
#95=VECTOR('',#271,1.15470053837925);
#96=VECTOR('',#272,0.75);
#97=VECTOR('',#273,1.15470053837925);
#98=VECTOR('',#274,0.75);
#99=VECTOR('',#277,2.30964973081037);
#100=VECTOR('',#278,1.15470053837925);
#101=VECTOR('',#279,2.30964973081037);
#102=VECTOR('',#282,1.15470053837925);
#103=VECTOR('',#283,0.75);
#104=VECTOR('',#284,0.75);
#105=VECTOR('',#287,2.30964973081037);
#106=VECTOR('',#290,2.30964973081037);
#107=VERTEX_POINT('',#307);
#108=VERTEX_POINT('',#308);
#109=VERTEX_POINT('',#310);
#110=VERTEX_POINT('',#312);
#111=VERTEX_POINT('',#316);
#112=VERTEX_POINT('',#318);
#113=VERTEX_POINT('',#322);
#114=VERTEX_POINT('',#323);
#115=VERTEX_POINT('',#334);
#116=VERTEX_POINT('',#335);
#117=VERTEX_POINT('',#337);
#118=VERTEX_POINT('',#339);
#119=VERTEX_POINT('',#343);
#120=VERTEX_POINT('',#345);
#121=VERTEX_POINT('',#349);
#122=VERTEX_POINT('',#350);
#123=EDGE_CURVE('',#107,#108,#59,.T.);
#124=EDGE_CURVE('',#108,#109,#60,.T.);
#125=EDGE_CURVE('',#109,#110,#61,.T.);
#126=EDGE_CURVE('',#110,#107,#62,.T.);
#127=EDGE_CURVE('',#111,#109,#63,.T.);
#128=EDGE_CURVE('',#112,#111,#64,.T.);
#129=EDGE_CURVE('',#110,#112,#65,.T.);
#130=EDGE_CURVE('',#113,#114,#66,.T.);
#131=EDGE_CURVE('',#114,#112,#67,.T.);
#132=EDGE_CURVE('',#111,#113,#68,.T.);
#133=EDGE_CURVE('',#107,#114,#69,.T.);
#134=EDGE_CURVE('',#113,#108,#70,.T.);
#135=EDGE_CURVE('',#115,#116,#71,.T.);
#136=EDGE_CURVE('',#116,#117,#72,.T.);
#137=EDGE_CURVE('',#117,#118,#73,.T.);
#138=EDGE_CURVE('',#118,#115,#74,.T.);
#139=EDGE_CURVE('',#119,#117,#75,.T.);
#140=EDGE_CURVE('',#120,#119,#76,.T.);
#141=EDGE_CURVE('',#118,#120,#77,.T.);
#142=EDGE_CURVE('',#121,#122,#78,.T.);
#143=EDGE_CURVE('',#122,#120,#79,.T.);
#144=EDGE_CURVE('',#119,#121,#80,.T.);
#145=EDGE_CURVE('',#115,#122,#81,.T.);
#146=EDGE_CURVE('',#121,#116,#82,.T.);
#147=ORIENTED_EDGE('',*,*,#123,.T.);
#148=ORIENTED_EDGE('',*,*,#124,.T.);
#149=ORIENTED_EDGE('',*,*,#125,.T.);
#150=ORIENTED_EDGE('',*,*,#126,.T.);
#151=ORIENTED_EDGE('',*,*,#125,.F.);
#152=ORIENTED_EDGE('',*,*,#127,.F.);
#153=ORIENTED_EDGE('',*,*,#128,.F.);
#154=ORIENTED_EDGE('',*,*,#129,.F.);
#155=ORIENTED_EDGE('',*,*,#130,.T.);
#156=ORIENTED_EDGE('',*,*,#131,.T.);
#157=ORIENTED_EDGE('',*,*,#128,.T.);
#158=ORIENTED_EDGE('',*,*,#132,.T.);
#159=ORIENTED_EDGE('',*,*,#131,.F.);
#160=ORIENTED_EDGE('',*,*,#133,.F.);
#161=ORIENTED_EDGE('',*,*,#126,.F.);
#162=ORIENTED_EDGE('',*,*,#129,.T.);
#163=ORIENTED_EDGE('',*,*,#124,.F.);
#164=ORIENTED_EDGE('',*,*,#134,.F.);
#165=ORIENTED_EDGE('',*,*,#132,.F.);
#166=ORIENTED_EDGE('',*,*,#127,.T.);
#167=ORIENTED_EDGE('',*,*,#123,.F.);
#168=ORIENTED_EDGE('',*,*,#133,.T.);
#169=ORIENTED_EDGE('',*,*,#130,.F.);
#170=ORIENTED_EDGE('',*,*,#134,.T.);
#171=ORIENTED_EDGE('',*,*,#135,.T.);
#172=ORIENTED_EDGE('',*,*,#136,.T.);
#173=ORIENTED_EDGE('',*,*,#137,.T.);
#174=ORIENTED_EDGE('',*,*,#138,.T.);
#175=ORIENTED_EDGE('',*,*,#137,.F.);
#176=ORIENTED_EDGE('',*,*,#139,.F.);
#177=ORIENTED_EDGE('',*,*,#140,.F.);
#178=ORIENTED_EDGE('',*,*,#141,.F.);
#179=ORIENTED_EDGE('',*,*,#142,.T.);
#180=ORIENTED_EDGE('',*,*,#143,.T.);
#181=ORIENTED_EDGE('',*,*,#140,.T.);
#182=ORIENTED_EDGE('',*,*,#144,.T.);
#183=ORIENTED_EDGE('',*,*,#143,.F.);
#184=ORIENTED_EDGE('',*,*,#145,.F.);
#185=ORIENTED_EDGE('',*,*,#138,.F.);
#186=ORIENTED_EDGE('',*,*,#141,.T.);
#187=ORIENTED_EDGE('',*,*,#136,.F.);
#188=ORIENTED_EDGE('',*,*,#146,.F.);
#189=ORIENTED_EDGE('',*,*,#144,.F.);
#190=ORIENTED_EDGE('',*,*,#139,.T.);
#191=ORIENTED_EDGE('',*,*,#135,.F.);
#192=ORIENTED_EDGE('',*,*,#145,.T.);
#193=ORIENTED_EDGE('',*,*,#142,.F.);
#194=ORIENTED_EDGE('',*,*,#146,.T.);
#195=PLANE('',#222);
#196=PLANE('',#223);
#197=PLANE('',#224);
#198=PLANE('',#225);
#199=PLANE('',#226);
#200=PLANE('',#227);
#201=PLANE('',#229);
#202=PLANE('',#230);
#203=PLANE('',#231);
#204=PLANE('',#232);
#205=PLANE('',#233);
#206=PLANE('',#234);
#207=ADVANCED_FACE('',(#35),#195,.T.);
#208=ADVANCED_FACE('',(#36),#196,.F.);
#209=ADVANCED_FACE('',(#37),#197,.T.);
#210=ADVANCED_FACE('',(#38),#198,.T.);
#211=ADVANCED_FACE('',(#39),#199,.T.);
#212=ADVANCED_FACE('',(#40),#200,.T.);
#213=ADVANCED_FACE('',(#41),#201,.T.);
#214=ADVANCED_FACE('',(#42),#202,.F.);
#215=ADVANCED_FACE('',(#43),#203,.T.);
#216=ADVANCED_FACE('',(#44),#204,.T.);
#217=ADVANCED_FACE('',(#45),#205,.T.);
#218=ADVANCED_FACE('',(#46),#206,.T.);
#219=CLOSED_SHELL('',(#207,#208,#209,#210,#211,#212));
#220=CLOSED_SHELL('',(#213,#214,#215,#216,#217,#218));
#221=AXIS2_PLACEMENT_3D('placement',#305,#241,#242);
#222=AXIS2_PLACEMENT_3D('',#306,#243,#244);
#223=AXIS2_PLACEMENT_3D('',#315,#249,#250);
#224=AXIS2_PLACEMENT_3D('',#321,#254,#255);
#225=AXIS2_PLACEMENT_3D('',#327,#259,#260);
#226=AXIS2_PLACEMENT_3D('',#329,#262,#263);
#227=AXIS2_PLACEMENT_3D('',#331,#265,#266);
#228=AXIS2_PLACEMENT_3D('placement',#332,#267,#268);
#229=AXIS2_PLACEMENT_3D('',#333,#269,#270);
#230=AXIS2_PLACEMENT_3D('',#342,#275,#276);
#231=AXIS2_PLACEMENT_3D('',#348,#280,#281);
#232=AXIS2_PLACEMENT_3D('',#354,#285,#286);
#233=AXIS2_PLACEMENT_3D('',#356,#288,#289);
#234=AXIS2_PLACEMENT_3D('',#358,#291,#292);
#235=AXIS2_PLACEMENT_3D('placement',#359,#293,#294);
#236=AXIS2_PLACEMENT_3D('',#360,#295,#296);
#237=AXIS2_PLACEMENT_3D('',#361,#297,#298);
#238=AXIS2_PLACEMENT_3D('placement',#362,#299,#300);
#239=AXIS2_PLACEMENT_3D('',#363,#301,#302);
#240=AXIS2_PLACEMENT_3D('',#364,#303,#304);
#241=DIRECTION('axis',(0.,0.,1.));
#242=DIRECTION('refdir',(1.,0.,0.));
#243=DIRECTION('center_axis',(-0.866025403784439,0.5,0.));
#244=DIRECTION('ref_axis',(0.,0.,1.));
#245=DIRECTION('',(0.5,0.866025403784439,0.));
#246=DIRECTION('',(0.,0.,-1.));
#247=DIRECTION('',(-0.5,-0.866025403784439,0.));
#248=DIRECTION('',(0.,0.,1.));
#249=DIRECTION('center_axis',(0.,0.,1.));
#250=DIRECTION('ref_axis',(1.,0.,0.));
#251=DIRECTION('',(-1.,-1.21121074883625E-16,0.));
#252=DIRECTION('',(0.5,0.866025403784439,0.));
#253=DIRECTION('',(1.,0.,0.));
#254=DIRECTION('center_axis',(0.866025403784439,-0.5,0.));
#255=DIRECTION('ref_axis',(0.,0.,-1.));
#256=DIRECTION('',(-0.5,-0.866025403784439,0.));
#257=DIRECTION('',(0.,0.,-1.));
#258=DIRECTION('',(0.,0.,1.));
#259=DIRECTION('center_axis',(0.,-1.,0.));
#260=DIRECTION('ref_axis',(1.,0.,0.));
#261=DIRECTION('',(1.,0.,0.));
#262=DIRECTION('center_axis',(-1.21121074883625E-16,1.,0.));
#263=DIRECTION('ref_axis',(-1.,0.,0.));
#264=DIRECTION('',(-1.,-1.21121074883625E-16,0.));
#265=DIRECTION('center_axis',(0.,0.,1.));
#266=DIRECTION('ref_axis',(1.,0.,0.));
#267=DIRECTION('axis',(0.,0.,1.));
#268=DIRECTION('refdir',(1.,0.,0.));
#269=DIRECTION('center_axis',(-0.866025403784439,0.5,0.));
#270=DIRECTION('ref_axis',(0.,0.,1.));
#271=DIRECTION('',(0.5,0.866025403784439,0.));
#272=DIRECTION('',(0.,0.,-1.));
#273=DIRECTION('',(-0.5,-0.866025403784439,0.));
#274=DIRECTION('',(0.,0.,1.));
#275=DIRECTION('center_axis',(0.,0.,1.));
#276=DIRECTION('ref_axis',(1.,0.,0.));
#277=DIRECTION('',(-1.,-1.21121074883625E-16,0.));
#278=DIRECTION('',(0.5,0.866025403784439,0.));
#279=DIRECTION('',(1.,0.,0.));
#280=DIRECTION('center_axis',(0.866025403784439,-0.5,0.));
#281=DIRECTION('ref_axis',(0.,0.,-1.));
#282=DIRECTION('',(-0.5,-0.866025403784439,0.));
#283=DIRECTION('',(0.,0.,-1.));
#284=DIRECTION('',(0.,0.,1.));
#285=DIRECTION('center_axis',(0.,-1.,0.));
#286=DIRECTION('ref_axis',(1.,0.,0.));
#287=DIRECTION('',(1.,0.,0.));
#288=DIRECTION('center_axis',(-1.21121074883625E-16,1.,0.));
#289=DIRECTION('ref_axis',(-1.,0.,0.));
#290=DIRECTION('',(-1.,-1.21121074883625E-16,0.));
#291=DIRECTION('center_axis',(0.,0.,1.));
#292=DIRECTION('ref_axis',(1.,0.,0.));
#293=DIRECTION('axis',(0.,0.,1.));
#294=DIRECTION('refdir',(1.,0.,0.));
#295=DIRECTION('',(-5.55111512312578E-17,1.33319145925967E-16,1.));
#296=DIRECTION('',(0.5,-0.866025403784438,1.43213342798361E-16));
#297=DIRECTION('',(-5.55111512312578E-17,2.40173609332067E-16,1.));
#298=DIRECTION('',(1.,2.66646270987787E-32,5.55111512312578E-17));
#299=DIRECTION('axis',(0.,0.,1.));
#300=DIRECTION('refdir',(1.,0.,0.));
#301=DIRECTION('',(1.22756473831401E-16,6.13585290464574E-16,1.));
#302=DIRECTION('',(-0.500000000000004,0.866025403784436,-4.70002212015073E-16));
#303=DIRECTION('',(-2.62958342858953E-16,6.32170796267969E-16,1.));
#304=DIRECTION('',(-1.,-5.24580379135387E-15,-2.62958342858949E-16));
#305=CARTESIAN_POINT('',(0.,0.,0.));
#306=CARTESIAN_POINT('Origin',(0.288675134594813,0.5,0.));
#307=CARTESIAN_POINT('',(0.,0.,0.75));
#308=CARTESIAN_POINT('',(0.577350269189625,1.,0.75));
#309=CARTESIAN_POINT('',(0.433028242770461,0.750026917590709,0.75));
#310=CARTESIAN_POINT('',(0.577350269189625,1.,0.));
#311=CARTESIAN_POINT('',(0.577350269189625,1.,0.));
#312=CARTESIAN_POINT('',(0.,0.,0.));
#313=CARTESIAN_POINT('',(0.433028242770461,0.750026917590709,0.));
#314=CARTESIAN_POINT('',(0.,0.,0.));
#315=CARTESIAN_POINT('Origin',(1.4435,0.5,0.));
#316=CARTESIAN_POINT('',(2.887,1.,0.));
#317=CARTESIAN_POINT('',(2.887,1.,0.));
#318=CARTESIAN_POINT('',(2.30964973081037,0.,0.));
#319=CARTESIAN_POINT('',(2.45397175722954,0.249973082409291,0.));
#320=CARTESIAN_POINT('',(0.,0.,0.));
#321=CARTESIAN_POINT('Origin',(2.59832486540519,0.5,0.));
#322=CARTESIAN_POINT('',(2.887,1.,0.75));
#323=CARTESIAN_POINT('',(2.30964973081037,0.,0.75));
#324=CARTESIAN_POINT('',(2.45397175722954,0.249973082409291,0.75));
#325=CARTESIAN_POINT('',(2.30964973081037,0.,0.));
#326=CARTESIAN_POINT('',(2.887,1.,0.));
#327=CARTESIAN_POINT('Origin',(0.,0.,0.));
#328=CARTESIAN_POINT('',(0.,0.,0.75));
#329=CARTESIAN_POINT('Origin',(2.887,1.,0.));
#330=CARTESIAN_POINT('',(2.887,1.,0.75));
#331=CARTESIAN_POINT('Origin',(1.4435,0.5,0.75));
#332=CARTESIAN_POINT('',(0.,0.,0.));
#333=CARTESIAN_POINT('Origin',(0.288675134594813,0.5,0.));
#334=CARTESIAN_POINT('',(0.,0.,0.75));
#335=CARTESIAN_POINT('',(0.577350269189625,1.,0.75));
#336=CARTESIAN_POINT('',(0.433028242770461,0.750026917590709,0.75));
#337=CARTESIAN_POINT('',(0.577350269189625,1.,0.));
#338=CARTESIAN_POINT('',(0.577350269189625,1.,0.));
#339=CARTESIAN_POINT('',(0.,0.,0.));
#340=CARTESIAN_POINT('',(0.433028242770461,0.750026917590709,0.));
#341=CARTESIAN_POINT('',(0.,0.,0.));
#342=CARTESIAN_POINT('Origin',(1.4435,0.5,0.));
#343=CARTESIAN_POINT('',(2.887,1.,0.));
#344=CARTESIAN_POINT('',(2.887,1.,0.));
#345=CARTESIAN_POINT('',(2.30964973081037,0.,0.));
#346=CARTESIAN_POINT('',(2.45397175722954,0.249973082409291,0.));
#347=CARTESIAN_POINT('',(0.,0.,0.));
#348=CARTESIAN_POINT('Origin',(2.59832486540519,0.5,0.));
#349=CARTESIAN_POINT('',(2.887,1.,0.75));
#350=CARTESIAN_POINT('',(2.30964973081037,0.,0.75));
#351=CARTESIAN_POINT('',(2.45397175722954,0.249973082409291,0.75));
#352=CARTESIAN_POINT('',(2.30964973081037,0.,0.));
#353=CARTESIAN_POINT('',(2.887,1.,0.));
#354=CARTESIAN_POINT('Origin',(0.,0.,0.));
#355=CARTESIAN_POINT('',(0.,0.,0.75));
#356=CARTESIAN_POINT('Origin',(2.887,1.,0.));
#357=CARTESIAN_POINT('',(2.887,1.,0.75));
#358=CARTESIAN_POINT('Origin',(1.4435,0.5,0.75));
#359=CARTESIAN_POINT('',(0.,0.,0.));
#360=CARTESIAN_POINT('',(-2.52525315240504,2.93993355399886,-0.511089800816461));
#361=CARTESIAN_POINT('',(-3.1027277486206,-0.0602817867268105,-0.51108980081646));
#362=CARTESIAN_POINT('',(0.,0.,0.));
#363=CARTESIAN_POINT('',(-1.27024111167898,-3.46474534041181,-2.81975225717663));
#364=CARTESIAN_POINT('',(-3.34674969648796,-5.18192728510755,-2.06975225717663));
#365=UNCERTAINTY_MEASURE_WITH_UNIT(LENGTH_MEASURE(0.000393700787401575),
#375,'DISTANCE_ACCURACY_VALUE',
'Maximum model space distance between geometric entities at asserted c
onnectivities');
#366=UNCERTAINTY_MEASURE_WITH_UNIT(LENGTH_MEASURE(0.000393700787401575),
#375,'DISTANCE_ACCURACY_VALUE',
'Maximum model space distance between geometric entities at asserted c
onnectivities');
#367=UNCERTAINTY_MEASURE_WITH_UNIT(LENGTH_MEASURE(0.000393700787401575),
#375,'DISTANCE_ACCURACY_VALUE',
'Maximum model space distance between geometric entities at asserted c
onnectivities');
#368=UNCERTAINTY_MEASURE_WITH_UNIT(LENGTH_MEASURE(0.000393700787401575),
#375,'DISTANCE_ACCURACY_VALUE',
'Maximum model space distance between geometric entities at asserted c
onnectivities');
#369=UNCERTAINTY_MEASURE_WITH_UNIT(LENGTH_MEASURE(1.E-6),#376,
'DISTANCE_ACCURACY_VALUE',
'Maximum model space distance between geometric entities at asserted c
onnectivities');
#370=(
GEOMETRIC_REPRESENTATION_CONTEXT(3)
GLOBAL_UNCERTAINTY_ASSIGNED_CONTEXT((#365))
GLOBAL_UNIT_ASSIGNED_CONTEXT((#375,#381,#378))
REPRESENTATION_CONTEXT('','3D')
);
#371=(
GEOMETRIC_REPRESENTATION_CONTEXT(3)
GLOBAL_UNCERTAINTY_ASSIGNED_CONTEXT((#366))
GLOBAL_UNIT_ASSIGNED_CONTEXT((#375,#381,#378))
REPRESENTATION_CONTEXT('','3D')
);
#372=(
GEOMETRIC_REPRESENTATION_CONTEXT(3)
GLOBAL_UNCERTAINTY_ASSIGNED_CONTEXT((#367))
GLOBAL_UNIT_ASSIGNED_CONTEXT((#375,#381,#378))
REPRESENTATION_CONTEXT('','3D')
);
#373=(
GEOMETRIC_REPRESENTATION_CONTEXT(3)
GLOBAL_UNCERTAINTY_ASSIGNED_CONTEXT((#368))
GLOBAL_UNIT_ASSIGNED_CONTEXT((#375,#381,#378))
REPRESENTATION_CONTEXT('','3D')
);
#374=(
GEOMETRIC_REPRESENTATION_CONTEXT(3)
GLOBAL_UNCERTAINTY_ASSIGNED_CONTEXT((#369))
GLOBAL_UNIT_ASSIGNED_CONTEXT((#376,#381,#378))
REPRESENTATION_CONTEXT('','3D')
);
#375=(
CONVERSION_BASED_UNIT('__CONSTANT UNIT inch',#377)
LENGTH_UNIT()
NAMED_UNIT(#380)
);
#376=(
LENGTH_UNIT()
NAMED_UNIT(*)
SI_UNIT(.MILLI.,.METRE.)
);
#377=LENGTH_MEASURE_WITH_UNIT(LENGTH_MEASURE(25.4),#376);
#378=(
NAMED_UNIT(*)
SI_UNIT($,.STERADIAN.)
SOLID_ANGLE_UNIT()
);
#379=DIMENSIONAL_EXPONENTS(0.,0.,0.,0.,0.,0.,0.);
#380=DIMENSIONAL_EXPONENTS(1.,0.,0.,0.,0.,0.,0.);
#381=(
CONVERSION_BASED_UNIT('degree',#383)
NAMED_UNIT(#379)
PLANE_ANGLE_UNIT()
);
#382=(
NAMED_UNIT(*)
PLANE_ANGLE_UNIT()
SI_UNIT($,.RADIAN.)
);
#383=PLANE_ANGLE_MEASURE_WITH_UNIT(PLANE_ANGLE_MEASURE(0.01745329252),#382);
#384=SHAPE_DEFINITION_REPRESENTATION(#388,#396);
#385=SHAPE_DEFINITION_REPRESENTATION(#389,#397);
#386=SHAPE_DEFINITION_REPRESENTATION(#390,#398);
#387=SHAPE_DEFINITION_REPRESENTATION(#393,#399);
#388=PRODUCT_DEFINITION_SHAPE('',$,#401);
#389=PRODUCT_DEFINITION_SHAPE('',$,#402);
#390=PRODUCT_DEFINITION_SHAPE('',$,#403);
#391=PRODUCT_DEFINITION_SHAPE($,$,#23);
#392=PRODUCT_DEFINITION_SHAPE($,$,#24);
#393=PRODUCT_DEFINITION_SHAPE('',$,#404);
#394=PRODUCT_DEFINITION_SHAPE($,$,#25);
#395=PRODUCT_DEFINITION_SHAPE($,$,#26);
#396=SHAPE_REPRESENTATION('',(#221),#370);
#397=SHAPE_REPRESENTATION('',(#228),#371);
#398=SHAPE_REPRESENTATION('',(#235,#236,#237),#372);
#399=SHAPE_REPRESENTATION('',(#238,#239,#240),#373);
#400=PRODUCT_DEFINITION_CONTEXT('part definition',#414,'design');
#401=PRODUCT_DEFINITION('Part','Part',#405,#400);
#402=PRODUCT_DEFINITION('Part2','Part2',#406,#400);
#403=PRODUCT_DEFINITION('Hex_SubAssy','Hex_SubAssy',#407,#400);
#404=PRODUCT_DEFINITION('Hex_SubAssy1','Hex_SubAssy1',#408,#400);
#405=PRODUCT_DEFINITION_FORMATION('',$,#416);
#406=PRODUCT_DEFINITION_FORMATION('',$,#417);
#407=PRODUCT_DEFINITION_FORMATION('',$,#418);
#408=PRODUCT_DEFINITION_FORMATION('',$,#419);
#409=PRODUCT_RELATED_PRODUCT_CATEGORY('Part','Part',(#416));
#410=PRODUCT_RELATED_PRODUCT_CATEGORY('Part2','Part2',(#417));
#411=PRODUCT_RELATED_PRODUCT_CATEGORY('Hex_SubAssy','Hex_SubAssy',(#418));
#412=PRODUCT_RELATED_PRODUCT_CATEGORY('Hex_SubAssy1','Hex_SubAssy1',(#419));
#413=APPLICATION_PROTOCOL_DEFINITION('international standard',
'automotive_design',2009,#414);
#414=APPLICATION_CONTEXT(
'Core Data for Automotive Mechanical Design Process');
#415=PRODUCT_CONTEXT('part definition',#414,'mechanical');
#416=PRODUCT('Part','Part',$,(#415));
#417=PRODUCT('Part2','Part2',$,(#415));
#418=PRODUCT('Hex_SubAssy','Hex_SubAssy',$,(#415));
#419=PRODUCT('Hex_SubAssy1','Hex_SubAssy1',$,(#415));
#420=PRESENTATION_STYLE_ASSIGNMENT((#421));
#421=SURFACE_STYLE_USAGE(.BOTH.,#422);
#422=SURFACE_SIDE_STYLE('',(#423));
#423=SURFACE_STYLE_FILL_AREA(#424);
#424=FILL_AREA_STYLE('',(#425));
#425=FILL_AREA_STYLE_COLOUR('',#426);
#426=COLOUR_RGB('',0.890196078431373,0.666666666666667,0.501960784313725);
ENDSEC;
END-ISO-10303-21;
