  0
SECTION
  2
HEADER
  9
$ACADVER
  1
AC1021
  9
$ACADMAINTVER
 70
    25
  9
$DWGCODEPAGE
  3
ANSI_1252
  9
$INSBASE
 10
0.0
 20
0.0
 30
0.0
  9
$EXTMIN
 10
-13.23538976377953
 20
-16.78714960629921
 30
0.0
  9
$EXTMAX
 10
13.86661417322835
 20
16.22422047244094
 30
0.0
  9
$LIMMIN
 10
0.0
 20
0.0
  9
$LIMMAX
 10
12.0
 20
9.0
  9
$ORTHOMODE
 70
     0
  9
$REGENMODE
 70
     1
  9
$FILLMODE
 70
     1
  9
$QTEXTMODE
 70
     0
  9
$MIRRTEXT
 70
     1
  9
$LTSCALE
 40
1.0
  9
$ATTMODE
 70
     1
  9
$TEXTSIZE
 40
0.2
  9
$TRACEWID
 40
0.05
  9
$TEXTSTYLE
  7
Standard
  9
$CLAYER
  8
0
  9
$CELTYPE
  6
ByLayer
  9
$CECOLOR
 62
   256
  9
$CELTSCALE
 40
1.0
  9
$DISPSILH
 70
     0
  9
$DIMSCALE
 40
1.0
  9
$DIMASZ
 40
0.18
  9
$DIMEXO
 40
0.0625
  9
$DIMDLI
 40
0.38
  9
$DIMRND
 40
0.0
  9
$DIMDLE
 40
0.0
  9
$DIMEXE
 40
0.18
  9
$DIMTP
 40
0.0
  9
$DIMTM
 40
0.0
  9
$DIMTXT
 40
0.18
  9
$DIMCEN
 40
0.09
  9
$DIMTSZ
 40
0.0
  9
$DIMTOL
 70
     0
  9
$DIMLIM
 70
     0
  9
$DIMTIH
 70
     1
  9
$DIMTOH
 70
     1
  9
$DIMSE1
 70
     0
  9
$DIMSE2
 70
     0
  9
$DIMTAD
 70
     0
  9
$DIMZIN
 70
     0
  9
$DIMBLK
  1

  9
$DIMASO
 70
     1
  9
$DIMSHO
 70
     1
  9
$DIMPOST
  1

  9
$DIMAPOST
  1

  9
$DIMALT
 70
     0
  9
$DIMALTD
 70
     2
  9
$DIMALTF
 40
25.4
  9
$DIMLFAC
 40
1.0
  9
$DIMTOFL
 70
     0
  9
$DIMTVP
 40
0.0
  9
$DIMTIX
 70
     0
  9
$DIMSOXD
 70
     0
  9
$DIMSAH
 70
     0
  9
$DIMBLK1
  1

  9
$DIMBLK2
  1

  9
$DIMSTYLE
  2
Standard
  9
$DIMCLRD
 70
     0
  9
$DIMCLRE
 70
     0
  9
$DIMCLRT
 70
     0
  9
$DIMTFAC
 40
1.0
  9
$DIMGAP
 40
0.09
  9
$DIMJUST
 70
     0
  9
$DIMSD1
 70
     0
  9
$DIMSD2
 70
     0
  9
$DIMTOLJ
 70
     1
  9
$DIMTZIN
 70
     0
  9
$DIMALTZ
 70
     0
  9
$DIMALTTZ
 70
     0
  9
$DIMUPT
 70
     0
  9
$DIMDEC
 70
     4
  9
$DIMTDEC
 70
     4
  9
$DIMALTU
 70
     2
  9
$DIMALTTD
 70
     2
  9
$DIMTXSTY
  7
Standard
  9
$DIMAUNIT
 70
     0
  9
$DIMADEC
 70
     0
  9
$DIMALTRND
 40
0.0
  9
$DIMAZIN
 70
     0
  9
$DIMDSEP
 70
    46
  9
$DIMATFIT
 70
     3
  9
$DIMFRAC
 70
     0
  9
$DIMLDRBLK
  1

  9
$DIMLUNIT
 70
     2
  9
$DIMLWD
 70
    -2
  9
$DIMLWE
 70
    -2
  9
$DIMTMOVE
 70
     0
  9
$DIMFXL
 40
1.0
  9
$DIMFXLON
 70
     0
  9
$DIMJOGANG
 40
0.7853981633974483
  9
$DIMTFILL
 70
     0
  9
$DIMTFILLCLR
 70
     0
  9
$DIMARCSYM
 70
     0
  9
$DIMLTYPE
  6

  9
$DIMLTEX1
  6

  9
$DIMLTEX2
  6

  9
$LUNITS
 70
     2
  9
$LUPREC
 70
     4
  9
$SKETCHINC
 40
0.1
  9
$FILLETRAD
 40
0.5
  9
$AUNITS
 70
     0
  9
$AUPREC
 70
     0
  9
$MENU
  1
.
  9
$ELEVATION
 40
0.0
  9
$PELEVATION
 40
0.0
  9
$THICKNESS
 40
0.0
  9
$LIMCHECK
 70
     0
  9
$CHAMFERA
 40
0.5
  9
$CHAMFERB
 40
0.5
  9
$CHAMFERC
 40
1.0
  9
$CHAMFERD
 40
0.0
  9
$SKPOLY
 70
     0
  9
$TDCREATE
 40
2455565.487054826
  9
$TDUCREATE
 40
2455565.862054826
  9
$TDUPDATE
 40
2455565.487054838
  9
$TDUUPDATE
 40
2455565.862054838
  9
$TDINDWG
 40
0.0000000116
  9
$TDUSRTIMER
 40
0.0000000116
  9
$USRTIMER
 70
     1
  9
$ANGBASE
 50
0.0
  9
$ANGDIR
 70
     0
  9
$PDMODE
 70
     0
  9
$PDSIZE
 40
0.0
  9
$PLINEWID
 40
0.0
  9
$SPLFRAME
 70
     0
  9
$SPLINETYPE
 70
     6
  9
$SPLINESEGS
 70
     8
  9
$HANDSEED
  5
1A3
  9
$SURFTAB1
 70
     6
  9
$SURFTAB2
 70
     6
  9
$SURFTYPE
 70
     6
  9
$SURFU
 70
     6
  9
$SURFV
 70
     6
  9
$UCSBASE
  2

  9
$UCSNAME
  2

  9
$UCSORG
 10
0.0
 20
0.0
 30
0.0
  9
$UCSXDIR
 10
1.0
 20
0.0
 30
0.0
  9
$UCSYDIR
 10
0.0
 20
1.0
 30
0.0
  9
$UCSORTHOREF
  2

  9
$UCSORTHOVIEW
 70
     0
  9
$UCSORGTOP
 10
0.0
 20
0.0
 30
0.0
  9
$UCSORGBOTTOM
 10
0.0
 20
0.0
 30
0.0
  9
$UCSORGLEFT
 10
0.0
 20
0.0
 30
0.0
  9
$UCSORGRIGHT
 10
0.0
 20
0.0
 30
0.0
  9
$UCSORGFRONT
 10
0.0
 20
0.0
 30
0.0
  9
$UCSORGBACK
 10
0.0
 20
0.0
 30
0.0
  9
$PUCSBASE
  2

  9
$PUCSNAME
  2

  9
$PUCSORG
 10
0.0
 20
0.0
 30
0.0
  9
$PUCSXDIR
 10
1.0
 20
0.0
 30
0.0
  9
$PUCSYDIR
 10
0.0
 20
1.0
 30
0.0
  9
$PUCSORTHOREF
  2

  9
$PUCSORTHOVIEW
 70
     0
  9
$PUCSORGTOP
 10
0.0
 20
0.0
 30
0.0
  9
$PUCSORGBOTTOM
 10
0.0
 20
0.0
 30
0.0
  9
$PUCSORGLEFT
 10
0.0
 20
0.0
 30
0.0
  9
$PUCSORGRIGHT
 10
0.0
 20
0.0
 30
0.0
  9
$PUCSORGFRONT
 10
0.0
 20
0.0
 30
0.0
  9
$PUCSORGBACK
 10
0.0
 20
0.0
 30
0.0
  9
$USERI1
 70
     0
  9
$USERI2
 70
     0
  9
$USERI3
 70
     0
  9
$USERI4
 70
     0
  9
$USERI5
 70
     0
  9
$USERR1
 40
0.0
  9
$USERR2
 40
0.0
  9
$USERR3
 40
0.0
  9
$USERR4
 40
0.0
  9
$USERR5
 40
0.0
  9
$WORLDVIEW
 70
     1
  9
$SHADEDGE
 70
     3
  9
$SHADEDIF
 70
    70
  9
$TILEMODE
 70
     1
  9
$MAXACTVP
 70
    64
  9
$PINSBASE
 10
0.0
 20
0.0
 30
0.0
  9
$PLIMCHECK
 70
     0
  9
$PEXTMIN
 10
1.000000000000000E+20
 20
1.000000000000000E+20
 30
1.000000000000000E+20
  9
$PEXTMAX
 10
-1.000000000000000E+20
 20
-1.000000000000000E+20
 30
-1.000000000000000E+20
  9
$PLIMMIN
 10
0.0
 20
0.0
  9
$PLIMMAX
 10
12.0
 20
9.0
  9
$UNITMODE
 70
     0
  9
$VISRETAIN
 70
     1
  9
$PLINEGEN
 70
     0
  9
$PSLTSCALE
 70
     1
  9
$TREEDEPTH
 70
  3020
  9
$CMLSTYLE
  2
Standard
  9
$CMLJUST
 70
     0
  9
$CMLSCALE
 40
1.0
  9
$PROXYGRAPHICS
 70
     1
  9
$MEASUREMENT
 70
     0
  9
$CELWEIGHT
370
    -1
  9
$ENDCAPS
280
     0
  9
$JOINSTYLE
280
     0
  9
$LWDISPLAY
290
     0
  9
$INSUNITS
 70
     1
  9
$HYPERLINKBASE
  1

  9
$STYLESHEET
  1

  9
$XEDIT
290
     1
  9
$CEPSNTYPE
380
     0
  9
$PSTYLEMODE
290
     1
  9
$FINGERPRINTGUID
  2
{A369D414-F758-455F-822E-8CA1799E1F14}
  9
$VERSIONGUID
  2
{FAEB1C32-E019-11D5-929B-00C0DF256EC4}
  9
$EXTNAMES
290
     1
  9
$PSVPSCALE
 40
0.0
  9
$OLESTARTUP
290
     0
  9
$SORTENTS
280
   127
  9
$INDEXCTL
280
     0
  9
$HIDETEXT
280
     1
  9
$XCLIPFRAME
290
     0
  9
$HALOGAP
280
     0
  9
$OBSCOLOR
 70
   257
  9
$OBSLTYPE
280
     0
  9
$INTERSECTIONDISPLAY
280
     0
  9
$INTERSECTIONCOLOR
 70
   257
  9
$DIMASSOC
280
     2
  9
$PROJECTNAME
  1

  9
$CAMERADISPLAY
290
     0
  9
$LENSLENGTH
 40
50.0
  9
$CAMERAHEIGHT
 40
0.0
  9
$STEPSPERSEC
 40
2.0
  9
$STEPSIZE
 40
6.0
  9
$3DDWFPREC
 40
2.0
  9
$PSOLWIDTH
 40
0.25
  9
$PSOLHEIGHT
 40
4.0
  9
$LOFTANG1
 40
1.570796326794897
  9
$LOFTANG2
 40
1.570796326794897
  9
$LOFTMAG1
 40
0.0
  9
$LOFTMAG2
 40
0.0
  9
$LOFTPARAM
 70
     7
  9
$LOFTNORMALS
280
     1
  9
$LATITUDE
 40
37.795
  9
$LONGITUDE
 40
-122.394
  9
$NORTHDIRECTION
 40
0.0
  9
$TIMEZONE
 70
 -8000
  9
$LIGHTGLYPHDISPLAY
280
     1
  9
$TILEMODELIGHTSYNCH
280
     1
  9
$SOLIDHIST
280
     1
  9
$SHOWHIST
280
     1
  9
$DWFFRAME
280
     2
  9
$DGNFRAME
280
     2
  9
$REALWORLDSCALE
290
     1
  9
$INTERFERECOLOR
 62
   256
  9
$CSHADOW
280
     0
  9
$SHADOWPLANELOCATION
 40
0.0
  0
ENDSEC
  0
SECTION
  2
CLASSES
  0
CLASS
  1
ACDBDICTIONARYWDFLT
  2
AcDbDictionaryWithDefault
  3
ObjectDBX Classes
 90
        0
 91
        3
280
     0
281
     0
  0
CLASS
  1
VISUALSTYLE
  2
AcDbVisualStyle
  3
ObjectDBX Classes
 90
     4095
 91
        3
280
     0
281
     0
  0
CLASS
  1
SCALE
  2
AcDbScale
  3
ObjectDBX Classes
 90
     1153
 91
        3
280
     0
281
     0
  0
ENDSEC
  0
SECTION
  2
TABLES
  0
TABLE
  2
VPORT
  5
8
330
0
100
AcDbSymbolTable
 70
     1
  0
VPORT
  5
29
330
8
100
AcDbSymbolTableRecord
100
AcDbViewportTableRecord
  2
*Active
 70
     0
 10
0.0
 20
0.0
 11
1.0
 21
1.0
 12
10.42990654205607
 22
4.5
 13
0.0
 23
0.0
 14
0.5
 24
0.5
 15
0.5
 25
0.5
 16
0.0
 26
0.0
 36
1.0
 17
0.0
 27
0.0
 37
0.0
 40
9.0
 41
1.972972972850329
 42
50.0
 43
0.0
 44
0.0
 50
0.0
 51
0.0
 71
     0
 72
   100
 73
     1
 74
     3
 75
     0
 76
     0
 77
     0
 78
     0
281
     0
 65
     1
110
0.0
120
0.0
130
0.0
111
1.0
121
0.0
131
0.0
112
0.0
122
1.0
132
0.0
 79
     0
146
0.0
 60
     3
 61
     5
292
     1
282
     1
141
0.0
142
0.0
 63
   256
  0
ENDTAB
  0
TABLE
  2
LTYPE
  5
5
330
0
100
AcDbSymbolTable
 70
     1
  0
LTYPE
  5
14
330
5
100
AcDbSymbolTableRecord
100
AcDbLinetypeTableRecord
  2
ByBlock
 70
     0
  3

 72
    65
 73
     0
 40
0.0
  0
LTYPE
  5
15
330
5
100
AcDbSymbolTableRecord
100
AcDbLinetypeTableRecord
  2
ByLayer
 70
     0
  3

 72
    65
 73
     0
 40
0.0
  0
LTYPE
  5
16
330
5
100
AcDbSymbolTableRecord
100
AcDbLinetypeTableRecord
  2
Continuous
 70
     0
  3
Solid line
 72
    65
 73
     0
 40
0.0
  0
ENDTAB
  0
TABLE
  2
LAYER
  5
2
330
0
100
AcDbSymbolTable
 70
     2
  0
LAYER
  5
10
330
2
100
AcDbSymbolTableRecord
100
AcDbLayerTableRecord
  2
0
 70
     0
 62
     7
  6
Continuous
370
    -3
390
F
347
0
  0
LAYER
  5
5E
330
2
100
AcDbSymbolTableRecord
100
AcDbLayerTableRecord
  2
Layer 1
 70
     0
 62
     7
  6
Continuous
370
    -3
390
F
347
0
  0
ENDTAB
  0
TABLE
  2
STYLE
  5
3
330
0
100
AcDbSymbolTable
 70
    21
  0
STYLE
  5
11
330
3
100
AcDbSymbolTableRecord
100
AcDbTextStyleTableRecord
  2
Standard
 70
     0
 40
0.0
 41
1.0
 50
0.0
 71
     0
 42
0.2
  3
txt
  4

  0
STYLE
  5
86
330
3
100
AcDbSymbolTableRecord
100
AcDbTextStyleTableRecord
  2
0
 70
     0
 40
1.0
 41
1.0
 50
0.0
 71
     0
 42
1.0
  3
Arial
  4

1001
ACAD
1000
Arial
1071
       34
  0
STYLE
  5
91
330
3
100
AcDbSymbolTableRecord
100
AcDbTextStyleTableRecord
  2
1
 70
     0
 40
1.0
 41
1.0
 50
0.0
 71
     0
 42
1.0
  3
Arial
  4

1001
ACAD
1000
Arial
1071
       34
  0
STYLE
  5
A0
330
3
100
AcDbSymbolTableRecord
100
AcDbTextStyleTableRecord
  2
2
 70
     0
 40
1.0
 41
1.0
 50
0.0
 71
     0
 42
1.0
  3
Arial
  4

1001
ACAD
1000
Arial
1071
       34
  0
STYLE
  5
A2
330
3
100
AcDbSymbolTableRecord
100
AcDbTextStyleTableRecord
  2
3
 70
     0
 40
1.0
 41
1.0
 50
0.0
 71
     0
 42
1.0
  3
Arial
  4

1001
ACAD
1000
Arial
1071
       34
  0
STYLE
  5
A9
330
3
100
AcDbSymbolTableRecord
100
AcDbTextStyleTableRecord
  2
4
 70
     0
 40
1.0
 41
1.0
 50
0.0
 71
     0
 42
1.0
  3
Arial
  4

1001
ACAD
1000
Arial
1071
       34
  0
STYLE
  5
F5
330
3
100
AcDbSymbolTableRecord
100
AcDbTextStyleTableRecord
  2
5
 70
     0
 40
1.0
 41
1.0
 50
0.0
 71
     0
 42
1.0
  3
Arial
  4

1001
ACAD
1000
Arial
1071
       34
  0
STYLE
  5
100
330
3
100
AcDbSymbolTableRecord
100
AcDbTextStyleTableRecord
  2
6
 70
     0
 40
1.0
 41
1.0
 50
0.0
 71
     0
 42
1.0
  3
Arial
  4

1001
ACAD
1000
Arial
1071
       34
  0
STYLE
  5
107
330
3
100
AcDbSymbolTableRecord
100
AcDbTextStyleTableRecord
  2
7
 70
     0
 40
1.0
 41
1.0
 50
0.0
 71
     0
 42
1.0
  3
Arial
  4

1001
ACAD
1000
Arial
1071
       34
  0
STYLE
  5
131
330
3
100
AcDbSymbolTableRecord
100
AcDbTextStyleTableRecord
  2
8
 70
     0
 40
1.0
 41
1.0
 50
0.0
 71
     0
 42
1.0
  3
Arial
  4

1001
ACAD
1000
Arial
1071
       34
  0
STYLE
  5
133
330
3
100
AcDbSymbolTableRecord
100
AcDbTextStyleTableRecord
  2
9
 70
     0
 40
1.0
 41
1.0
 50
0.0
 71
     0
 42
1.0
  3
Arial
  4

1001
ACAD
1000
Arial
1071
       34
  0
STYLE
  5
135
330
3
100
AcDbSymbolTableRecord
100
AcDbTextStyleTableRecord
  2
10
 70
     0
 40
1.0
 41
1.0
 50
0.0
 71
     0
 42
1.0
  3
Arial
  4

1001
ACAD
1000
Arial
1071
       34
  0
STYLE
  5
13E
330
3
100
AcDbSymbolTableRecord
100
AcDbTextStyleTableRecord
  2
11
 70
     0
 40
1.0
 41
1.0
 50
0.0
 71
     0
 42
1.0
  3
Arial
  4

1001
ACAD
1000
Arial
1071
       34
  0
STYLE
  5
140
330
3
100
AcDbSymbolTableRecord
100
AcDbTextStyleTableRecord
  2
12
 70
     0
 40
1.0
 41
1.0
 50
0.0
 71
     0
 42
1.0
  3
Arial
  4

1001
ACAD
1000
Arial
1071
       34
  0
STYLE
  5
142
330
3
100
AcDbSymbolTableRecord
100
AcDbTextStyleTableRecord
  2
13
 70
     0
 40
1.0
 41
1.0
 50
0.0
 71
     0
 42
1.0
  3
Arial
  4

1001
ACAD
1000
Arial
1071
       34
  0
STYLE
  5
15F
330
3
100
AcDbSymbolTableRecord
100
AcDbTextStyleTableRecord
  2
14
 70
     0
 40
1.0
 41
1.0
 50
0.0
 71
     0
 42
1.0
  3
Arial
  4

1001
ACAD
1000
Arial
1071
       34
  0
STYLE
  5
189
330
3
100
AcDbSymbolTableRecord
100
AcDbTextStyleTableRecord
  2
15
 70
     0
 40
1.0
 41
1.0
 50
0.0
 71
     0
 42
1.0
  3
Arial
  4

1001
ACAD
1000
Arial
1071
       34
  0
STYLE
  5
18E
330
3
100
AcDbSymbolTableRecord
100
AcDbTextStyleTableRecord
  2
16
 70
     0
 40
1.0
 41
1.0
 50
0.0
 71
     0
 42
1.0
  3
Arial
  4

1001
ACAD
1000
Arial
1071
       34
  0
STYLE
  5
191
330
3
100
AcDbSymbolTableRecord
100
AcDbTextStyleTableRecord
  2
17
 70
     0
 40
1.0
 41
1.0
 50
0.0
 71
     0
 42
1.0
  3
Arial
  4

1001
ACAD
1000
Arial
1071
       34
  0
STYLE
  5
193
330
3
100
AcDbSymbolTableRecord
100
AcDbTextStyleTableRecord
  2
18
 70
     0
 40
1.0
 41
1.0
 50
0.0
 71
     0
 42
1.0
  3
Arial
  4

1001
ACAD
1000
Arial
1071
       34
  0
STYLE
  5
19F
330
3
100
AcDbSymbolTableRecord
100
AcDbTextStyleTableRecord
  2
19
 70
     0
 40
1.0
 41
1.0
 50
0.0
 71
     0
 42
1.0
  3
Arial
  4

1001
ACAD
1000
Arial
1071
       34
  0
ENDTAB
  0
TABLE
  2
VIEW
  5
6
330
0
100
AcDbSymbolTable
 70
     0
  0
ENDTAB
  0
TABLE
  2
UCS
  5
7
330
0
100
AcDbSymbolTable
 70
     0
  0
ENDTAB
  0
TABLE
  2
APPID
  5
9
330
0
100
AcDbSymbolTable
 70
     2
  0
APPID
  5
12
330
9
100
AcDbSymbolTableRecord
100
AcDbRegAppTableRecord
  2
ACAD
 70
     0
  0
APPID
  5
5D
330
9
100
AcDbSymbolTableRecord
100
AcDbRegAppTableRecord
  2
ODA
 70
     0
  0
ENDTAB
  0
TABLE
  2
DIMSTYLE
  5
A
330
0
100
AcDbSymbolTable
 70
     1
100
AcDbDimStyleTable
  0
DIMSTYLE
105
27
330
A
100
AcDbSymbolTableRecord
100
AcDbDimStyleTableRecord
  2
Standard
 70
     0
340
11
  0
ENDTAB
  0
TABLE
  2
BLOCK_RECORD
  5
1
330
0
100
AcDbSymbolTable
 70
     1
  0
BLOCK_RECORD
  5
1F
330
1
100
AcDbSymbolTableRecord
100
AcDbBlockTableRecord
  2
*Model_Space
340
22
 70
     0
280
     1
281
     0
  0
BLOCK_RECORD
  5
1B
330
1
100
AcDbSymbolTableRecord
100
AcDbBlockTableRecord
  2
*Paper_Space
340
1E
 70
     0
280
     1
281
     0
  0
BLOCK_RECORD
  5
23
330
1
100
AcDbSymbolTableRecord
100
AcDbBlockTableRecord
  2
*Paper_Space0
340
26
 70
     0
280
     1
281
     0
  0
ENDTAB
  0
ENDSEC
  0
SECTION
  2
BLOCKS
  0
BLOCK
  5
20
330
1F
100
AcDbEntity
  8
0
100
AcDbBlockBegin
  2
*Model_Space
 70
     0
 10
0.0
 20
0.0
 30
0.0
  3
*Model_Space
  1

  0
ENDBLK
  5
21
330
1F
100
AcDbEntity
  8
0
100
AcDbBlockEnd
  0
BLOCK
  5
1C
330
1B
100
AcDbEntity
 67
     1
  8
0
100
AcDbBlockBegin
  2
*Paper_Space
 70
     0
 10
0.0
 20
0.0
 30
0.0
  3
*Paper_Space
  1

  0
ENDBLK
  5
1D
330
1B
100
AcDbEntity
 67
     1
  8
0
100
AcDbBlockEnd
  0
BLOCK
  5
24
330
23
100
AcDbEntity
  8
0
100
AcDbBlockBegin
  2
*Paper_Space0
 70
     0
 10
0.0
 20
0.0
 30
0.0
  3
*Paper_Space0
  1

  0
ENDBLK
  5
25
330
23
100
AcDbEntity
  8
0
100
AcDbBlockEnd
  0
ENDSEC
  0
SECTION
  2
ENTITIES
  0
SPLINE
  5
5F
330
1F
100
AcDbEntity
  8
Layer 1
 62
   114
370
     9
100
AcDbSpline
210
0.0
220
0.0
230
1.0
 70
    24
 71
     3
 72
     8
 73
     4
 74
     0
 42
0.0000000001
 43
0.0000000001
 40
0.0
 40
0.0
 40
0.0
 40
0.0
 40
1.0
 40
1.0
 40
1.0
 40
1.0
 10
-4.739409448818898
 20
8.271185039370078
 30
0.0
 10
-4.739409448818898
 20
8.271185039370078
 30
0.0
 10
-4.615590551181103
 20
8.25405905511811
 30
0.0
 10
-4.615590551181103
 20
8.25405905511811
 30
0.0
  0
SPLINE
  5
60
330
1F
100
AcDbEntity
  8
Layer 1
 62
   114
370
     9
100
AcDbSpline
210
0.0
220
0.0
230
1.0
 70
     8
 71
     3
 72
     8
 73
     4
 74
     0
 42
0.0000000001
 43
0.0000000001
 40
0.0
 40
0.0
 40
0.0
 40
0.0
 40
1.0
 40
1.0
 40
1.0
 40
1.0
 10
-4.739409448818898
 20
8.271185039370078
 30
0.0
 10
-4.861736220472441
 20
7.386685039370079
 30
0.0
 10
-6.557283464566929
 20
7.049897637795276
 30
0.0
 10
-9.208090551181103
 20
6.982523622047244
 30
0.0
  0
SPLINE
  5
61
330
1F
100
AcDbEntity
  8
Layer 1
 62
   114
370
     9
100
AcDbSpline
210
0.0
220
0.0
230
1.0
 70
     8
 71
     3
 72
     8
 73
     4
 74
     0
 42
0.0000000001
 43
0.0000000001
 40
0.0
 40
0.0
 40
0.0
 40
0.0
 40
1.0
 40
1.0
 40
1.0
 40
1.0
 10
-9.334688976377953
 20
6.979523622047244
 30
0.0
 10
-10.37942125984252
 20
6.956570866141733
 30
0.0
 10
-11.56775984251968
 20
6.973846456692914
 30
0.0
 10
-12.8631062992126
 20
7.01490157480315
 30
0.0
  0
SPLINE
  5
62
330
1F
100
AcDbEntity
  8
Layer 1
 62
   114
370
     9
100
AcDbSpline
210
0.0
220
0.0
230
1.0
 70
    24
 71
     3
 72
     8
 73
     4
 74
     0
 42
0.0000000001
 43
0.0000000001
 40
0.0
 40
0.0
 40
0.0
 40
0.0
 40
1.0
 40
1.0
 40
1.0
 40
1.0
 10
-12.95114566929134
 20
6.378322834645669
 30
0.0
 10
-12.95114566929134
 20
6.378322834645669
 30
0.0
 10
-12.8631062992126
 20
7.014905511811024
 30
0.0
 10
-12.8631062992126
 20
7.014905511811024
 30
0.0
  0
SPLINE
  5
63
330
1F
100
AcDbEntity
  8
Layer 1
 62
   114
370
     9
100
AcDbSpline
210
0.0
220
0.0
230
1.0
 70
    24
 71
     3
 72
     8
 73
     4
 74
     0
 42
0.0000000001
 43
0.0000000001
 40
0.0
 40
0.0
 40
0.0
 40
0.0
 40
1.0
 40
1.0
 40
1.0
 40
1.0
 10
-4.807909448818898
 20
7.775897637795276
 30
0.0
 10
-4.807909448818898
 20
7.775897637795276
 30
0.0
 10
-4.944905511811023
 20
6.785326771653543
 30
0.0
 10
-4.944905511811023
 20
6.785326771653543
 30
0.0
  0
SPLINE
  5
64
330
1F
100
AcDbEntity
  8
Layer 1
 62
   114
370
     9
100
AcDbSpline
210
0.0
220
0.0
230
1.0
 70
    24
 71
     3
 72
     8
 73
     4
 74
     0
 42
0.0000000001
 43
0.0000000001
 40
0.0
 40
0.0
 40
0.0
 40
0.0
 40
1.0
 40
1.0
 40
1.0
 40
1.0
 10
-4.615590551181103
 20
8.25405905511811
 30
0.0
 10
-4.615590551181103
 20
8.25405905511811
 30
0.0
 10
-4.684086614173228
 20
7.758775590551181
 30
0.0
 10
-4.684086614173228
 20
7.758775590551181
 30
0.0
  0
SPLINE
  5
65
330
1F
100
AcDbEntity
  8
Layer 1
 62
   114
370
     9
100
AcDbSpline
210
0.0
220
0.0
230
1.0
 70
    24
 71
     3
 72
     8
 73
     4
 74
     0
 42
0.0000000001
 43
0.0000000001
 40
0.0
 40
0.0
 40
0.0
 40
0.0
 40
1.0
 40
1.0
 40
1.0
 40
1.0
 10
-4.821086614173228
 20
6.768200787401574
 30
0.0
 10
-4.821086614173228
 20
6.768200787401574
 30
0.0
 10
-4.889582677165355
 20
6.272917322834646
 30
0.0
 10
-4.889582677165355
 20
6.272917322834646
 30
0.0
  0
SPLINE
  5
66
330
1F
100
AcDbEntity
  8
Layer 1
 62
   114
370
     9
100
AcDbSpline
210
0.0
220
0.0
230
1.0
 70
    24
 71
     3
 72
     8
 73
     4
 74
     0
 42
0.0000000001
 43
0.0000000001
 40
0.0
 40
0.0
 40
0.0
 40
0.0
 40
1.0
 40
1.0
 40
1.0
 40
1.0
 10
-4.88957874015748
 20
6.272917322834646
 30
0.0
 10
-4.88957874015748
 20
6.272917322834646
 30
0.0
 10
-12.95114960629921
 20
6.378326771653543
 30
0.0
 10
-12.95114960629921
 20
6.378326771653543
 30
0.0
  0
SPLINE
  5
67
330
1F
100
AcDbEntity
  8
Layer 1
 62
   114
370
     9
100
AcDbSpline
210
0.0
220
0.0
230
1.0
 70
    24
 71
     3
 72
     8
 73
     4
 74
     0
 42
0.0000000001
 43
0.0000000001
 40
0.0
 40
0.0
 40
0.0
 40
0.0
 40
1.0
 40
1.0
 40
1.0
 40
1.0
 10
-4.807909448818898
 20
7.775897637795276
 30
0.0
 10
-4.807909448818898
 20
7.775897637795276
 30
0.0
 10
-4.684086614173228
 20
7.758775590551181
 30
0.0
 10
-4.684086614173228
 20
7.758775590551181
 30
0.0
  0
SPLINE
  5
68
330
1F
100
AcDbEntity
  8
Layer 1
 62
   114
370
     9
100
AcDbSpline
210
0.0
220
0.0
230
1.0
 70
    24
 71
     3
 72
     8
 73
     4
 74
     0
 42
0.0000000001
 43
0.0000000001
 40
0.0
 40
0.0
 40
0.0
 40
0.0
 40
1.0
 40
1.0
 40
1.0
 40
1.0
 10
-4.821082677165355
 20
6.768200787401574
 30
0.0
 10
-4.821082677165355
 20
6.768200787401574
 30
0.0
 10
-4.944905511811023
 20
6.785326771653543
 30
0.0
 10
-4.944905511811023
 20
6.785326771653543
 30
0.0
  0
SPLINE
  5
69
330
1F
100
AcDbEntity
  8
Layer 1
 62
   114
370
     9
100
AcDbSpline
210
0.0
220
0.0
230
1.0
 70
    24
 71
     3
 72
     8
 73
     4
 74
     0
 42
0.0000000001
 43
0.0000000001
 40
0.0
 40
0.0
 40
0.0
 40
0.0
 40
1.0
 40
1.0
 40
1.0
 40
1.0
 10
-9.376988188976378
 20
6.673665354330709
 30
0.0
 10
-9.376988188976378
 20
6.673665354330709
 30
0.0
 10
-9.334688976377953
 20
6.979523622047244
 30
0.0
 10
-9.334688976377953
 20
6.979523622047244
 30
0.0
  0
SPLINE
  5
6A
330
1F
100
AcDbEntity
  8
Layer 1
 62
   114
370
     9
100
AcDbSpline
210
0.0
220
0.0
230
1.0
 70
    24
 71
     3
 72
     8
 73
     4
 74
     0
 42
0.0000000001
 43
0.0000000001
 40
0.0
 40
0.0
 40
0.0
 40
0.0
 40
1.0
 40
1.0
 40
1.0
 40
1.0
 10
-9.253165354330708
 20
6.656543307086614
 30
0.0
 10
-9.253165354330708
 20
6.656543307086614
 30
0.0
 10
-9.208082677165354
 20
6.982523622047244
 30
0.0
 10
-9.208082677165354
 20
6.982523622047244
 30
0.0
  0
SPLINE
  5
6B
330
1F
100
AcDbEntity
  8
Layer 1
 62
   114
370
     9
100
AcDbSpline
210
0.0
220
0.0
230
1.0
 70
    24
 71
     3
 72
     8
 73
     4
 74
     0
 42
0.0000000001
 43
0.0000000001
 40
0.0
 40
0.0
 40
0.0
 40
0.0
 40
1.0
 40
1.0
 40
1.0
 40
1.0
 10
-9.253165354330708
 20
6.656543307086614
 30
0.0
 10
-9.253165354330708
 20
6.656543307086614
 30
0.0
 10
-9.376988188976378
 20
6.673665354330709
 30
0.0
 10
-9.376988188976378
 20
6.673665354330709
 30
0.0
  0
SPLINE
  5
6C
330
1F
100
AcDbEntity
  8
Layer 1
 62
   114
370
     9
100
AcDbSpline
210
0.0
220
0.0
230
1.0
 70
    24
 71
     3
 72
     8
 73
     4
 74
     0
 42
0.0000000001
 43
0.0000000001
 40
0.0
 40
0.0
 40
0.0
 40
0.0
 40
1.0
 40
1.0
 40
1.0
 40
1.0
 10
-13.11008267716536
 20
4.189724409448819
 30
0.0
 10
-13.11008267716536
 20
4.189724409448819
 30
0.0
 10
-13.23390551181102
 20
4.206846456692913
 30
0.0
 10
-13.23390551181102
 20
4.206846456692913
 30
0.0
  0
SPLINE
  5
6D
330
1F
100
AcDbEntity
  8
Layer 1
 62
   114
370
     9
100
AcDbSpline
210
0.0
220
0.0
230
1.0
 70
     8
 71
     3
 72
     8
 73
     4
 74
     0
 42
0.0000000001
 43
0.0000000001
 40
0.0
 40
0.0
 40
0.0
 40
0.0
 40
1.0
 40
1.0
 40
1.0
 40
1.0
 10
-13.11008267716536
 20
4.189724409448819
 30
0.0
 10
-12.98775590551181
 20
5.074220472440945
 30
0.0
 10
-11.29220866141732
 20
5.411007874015748
 30
0.0
 10
-8.64140157480315
 20
5.47838188976378
 30
0.0
  0
SPLINE
  5
6E
330
1F
100
AcDbEntity
  8
Layer 1
 62
   114
370
     9
100
AcDbSpline
210
0.0
220
0.0
230
1.0
 70
     8
 71
     3
 72
     8
 73
     4
 74
     0
 42
0.0000000001
 43
0.0000000001
 40
0.0
 40
0.0
 40
0.0
 40
0.0
 40
1.0
 40
1.0
 40
1.0
 40
1.0
 10
-8.514807086614173
 20
5.48138188976378
 30
0.0
 10
-7.470070866141732
 20
5.504334645669291
 30
0.0
 10
-6.281732283464567
 20
5.48705905511811
 30
0.0
 10
-4.986389763779528
 20
5.446003937007874
 30
0.0
  0
SPLINE
  5
6F
330
1F
100
AcDbEntity
  8
Layer 1
 62
   114
370
     9
100
AcDbSpline
210
0.0
220
0.0
230
1.0
 70
    24
 71
     3
 72
     8
 73
     4
 74
     0
 42
0.0000000001
 43
0.0000000001
 40
0.0
 40
0.0
 40
0.0
 40
0.0
 40
1.0
 40
1.0
 40
1.0
 40
1.0
 10
-4.898346456692914
 20
6.082582677165354
 30
0.0
 10
-4.898346456692914
 20
6.082582677165354
 30
0.0
 10
-4.986389763779528
 20
5.446
 30
0.0
 10
-4.986389763779528
 20
5.446
 30
0.0
  0
SPLINE
  5
70
330
1F
100
AcDbEntity
  8
Layer 1
 62
   114
370
     9
100
AcDbSpline
210
0.0
220
0.0
230
1.0
 70
    24
 71
     3
 72
     8
 73
     4
 74
     0
 42
0.0000000001
 43
0.0000000001
 40
0.0
 40
0.0
 40
0.0
 40
0.0
 40
1.0
 40
1.0
 40
1.0
 40
1.0
 10
-13.04158267716535
 20
4.685007874015748
 30
0.0
 10
-13.04158267716535
 20
4.685007874015748
 30
0.0
 10
-12.90458661417323
 20
5.67557874015748
 30
0.0
 10
-12.90458661417323
 20
5.67557874015748
 30
0.0
  0
SPLINE
  5
71
330
1F
100
AcDbEntity
  8
Layer 1
 62
   114
370
     9
100
AcDbSpline
210
0.0
220
0.0
230
1.0
 70
    24
 71
     3
 72
     8
 73
     4
 74
     0
 42
0.0000000001
 43
0.0000000001
 40
0.0
 40
0.0
 40
0.0
 40
0.0
 40
1.0
 40
1.0
 40
1.0
 40
1.0
 10
-13.23390551181102
 20
4.206846456692913
 30
0.0
 10
-13.23390551181102
 20
4.206846456692913
 30
0.0
 10
-13.16540551181102
 20
4.702133858267716
 30
0.0
 10
-13.16540551181102
 20
4.702133858267716
 30
0.0
  0
SPLINE
  5
72
330
1F
100
AcDbEntity
  8
Layer 1
 62
   114
370
     9
100
AcDbSpline
210
0.0
220
0.0
230
1.0
 70
    24
 71
     3
 72
     8
 73
     4
 74
     0
 42
0.0000000001
 43
0.0000000001
 40
0.0
 40
0.0
 40
0.0
 40
0.0
 40
1.0
 40
1.0
 40
1.0
 40
1.0
 10
-13.0284094488189
 20
5.692704724409449
 30
0.0
 10
-13.0284094488189
 20
5.692704724409449
 30
0.0
 10
-12.9599094488189
 20
6.187992125984252
 30
0.0
 10
-12.9599094488189
 20
6.187992125984252
 30
0.0
  0
SPLINE
  5
73
330
1F
100
AcDbEntity
  8
Layer 1
 62
   114
370
     9
100
AcDbSpline
210
0.0
220
0.0
230
1.0
 70
    24
 71
     3
 72
     8
 73
     4
 74
     0
 42
0.0000000001
 43
0.0000000001
 40
0.0
 40
0.0
 40
0.0
 40
0.0
 40
1.0
 40
1.0
 40
1.0
 40
1.0
 10
-12.95991338582677
 20
6.187992125984252
 30
0.0
 10
-12.95991338582677
 20
6.187992125984252
 30
0.0
 10
-4.898342519685039
 20
6.082582677165354
 30
0.0
 10
-4.898342519685039
 20
6.082582677165354
 30
0.0
  0
SPLINE
  5
74
330
1F
100
AcDbEntity
  8
Layer 1
 62
   114
370
     9
100
AcDbSpline
210
0.0
220
0.0
230
1.0
 70
    24
 71
     3
 72
     8
 73
     4
 74
     0
 42
0.0000000001
 43
0.0000000001
 40
0.0
 40
0.0
 40
0.0
 40
0.0
 40
1.0
 40
1.0
 40
1.0
 40
1.0
 10
-13.04158267716535
 20
4.685007874015748
 30
0.0
 10
-13.04158267716535
 20
4.685007874015748
 30
0.0
 10
-13.16540551181102
 20
4.702133858267716
 30
0.0
 10
-13.16540551181102
 20
4.702133858267716
 30
0.0
  0
SPLINE
  5
75
330
1F
100
AcDbEntity
  8
Layer 1
 62
   114
370
     9
100
AcDbSpline
210
0.0
220
0.0
230
1.0
 70
    24
 71
     3
 72
     8
 73
     4
 74
     0
 42
0.0000000001
 43
0.0000000001
 40
0.0
 40
0.0
 40
0.0
 40
0.0
 40
1.0
 40
1.0
 40
1.0
 40
1.0
 10
-13.02841338582677
 20
5.692704724409449
 30
0.0
 10
-13.02841338582677
 20
5.692704724409449
 30
0.0
 10
-12.90458661417323
 20
5.67557874015748
 30
0.0
 10
-12.90458661417323
 20
5.67557874015748
 30
0.0
  0
SPLINE
  5
76
330
1F
100
AcDbEntity
  8
Layer 1
 62
   114
370
     9
100
AcDbSpline
210
0.0
220
0.0
230
1.0
 70
    24
 71
     3
 72
     8
 73
     4
 74
     0
 42
0.0000000001
 43
0.0000000001
 40
0.0
 40
0.0
 40
0.0
 40
0.0
 40
1.0
 40
1.0
 40
1.0
 40
1.0
 10
-8.472503937007874
 20
5.787240157480315
 30
0.0
 10
-8.472503937007874
 20
5.787240157480315
 30
0.0
 10
-8.514807086614173
 20
5.48138188976378
 30
0.0
 10
-8.514807086614173
 20
5.48138188976378
 30
0.0
  0
SPLINE
  5
77
330
1F
100
AcDbEntity
  8
Layer 1
 62
   114
370
     9
100
AcDbSpline
210
0.0
220
0.0
230
1.0
 70
    24
 71
     3
 72
     8
 73
     4
 74
     0
 42
0.0000000001
 43
0.0000000001
 40
0.0
 40
0.0
 40
0.0
 40
0.0
 40
1.0
 40
1.0
 40
1.0
 40
1.0
 10
-8.596326771653544
 20
5.804366141732284
 30
0.0
 10
-8.596326771653544
 20
5.804366141732284
 30
0.0
 10
-8.641409448818898
 20
5.478385826771653
 30
0.0
 10
-8.641409448818898
 20
5.478385826771653
 30
0.0
  0
SPLINE
  5
78
330
1F
100
AcDbEntity
  8
Layer 1
 62
   114
370
     9
100
AcDbSpline
210
0.0
220
0.0
230
1.0
 70
    24
 71
     3
 72
     8
 73
     4
 74
     0
 42
0.0000000001
 43
0.0000000001
 40
0.0
 40
0.0
 40
0.0
 40
0.0
 40
1.0
 40
1.0
 40
1.0
 40
1.0
 10
-8.596326771653544
 20
5.804366141732284
 30
0.0
 10
-8.596326771653544
 20
5.804366141732284
 30
0.0
 10
-8.472503937007874
 20
5.787240157480315
 30
0.0
 10
-8.472503937007874
 20
5.787240157480315
 30
0.0
  0
SPLINE
  5
79
330
1F
100
AcDbEntity
  8
Layer 1
 62
   114
370
     9
100
AcDbSpline
210
0.0
220
0.0
230
1.0
 70
    24
 71
     3
 72
     8
 73
     4
 74
     0
 42
0.0000000001
 43
0.0000000001
 40
0.0
 40
0.0
 40
0.0
 40
0.0
 40
1.0
 40
1.0
 40
1.0
 40
1.0
 10
-12.83696456692913
 20
9.112157480314961
 30
0.0
 10
-12.83696456692913
 20
9.112157480314961
 30
0.0
 10
-12.95715748031496
 20
9.077826771653543
 30
0.0
 10
-12.95715748031496
 20
9.077826771653543
 30
0.0
  0
SPLINE
  5
7A
330
1F
100
AcDbEntity
  8
Layer 1
 62
   114
370
     9
100
AcDbSpline
210
0.0
220
0.0
230
1.0
 70
     8
 71
     3
 72
     8
 73
     4
 74
     0
 42
0.0000000001
 43
0.0000000001
 40
0.0
 40
0.0
 40
0.0
 40
0.0
 40
1.0
 40
1.0
 40
1.0
 40
1.0
 10
-12.83696456692913
 20
9.112157480314961
 30
0.0
 10
-12.59172047244095
 20
8.253578740157481
 30
0.0
 10
-10.86568897637795
 20
8.158070866141733
 30
0.0
 10
-8.231661417322835
 20
8.463366141732283
 30
0.0
  0
SPLINE
  5
7B
330
1F
100
AcDbEntity
  8
Layer 1
 62
   114
370
     9
100
AcDbSpline
210
0.0
220
0.0
230
1.0
 70
     8
 71
     3
 72
     8
 73
     4
 74
     0
 42
0.0000000001
 43
0.0000000001
 40
0.0
 40
0.0
 40
0.0
 40
0.0
 40
1.0
 40
1.0
 40
1.0
 40
1.0
 10
-8.105893700787401
 20
8.478161417322834
 30
0.0
 10
-7.068275590551181
 20
8.602051181102363
 30
0.0
 10
-5.894125984251969
 20
8.78592125984252
 30
0.0
 10
-4.617358267716535
 20
9.008354330708661
 30
0.0
  0
SPLINE
  5
7C
330
1F
100
AcDbEntity
  8
Layer 1
 62
   114
370
     9
100
AcDbSpline
210
0.0
220
0.0
230
1.0
 70
    24
 71
     3
 72
     8
 73
     4
 74
     0
 42
0.0000000001
 43
0.0000000001
 40
0.0
 40
0.0
 40
0.0
 40
0.0
 40
1.0
 40
1.0
 40
1.0
 40
1.0
 10
-4.440858267716536
 20
8.390429133858268
 30
0.0
 10
-4.440858267716536
 20
8.390429133858268
 30
0.0
 10
-4.61736220472441
 20
9.008358267716535
 30
0.0
 10
-4.61736220472441
 20
9.008358267716535
 30
0.0
  0
SPLINE
  5
7D
330
1F
100
AcDbEntity
  8
Layer 1
 62
   114
370
     9
100
AcDbSpline
210
0.0
220
0.0
230
1.0
 70
    24
 71
     3
 72
     8
 73
     4
 74
     0
 42
0.0000000001
 43
0.0000000001
 40
0.0
 40
0.0
 40
0.0
 40
0.0
 40
1.0
 40
1.0
 40
1.0
 40
1.0
 10
-12.69963779527559
 20
8.631385826771654
 30
0.0
 10
-12.69963779527559
 20
8.631385826771654
 30
0.0
 10
-12.42498031496063
 20
7.669842519685039
 30
0.0
 10
-12.42498031496063
 20
7.669842519685039
 30
0.0
  0
SPLINE
  5
7E
330
1F
100
AcDbEntity
  8
Layer 1
 62
   114
370
     9
100
AcDbSpline
210
0.0
220
0.0
230
1.0
 70
    24
 71
     3
 72
     8
 73
     4
 74
     0
 42
0.0000000001
 43
0.0000000001
 40
0.0
 40
0.0
 40
0.0
 40
0.0
 40
1.0
 40
1.0
 40
1.0
 40
1.0
 10
-12.95715748031496
 20
9.077826771653543
 30
0.0
 10
-12.95715748031496
 20
9.077826771653543
 30
0.0
 10
-12.81983070866142
 20
8.597055118110235
 30
0.0
 10
-12.81983070866142
 20
8.597055118110235
 30
0.0
  0
SPLINE
  5
7F
330
1F
100
AcDbEntity
  8
Layer 1
 62
   114
370
     9
100
AcDbSpline
210
0.0
220
0.0
230
1.0
 70
    24
 71
     3
 72
     8
 73
     4
 74
     0
 42
0.0000000001
 43
0.0000000001
 40
0.0
 40
0.0
 40
0.0
 40
0.0
 40
1.0
 40
1.0
 40
1.0
 40
1.0
 10
-12.54517322834646
 20
7.635511811023622
 30
0.0
 10
-12.54517322834646
 20
7.635511811023622
 30
0.0
 10
-12.40784645669291
 20
7.154740157480315
 30
0.0
 10
-12.40784645669291
 20
7.154740157480315
 30
0.0
  0
SPLINE
  5
80
330
1F
100
AcDbEntity
  8
Layer 1
 62
   114
370
     9
100
AcDbSpline
210
0.0
220
0.0
230
1.0
 70
    24
 71
     3
 72
     8
 73
     4
 74
     0
 42
0.0000000001
 43
0.0000000001
 40
0.0
 40
0.0
 40
0.0
 40
0.0
 40
1.0
 40
1.0
 40
1.0
 40
1.0
 10
-12.40785039370079
 20
7.154740157480315
 30
0.0
 10
-12.40785039370079
 20
7.154740157480315
 30
0.0
 10
-4.440854330708661
 20
8.390429133858268
 30
0.0
 10
-4.440854330708661
 20
8.390429133858268
 30
0.0
  0
SPLINE
  5
81
330
1F
100
AcDbEntity
  8
Layer 1
 62
   114
370
     9
100
AcDbSpline
210
0.0
220
0.0
230
1.0
 70
    24
 71
     3
 72
     8
 73
     4
 74
     0
 42
0.0000000001
 43
0.0000000001
 40
0.0
 40
0.0
 40
0.0
 40
0.0
 40
1.0
 40
1.0
 40
1.0
 40
1.0
 10
-12.69963779527559
 20
8.631385826771654
 30
0.0
 10
-12.69963779527559
 20
8.631385826771654
 30
0.0
 10
-12.81983070866142
 20
8.597055118110235
 30
0.0
 10
-12.81983070866142
 20
8.597055118110235
 30
0.0
  0
SPLINE
  5
82
330
1F
100
AcDbEntity
  8
Layer 1
 62
   114
370
     9
100
AcDbSpline
210
0.0
220
0.0
230
1.0
 70
    24
 71
     3
 72
     8
 73
     4
 74
     0
 42
0.0000000001
 43
0.0000000001
 40
0.0
 40
0.0
 40
0.0
 40
0.0
 40
1.0
 40
1.0
 40
1.0
 40
1.0
 10
-12.54517716535433
 20
7.635511811023622
 30
0.0
 10
-12.54517716535433
 20
7.635511811023622
 30
0.0
 10
-12.42498031496063
 20
7.669842519685039
 30
0.0
 10
-12.42498031496063
 20
7.669842519685039
 30
0.0
  0
SPLINE
  5
83
330
1F
100
AcDbEntity
  8
Layer 1
 62
   114
370
     9
100
AcDbSpline
210
0.0
220
0.0
230
1.0
 70
    24
 71
     3
 72
     8
 73
     4
 74
     0
 42
0.0000000001
 43
0.0000000001
 40
0.0
 40
0.0
 40
0.0
 40
0.0
 40
1.0
 40
1.0
 40
1.0
 40
1.0
 10
-8.021090551181102
 20
8.181267716535434
 30
0.0
 10
-8.021090551181102
 20
8.181267716535434
 30
0.0
 10
-8.105893700787401
 20
8.478161417322834
 30
0.0
 10
-8.105893700787401
 20
8.478161417322834
 30
0.0
  0
SPLINE
  5
84
330
1F
100
AcDbEntity
  8
Layer 1
 62
   114
370
     9
100
AcDbSpline
210
0.0
220
0.0
230
1.0
 70
    24
 71
     3
 72
     8
 73
     4
 74
     0
 42
0.0000000001
 43
0.0000000001
 40
0.0
 40
0.0
 40
0.0
 40
0.0
 40
1.0
 40
1.0
 40
1.0
 40
1.0
 10
-8.141283464566929
 20
8.146937007874016
 30
0.0
 10
-8.141283464566929
 20
8.146937007874016
 30
0.0
 10
-8.231665354330708
 20
8.46336220472441
 30
0.0
 10
-8.231665354330708
 20
8.46336220472441
 30
0.0
  0
SPLINE
  5
85
330
1F
100
AcDbEntity
  8
Layer 1
 62
   114
370
     9
100
AcDbSpline
210
0.0
220
0.0
230
1.0
 70
    24
 71
     3
 72
     8
 73
     4
 74
     0
 42
0.0000000001
 43
0.0000000001
 40
0.0
 40
0.0
 40
0.0
 40
0.0
 40
1.0
 40
1.0
 40
1.0
 40
1.0
 10
-8.141283464566929
 20
8.146937007874016
 30
0.0
 10
-8.141283464566929
 20
8.146937007874016
 30
0.0
 10
-8.021090551181102
 20
8.181267716535434
 30
0.0
 10
-8.021090551181102
 20
8.181267716535434
 30
0.0
  0
TEXT
  5
87
330
1F
100
AcDbEntity
  8
Layer 1
 62
   250
100
AcDbText
 10
-11.08946456692913
 20
4.336106299212599
 30
0.0
 40
0.2400009448818897
  1
LEGS   1/8” BIRCH PLYWOOD
 51
-0.0000015352345087
  7
0
100
AcDbText
  0
SPLINE
  5
88
330
1F
100
AcDbEntity
  8
Layer 1
 62
    22
100
AcDbSpline
210
0.0
220
0.0
230
1.0
 70
    11
 71
     3
 72
    24
 73
    20
 74
     0
 42
0.0000000001
 43
0.0000000001
 40
0.0
 40
0.0
 40
0.0
 40
0.0
 40
0.2
 40
0.2
 40
0.2
 40
0.2
 40
0.4
 40
0.4
 40
0.4
 40
0.4
 40
0.6000000000000001
 40
0.6000000000000001
 40
0.6000000000000001
 40
0.6000000000000001
 40
0.8
 40
0.8
 40
0.8
 40
0.8
 40
1.0
 40
1.0
 40
1.0
 40
1.0
 10
-8.860917322834645
 20
-3.867031496062992
 30
0.0
 10
-8.860917322834645
 20
-3.867031496062992
 30
0.0
 10
-8.860913385826771
 20
-4.50915748031496
 30
0.0
 10
-8.860913385826771
 20
-4.50915748031496
 30
0.0
 10
-8.860913385826771
 20
-4.50915748031496
 30
0.0
 10
-8.840287401574804
 20
-4.509468503937008
 30
0.0
 10
-8.819622047244094
 20
-4.509629921259842
 30
0.0
 10
-8.798917322834646
 20
-4.509629921259842
 30
0.0
 10
-8.798917322834646
 20
-4.509629921259842
 30
0.0
 10
-8.778212598425197
 20
-4.509629921259842
 30
0.0
 10
-8.757547244094487
 20
-4.509468503937008
 30
0.0
 10
-8.736917322834646
 20
-4.50915748031496
 30
0.0
 10
-8.736917322834646
 20
-4.50915748031496
 30
0.0
 10
-8.736917322834646
 20
-4.50915748031496
 30
0.0
 10
-8.736917322834646
 20
-3.867031496062992
 30
0.0
 10
-8.736917322834646
 20
-3.867031496062992
 30
0.0
 10
-8.736917322834646
 20
-3.867031496062992
 30
0.0
 10
-8.736917322834646
 20
-3.867031496062992
 30
0.0
 10
-8.860917322834645
 20
-3.867031496062992
 30
0.0
 10
-8.860917322834645
 20
-3.867031496062992
 30
0.0
  0
SPLINE
  5
89
330
1F
100
AcDbEntity
  8
Layer 1
 62
    22
100
AcDbSpline
210
0.0
220
0.0
230
1.0
 70
    11
 71
     3
 72
    20
 73
    16
 74
     0
 42
0.0000000001
 43
0.0000000001
 40
0.0
 40
0.0
 40
0.0
 40
0.0
 40
0.25
 40
0.25
 40
0.25
 40
0.25
 40
0.5
 40
0.5
 40
0.5
 40
0.5
 40
0.75
 40
0.75
 40
0.75
 40
0.75
 40
1.0
 40
1.0
 40
1.0
 40
1.0
 10
-12.2941062992126
 20
1.436720472440945
 30
0.0
 10
-12.2941062992126
 20
1.436720472440945
 30
0.0
 10
-11.73751181102362
 20
1.115374015748031
 30
0.0
 10
-11.73751181102362
 20
1.115374015748031
 30
0.0
 10
-11.73751181102362
 20
1.115374015748031
 30
0.0
 10
-11.73751181102362
 20
1.115374015748031
 30
0.0
 10
-11.67550787401575
 20
1.222763779527559
 30
0.0
 10
-11.67550787401575
 20
1.222763779527559
 30
0.0
 10
-11.67550787401575
 20
1.222763779527559
 30
0.0
 10
-11.67550787401575
 20
1.222763779527559
 30
0.0
 10
-12.23199606299213
 20
1.544051181102362
 30
0.0
 10
-12.23199606299213
 20
1.544051181102362
 30
0.0
 10
-12.23199606299213
 20
1.544051181102362
 30
0.0
 10
-12.25323622047244
 20
1.508629921259842
 30
0.0
 10
-12.27394094488189
 20
1.472846456692913
 30
0.0
 10
-12.2941062992126
 20
1.436720472440945
 30
0.0
  0
SPLINE
  5
8A
330
1F
100
AcDbEntity
  8
Layer 1
 62
    22
100
AcDbSpline
210
0.0
220
0.0
230
1.0
 70
    11
 71
     3
 72
    20
 73
    16
 74
     0
 42
0.0000000001
 43
0.0000000001
 40
0.0
 40
0.0
 40
0.0
 40
0.0
 40
0.25
 40
0.25
 40
0.25
 40
0.25
 40
0.5
 40
0.5
 40
0.5
 40
0.5
 40
0.75
 40
0.75
 40
0.75
 40
0.75
 40
1.0
 40
1.0
 40
1.0
 40
1.0
 10
-5.365807086614173
 20
1.544074803149606
 30
0.0
 10
-5.365807086614173
 20
1.544074803149606
 30
0.0
 10
-5.922314960629921
 20
1.222775590551181
 30
0.0
 10
-5.922314960629921
 20
1.222775590551181
 30
0.0
 10
-5.922314960629921
 20
1.222775590551181
 30
0.0
 10
-5.922314960629921
 20
1.222775590551181
 30
0.0
 10
-5.860314960629921
 20
1.115389763779528
 30
0.0
 10
-5.860314960629921
 20
1.115389763779528
 30
0.0
 10
-5.860314960629921
 20
1.115389763779528
 30
0.0
 10
-5.860314960629921
 20
1.115389763779528
 30
0.0
 10
-5.303736220472441
 20
1.436732283464567
 30
0.0
 10
-5.303736220472441
 20
1.436732283464567
 30
0.0
 10
-5.303736220472441
 20
1.436732283464567
 30
0.0
 10
-5.323897637795276
 20
1.472854330708661
 30
0.0
 10
-5.344606299212598
 20
1.50863779527559
 30
0.0
 10
-5.365807086614173
 20
1.544074803149606
 30
0.0
  0
SPLINE
  5
8B
330
1F
100
AcDbEntity
  8
Layer 1
 62
   114
370
     9
100
AcDbSpline
210
0.0
220
0.0
230
1.0
 70
     8
 71
     3
 72
    12
 73
     8
 74
     0
 42
0.0000000001
 43
0.0000000001
 40
0.0
 40
0.0
 40
0.0
 40
0.0
 40
0.5
 40
0.5
 40
0.5
 40
0.5
 40
1.0
 40
1.0
 40
1.0
 40
1.0
 10
-10.22061023622047
 20
-4.249507874015748
 30
0.0
 10
-9.778838582677166
 20
-4.417586614173229
 30
0.0
 10
-9.299602362204725
 20
-4.509629921259842
 30
0.0
 10
-8.798917322834646
 20
-4.509629921259842
 30
0.0
 10
-8.798917322834646
 20
-4.509629921259842
 30
0.0
 10
-8.298244094488188
 20
-4.509629921259842
 30
0.0
 10
-7.81901968503937
 20
-4.417590551181102
 30
0.0
 10
-7.377255905511811
 20
-4.249515748031496
 30
0.0
  0
SPLINE
  5
8C
330
1F
100
AcDbEntity
  8
Layer 1
 62
   114
370
     9
100
AcDbSpline
210
0.0
220
0.0
230
1.0
 70
     8
 71
     3
 72
     8
 73
     4
 74
     0
 42
0.0000000001
 43
0.0000000001
 40
0.0
 40
0.0
 40
0.0
 40
0.0
 40
1.0
 40
1.0
 40
1.0
 40
1.0
 10
-4.849677165354331
 20
0.1291889763779528
 30
0.0
 10
-5.008350393700788
 20
1.11738188976378
 30
0.0
 10
-5.529141732283464
 20
1.984704724409449
 30
0.0
 10
-6.271574803149607
 20
2.590692913385827
 30
0.0
  0
SPLINE
  5
8D
330
1F
100
AcDbEntity
  8
Layer 1
 62
   114
370
     9
100
AcDbSpline
210
0.0
220
0.0
230
1.0
 70
     8
 71
     3
 72
     8
 73
     4
 74
     0
 42
0.0000000001
 43
0.0000000001
 40
0.0
 40
0.0
 40
0.0
 40
0.0
 40
1.0
 40
1.0
 40
1.0
 40
1.0
 10
-11.32636614173228
 20
2.590606299212598
 30
0.0
 10
-12.06876377952756
 20
1.984602362204724
 30
0.0
 10
-12.58951968503937
 20
1.117275590551181
 30
0.0
 10
-12.74817322834646
 20
0.1290984251968504
 30
0.0
  0
SPLINE
  5
8E
330
1F
100
AcDbEntity
  8
Layer 1
 62
   114
370
     9
100
AcDbSpline
210
0.0
220
0.0
230
1.0
 70
    24
 71
     3
 72
     8
 73
     4
 74
     0
 42
0.0000000001
 43
0.0000000001
 40
0.0
 40
0.0
 40
0.0
 40
0.0
 40
1.0
 40
1.0
 40
1.0
 40
1.0
 10
-6.271669291338583
 20
2.590586614173228
 30
0.0
 10
-6.271669291338583
 20
2.590586614173228
 30
0.0
 10
-11.32635039370079
 20
2.590586614173228
 30
0.0
 10
-11.32635039370079
 20
2.590586614173228
 30
0.0
  0
SPLINE
  5
8F
330
1F
100
AcDbEntity
  8
Layer 1
 62
   114
370
     9
100
AcDbSpline
210
0.0
220
0.0
230
1.0
 70
    24
 71
     3
 72
     8
 73
     4
 74
     0
 42
0.0000000001
 43
0.0000000001
 40
0.0
 40
0.0
 40
0.0
 40
0.0
 40
1.0
 40
1.0
 40
1.0
 40
1.0
 10
-12.74755905511811
 20
0.129003937007874
 30
0.0
 10
-12.74755905511811
 20
0.129003937007874
 30
0.0
 10
-10.22021653543307
 20
-4.24848031496063
 30
0.0
 10
-10.22021653543307
 20
-4.24848031496063
 30
0.0
  0
SPLINE
  5
90
330
1F
100
AcDbEntity
  8
Layer 1
 62
   114
370
     9
100
AcDbSpline
210
0.0
220
0.0
230
1.0
 70
    24
 71
     3
 72
     8
 73
     4
 74
     0
 42
0.0000000001
 43
0.0000000001
 40
0.0
 40
0.0
 40
0.0
 40
0.0
 40
1.0
 40
1.0
 40
1.0
 40
1.0
 10
-7.37767716535433
 20
-4.248401574803149
 30
0.0
 10
-7.37767716535433
 20
-4.248401574803149
 30
0.0
 10
-4.850334645669292
 20
0.1290787401574803
 30
0.0
 10
-4.850334645669292
 20
0.1290787401574803
 30
0.0
  0
TEXT
  5
92
330
1F
100
AcDbEntity
  8
Layer 1
 62
   250
100
AcDbText
 10
-10.00835039370079
 20
-5.261803149606299
 30
0.0
 40
0.2400009448818897
  1
BASE   1/4” MDF
 51
-0.0000015352345087
  7
1
100
AcDbText
  0
SPLINE
  5
93
330
1F
100
AcDbEntity
  8
Layer 1
 62
   114
370
     9
100
AcDbSpline
210
0.0
220
0.0
230
1.0
 70
     8
 71
     3
 72
    12
 73
     8
 74
     0
 42
0.0000000001
 43
0.0000000001
 40
0.0
 40
0.0
 40
0.0
 40
0.0
 40
0.5
 40
0.5
 40
0.5
 40
0.5
 40
1.0
 40
1.0
 40
1.0
 40
1.0
 10
4.123122047244094
 20
6.939492125984252
 30
0.0
 10
4.089763779527559
 20
8.873515748031496
 30
0.0
 10
2.510917322834646
 20
10.43170078740157
 30
0.0
 10
0.5689566929133858
 20
10.43170078740157
 30
0.0
 10
0.5689566929133858
 20
10.43170078740157
 30
0.0
 10
-0.0562322834645669
 20
10.43170078740157
 30
0.0
 10
-0.6437913385826771
 20
10.27020472440945
 30
0.0
 10
-1.154248031496063
 20
9.986669291338583
 30
0.0
  0
SPLINE
  5
94
330
1F
100
AcDbEntity
  8
Layer 1
 62
   114
370
     9
100
AcDbSpline
210
0.0
220
0.0
230
1.0
 70
     8
 71
     3
 72
    12
 73
     8
 74
     0
 42
0.0000000001
 43
0.0000000001
 40
0.0
 40
0.0
 40
0.0
 40
0.0
 40
0.5
 40
0.5
 40
0.5
 40
0.5
 40
1.0
 40
1.0
 40
1.0
 40
1.0
 10
-1.154248031496063
 20
3.767330708661417
 30
0.0
 10
-0.6437834645669291
 20
3.483799212598425
 30
0.0
 10
-0.0562283464566929
 20
3.322299212598425
 30
0.0
 10
0.5689566929133858
 20
3.322299212598425
 30
0.0
 10
0.5689566929133858
 20
3.322299212598425
 30
0.0
 10
2.510913385826772
 20
3.322299212598425
 30
0.0
 10
4.089759842519685
 20
4.880484251968504
 30
0.0
 10
4.123118110236221
 20
6.814496062992126
 30
0.0
  0
SPLINE
  5
95
330
1F
100
AcDbEntity
  8
Layer 1
 62
   114
370
     9
100
AcDbSpline
210
0.0
220
0.0
230
1.0
 70
     8
 71
     3
 72
    12
 73
     8
 74
     0
 42
0.0000000001
 43
0.0000000001
 40
0.0
 40
0.0
 40
0.0
 40
0.0
 40
0.5
 40
0.5
 40
0.5
 40
0.5
 40
1.0
 40
1.0
 40
1.0
 40
1.0
 10
-1.262437007874016
 20
9.92405905511811
 30
0.0
 10
-2.29496062992126
 20
9.302023622047244
 30
0.0
 10
-2.985744094488189
 20
8.17
 30
0.0
 10
-2.985744094488189
 20
6.877
 30
0.0
 10
-2.985744094488189
 20
6.877
 30
0.0
 10
-2.985744094488189
 20
5.584
 30
0.0
 10
-2.294976377952756
 20
4.45198031496063
 30
0.0
 10
-1.262437007874016
 20
3.82994094488189
 30
0.0
  0
SPLINE
  5
96
330
1F
100
AcDbEntity
  8
Layer 1
 62
   114
370
     9
100
AcDbSpline
210
0.0
220
0.0
230
1.0
 70
    24
 71
     3
 72
     8
 73
     4
 74
     0
 42
0.0000000001
 43
0.0000000001
 40
0.0
 40
0.0
 40
0.0
 40
0.0
 40
1.0
 40
1.0
 40
1.0
 40
1.0
 10
4.123118110236221
 20
6.8145
 30
0.0
 10
4.123118110236221
 20
6.8145
 30
0.0
 10
3.794574803149606
 20
6.8145
 30
0.0
 10
3.794574803149606
 20
6.8145
 30
0.0
  0
SPLINE
  5
97
330
1F
100
AcDbEntity
  8
Layer 1
 62
   114
370
     9
100
AcDbSpline
210
0.0
220
0.0
230
1.0
 70
    24
 71
     3
 72
     8
 73
     4
 74
     0
 42
0.0000000001
 43
0.0000000001
 40
0.0
 40
0.0
 40
0.0
 40
0.0
 40
1.0
 40
1.0
 40
1.0
 40
1.0
 10
4.123657480314961
 20
6.9395
 30
0.0
 10
4.123657480314961
 20
6.9395
 30
0.0
 10
3.794574803149606
 20
6.9395
 30
0.0
 10
3.794574803149606
 20
6.9395
 30
0.0
  0
SPLINE
  5
98
330
1F
100
AcDbEntity
  8
Layer 1
 62
   114
370
     9
100
AcDbSpline
210
0.0
220
0.0
230
1.0
 70
    24
 71
     3
 72
     8
 73
     4
 74
     0
 42
0.0000000001
 43
0.0000000001
 40
0.0
 40
0.0
 40
0.0
 40
0.0
 40
1.0
 40
1.0
 40
1.0
 40
1.0
 10
3.794574803149606
 20
6.9395
 30
0.0
 10
3.794574803149606
 20
6.9395
 30
0.0
 10
3.794574803149606
 20
6.8145
 30
0.0
 10
3.794574803149606
 20
6.8145
 30
0.0
  0
SPLINE
  5
99
330
1F
100
AcDbEntity
  8
Layer 1
 62
   114
370
     9
100
AcDbSpline
210
0.0
220
0.0
230
1.0
 70
    24
 71
     3
 72
     8
 73
     4
 74
     0
 42
0.0000000001
 43
0.0000000001
 40
0.0
 40
0.0
 40
0.0
 40
0.0
 40
1.0
 40
1.0
 40
1.0
 40
1.0
 10
-1.154248031496063
 20
9.986669291338583
 30
0.0
 10
-1.154248031496063
 20
9.986669291338583
 30
0.0
 10
-0.9897322834645669
 20
9.701712598425196
 30
0.0
 10
-0.9897322834645669
 20
9.701712598425196
 30
0.0
  0
SPLINE
  5
9A
330
1F
100
AcDbEntity
  8
Layer 1
 62
   114
370
     9
100
AcDbSpline
210
0.0
220
0.0
230
1.0
 70
    24
 71
     3
 72
     8
 73
     4
 74
     0
 42
0.0000000001
 43
0.0000000001
 40
0.0
 40
0.0
 40
0.0
 40
0.0
 40
1.0
 40
1.0
 40
1.0
 40
1.0
 10
-1.262523622047244
 20
9.92420472440945
 30
0.0
 10
-1.262523622047244
 20
9.92420472440945
 30
0.0
 10
-1.097984251968504
 20
9.639216535433071
 30
0.0
 10
-1.097984251968504
 20
9.639216535433071
 30
0.0
  0
SPLINE
  5
9B
330
1F
100
AcDbEntity
  8
Layer 1
 62
   114
370
     9
100
AcDbSpline
210
0.0
220
0.0
230
1.0
 70
    24
 71
     3
 72
     8
 73
     4
 74
     0
 42
0.0000000001
 43
0.0000000001
 40
0.0
 40
0.0
 40
0.0
 40
0.0
 40
1.0
 40
1.0
 40
1.0
 40
1.0
 10
-1.097984251968504
 20
9.639212598425196
 30
0.0
 10
-1.097984251968504
 20
9.639212598425196
 30
0.0
 10
-0.9897283464566929
 20
9.701712598425196
 30
0.0
 10
-0.9897283464566929
 20
9.701712598425196
 30
0.0
  0
SPLINE
  5
9C
330
1F
100
AcDbEntity
  8
Layer 1
 62
   114
370
     9
100
AcDbSpline
210
0.0
220
0.0
230
1.0
 70
    24
 71
     3
 72
     8
 73
     4
 74
     0
 42
0.0000000001
 43
0.0000000001
 40
0.0
 40
0.0
 40
0.0
 40
0.0
 40
1.0
 40
1.0
 40
1.0
 40
1.0
 10
-1.262425196850394
 20
3.829956692913386
 30
0.0
 10
-1.262425196850394
 20
3.829956692913386
 30
0.0
 10
-1.097976377952756
 20
4.114779527559056
 30
0.0
 10
-1.097976377952756
 20
4.114779527559056
 30
0.0
  0
SPLINE
  5
9D
330
1F
100
AcDbEntity
  8
Layer 1
 62
   114
370
     9
100
AcDbSpline
210
0.0
220
0.0
230
1.0
 70
    24
 71
     3
 72
     8
 73
     4
 74
     0
 42
0.0000000001
 43
0.0000000001
 40
0.0
 40
0.0
 40
0.0
 40
0.0
 40
1.0
 40
1.0
 40
1.0
 40
1.0
 10
-1.154267716535433
 20
3.767291338582677
 30
0.0
 10
-1.154267716535433
 20
3.767291338582677
 30
0.0
 10
-0.9897283464566929
 20
4.052283464566929
 30
0.0
 10
-0.9897283464566929
 20
4.052283464566929
 30
0.0
  0
SPLINE
  5
9E
330
1F
100
AcDbEntity
  8
Layer 1
 62
   114
370
     9
100
AcDbSpline
210
0.0
220
0.0
230
1.0
 70
    24
 71
     3
 72
     8
 73
     4
 74
     0
 42
0.0000000001
 43
0.0000000001
 40
0.0
 40
0.0
 40
0.0
 40
0.0
 40
1.0
 40
1.0
 40
1.0
 40
1.0
 10
-0.9897244094488189
 20
4.052279527559056
 30
0.0
 10
-0.9897244094488189
 20
4.052279527559056
 30
0.0
 10
-1.09798031496063
 20
4.114783464566929
 30
0.0
 10
-1.09798031496063
 20
4.114783464566929
 30
0.0
  0
SPLINE
  5
9F
330
1F
100
AcDbEntity
  8
Layer 1
 62
   114
370
     9
100
AcDbSpline
210
0.0
220
0.0
230
1.0
 70
    11
 71
     3
 72
    20
 73
    16
 74
     0
 42
0.0000000001
 43
0.0000000001
 40
0.0
 40
0.0
 40
0.0
 40
0.0
 40
0.25
 40
0.25
 40
0.25
 40
0.25
 40
0.5
 40
0.5
 40
0.5
 40
0.5
 40
0.75
 40
0.75
 40
0.75
 40
0.75
 40
1.0
 40
1.0
 40
1.0
 40
1.0
 10
0.5686889763779528
 20
9.627
 30
0.0
 10
-0.9498346456692913
 20
9.627
 30
0.0
 10
-2.181311023622047
 20
8.395523622047245
 30
0.0
 10
-2.181311023622047
 20
6.877
 30
0.0
 10
-2.181311023622047
 20
6.877
 30
0.0
 10
-2.181311023622047
 20
5.358476377952756
 30
0.0
 10
-0.9498346456692913
 20
4.127
 30
0.0
 10
0.5686889763779528
 20
4.127
 30
0.0
 10
0.5686889763779528
 20
4.127
 30
0.0
 10
2.087212598425197
 20
4.127
 30
0.0
 10
3.318688976377953
 20
5.358476377952756
 30
0.0
 10
3.318688976377953
 20
6.877
 30
0.0
 10
3.318688976377953
 20
6.877
 30
0.0
 10
3.318688976377953
 20
8.395523622047245
 30
0.0
 10
2.087212598425197
 20
9.627
 30
0.0
 10
0.5686889763779528
 20
9.627
 30
0.0
  0
TEXT
  5
A1
330
1F
100
AcDbEntity
  8
Layer 1
 62
   250
100
AcDbText
 10
-1.163488188976378
 20
2.526047244094488
 30
0.0
 40
0.2400009448818897
  1
LEG CENTER SUPPORT
 51
-0.0000015352345087
  7
2
100
AcDbText
  0
TEXT
  5
A3
330
1F
100
AcDbEntity
  8
Layer 1
 62
   250
100
AcDbText
 10
-1.620925196850394
 20
2.121185039370079
 30
0.0
 40
0.2400009448818897
  1
       1/8” BIRCH PLYWOOD
 51
-0.0000015352345087
  7
3
100
AcDbText
  0
SPLINE
  5
A4
330
1F
100
AcDbEntity
  8
Layer 1
 62
   114
370
     9
100
AcDbSpline
210
0.0
220
0.0
230
1.0
 70
    24
 71
     3
 72
     8
 73
     4
 74
     0
 42
0.0000000001
 43
0.0000000001
 40
0.0
 40
0.0
 40
0.0
 40
0.0
 40
1.0
 40
1.0
 40
1.0
 40
1.0
 10
8.324767716535433
 20
5.533846456692913
 30
0.0
 10
8.324767716535433
 20
5.533846456692913
 30
0.0
 10
8.324767716535433
 20
5.537811023622047
 30
0.0
 10
8.324767716535433
 20
5.537811023622047
 30
0.0
  0
ELLIPSE
  5
A5
330
1F
100
AcDbEntity
  8
Layer 1
 62
   114
370
     9
100
AcDbEllipse
 10
7.424775590551181
 20
5.536338582677165
 30
0.0
 11
0.0
 21
0.9
 31
0.0
210
0.0
220
0.0
230
1.0
 40
1.0
 41
0.0
 42
6.283185307179586
  0
ELLIPSE
  5
A6
330
1F
100
AcDbEntity
  8
Layer 1
 62
   114
370
     9
100
AcDbEllipse
 10
7.424775590551181
 20
5.536338582677165
 30
0.0
 11
0.0
 21
0.575
 31
0.0
210
0.0
220
0.0
230
1.0
 40
1.0
 41
0.0
 42
6.283185307179586
  0
SPLINE
  5
A7
330
1F
100
AcDbEntity
  8
Layer 1
 62
    22
100
AcDbSpline
210
0.0
220
0.0
230
1.0
 70
    11
 71
     3
 72
    20
 73
    16
 74
     0
 42
0.0000000001
 43
0.0000000001
 40
0.0
 40
0.0
 40
0.0
 40
0.0
 40
0.25
 40
0.25
 40
0.25
 40
0.25
 40
0.5
 40
0.5
 40
0.5
 40
0.5
 40
0.75
 40
0.75
 40
0.75
 40
0.75
 40
1.0
 40
1.0
 40
1.0
 40
1.0
 10
7.426055118110236
 20
6.111334645669292
 30
0.0
 10
7.74355905511811
 20
6.111334645669292
 30
0.0
 10
8.001055118110235
 20
5.853850393700787
 30
0.0
 10
8.001055118110235
 20
5.536334645669291
 30
0.0
 10
8.001055118110235
 20
5.536334645669291
 30
0.0
 10
8.001055118110235
 20
5.218818897637795
 30
0.0
 10
7.74355905511811
 20
4.961334645669291
 30
0.0
 10
7.426055118110236
 20
4.961334645669291
 30
0.0
 10
7.426055118110236
 20
4.961334645669291
 30
0.0
 10
7.108551181102362
 20
4.961334645669291
 30
0.0
 10
6.851055118110236
 20
5.218818897637795
 30
0.0
 10
6.851055118110236
 20
5.536334645669291
 30
0.0
 10
6.851055118110236
 20
5.536334645669291
 30
0.0
 10
6.851055118110236
 20
5.853850393700787
 30
0.0
 10
7.108551181102362
 20
6.111334645669292
 30
0.0
 10
7.426055118110236
 20
6.111334645669292
 30
0.0
  0
SPLINE
  5
A8
330
1F
100
AcDbEntity
  8
Layer 1
 62
    22
100
AcDbSpline
210
0.0
220
0.0
230
1.0
 70
    11
 71
     3
 72
    60
 73
    56
 74
     0
 42
0.0000000001
 43
0.0000000001
 40
0.0
 40
0.0
 40
0.0
 40
0.0
 40
0.0714285714285714
 40
0.0714285714285714
 40
0.0714285714285714
 40
0.0714285714285714
 40
0.1428571428571428
 40
0.1428571428571428
 40
0.1428571428571428
 40
0.1428571428571428
 40
0.2142857142857143
 40
0.2142857142857143
 40
0.2142857142857143
 40
0.2142857142857143
 40
0.2857142857142857
 40
0.2857142857142857
 40
0.2857142857142857
 40
0.2857142857142857
 40
0.3571428571428571
 40
0.3571428571428571
 40
0.3571428571428571
 40
0.3571428571428571
 40
0.4285714285714285
 40
0.4285714285714285
 40
0.4285714285714285
 40
0.4285714285714285
 40
0.4999999999999999
 40
0.4999999999999999
 40
0.4999999999999999
 40
0.4999999999999999
 40
0.5714285714285713
 40
0.5714285714285713
 40
0.5714285714285713
 40
0.5714285714285713
 40
0.6428571428571427
 40
0.6428571428571427
 40
0.6428571428571427
 40
0.6428571428571427
 40
0.7142857142857141
 40
0.7142857142857141
 40
0.7142857142857141
 40
0.7142857142857141
 40
0.7857142857142855
 40
0.7857142857142855
 40
0.7857142857142855
 40
0.7857142857142855
 40
0.8571428571428569
 40
0.8571428571428569
 40
0.8571428571428569
 40
0.8571428571428569
 40
0.9285714285714283
 40
0.9285714285714283
 40
0.9285714285714283
 40
0.9285714285714283
 40
1.0
 40
1.0
 40
1.0
 40
1.0
 10
7.768527559055118
 20
6.131716535433071
 30
0.0
 10
7.73934251968504
 20
6.148562992125984
 30
0.0
 10
7.728889763779527
 20
6.185405511811024
 30
0.0
 10
7.744472440944882
 20
6.214952755905512
 30
0.0
 10
7.744472440944882
 20
6.214952755905512
 30
0.0
 10
7.647492125984252
 20
6.260732283464567
 30
0.0
 10
7.53911811023622
 20
6.286334645669291
 30
0.0
 10
7.424775590551181
 20
6.286334645669291
 30
0.0
 10
7.424775590551181
 20
6.286334645669291
 30
0.0
 10
7.031661417322835
 20
6.286334645669291
 30
0.0
 10
6.70907874015748
 20
5.983720472440945
 30
0.0
 10
6.677338582677165
 20
5.598783464566929
 30
0.0
 10
6.677338582677165
 20
5.598783464566929
 30
0.0
 10
6.710657480314961
 20
5.597437007874015
 30
0.0
 10
6.737275590551181
 20
5.569992125984252
 30
0.0
 10
6.737275590551181
 20
5.536338582677165
 30
0.0
 10
6.737275590551181
 20
5.536338582677165
 30
0.0
 10
6.737275590551181
 20
5.502681102362205
 30
0.0
 10
6.710657480314961
 20
5.475232283464567
 30
0.0
 10
6.677338582677165
 20
5.473885826771654
 30
0.0
 10
6.677338582677165
 20
5.473885826771654
 30
0.0
 10
6.70907874015748
 20
5.088948818897638
 30
0.0
 10
7.031661417322835
 20
4.786334645669291
 30
0.0
 10
7.424775590551181
 20
4.786334645669291
 30
0.0
 10
7.424775590551181
 20
4.786334645669291
 30
0.0
 10
7.539106299212598
 20
4.786334645669291
 30
0.0
 10
7.64748031496063
 20
4.811933070866142
 30
0.0
 10
7.744452755905511
 20
4.857708661417323
 30
0.0
 10
7.744452755905511
 20
4.857708661417323
 30
0.0
 10
7.728885826771654
 20
4.887255905511811
 30
0.0
 10
7.739338582677165
 20
4.924090551181102
 30
0.0
 10
7.768511811023622
 20
4.940937007874016
 30
0.0
 10
7.768511811023622
 20
4.940937007874016
 30
0.0
 10
7.797661417322835
 20
4.957767716535433
 30
0.0
 10
7.834732283464567
 20
4.948437007874015
 30
0.0
 10
7.852562992125984
 20
4.920255905511811
 30
0.0
 10
7.852562992125984
 20
4.920255905511811
 30
0.0
 10
7.994271653543307
 20
5.018850393700787
 30
0.0
 10
8.100370078740157
 20
5.165086614173228
 30
0.0
 10
8.147641732283464
 20
5.335748031496063
 30
0.0
 10
8.147641732283464
 20
5.335748031496063
 30
0.0
 10
8.165326771653543
 20
5.39959842519685
 30
0.0
 10
8.174775590551182
 20
5.466866141732283
 30
0.0
 10
8.174775590551182
 20
5.536334645669291
 30
0.0
 10
8.174775590551182
 20
5.536334645669291
 30
0.0
 10
8.174775590551182
 20
5.605374015748032
 30
0.0
 10
8.16544094488189
 20
5.672236220472441
 30
0.0
 10
8.147968503937008
 20
5.735732283464567
 30
0.0
 10
8.147968503937008
 20
5.735732283464567
 30
0.0
 10
8.10086220472441
 20
5.906893700787402
 30
0.0
 10
7.994602362204724
 20
6.053574803149607
 30
0.0
 10
7.852574803149606
 20
6.152397637795276
 30
0.0
 10
7.852574803149606
 20
6.152397637795276
 30
0.0
 10
7.834751968503937
 20
6.124212598425196
 30
0.0
 10
7.797669291338583
 20
6.114889763779527
 30
0.0
 10
7.768527559055118
 20
6.131716535433071
 30
0.0
  0
TEXT
  5
AA
330
1F
100
AcDbEntity
  8
Layer 1
 62
   250
100
AcDbText
 10
5.355413385826772
 20
3.982948818897638
 30
0.0
 40
0.2400009448818897
  1
MOTOR MOUNT RETAINER
 51
-0.0000015352345087
  7
4
100
AcDbText
  0
TEXT
  5
AB
330
1F
100
AcDbEntity
  8
Layer 1
 62
   250
100
AcDbText
 10
5.355413385826772
 20
3.61055905511811
 30
0.0
 40
0.2400009448818897
  1
    1/8” BIRCH PLYWOOD
 51
-0.0000015352345087
  7
0
100
AcDbText
  0
SPLINE
  5
AC
330
1F
100
AcDbEntity
  8
Layer 1
 62
    22
370
    18
100
AcDbSpline
210
0.0
220
0.0
230
1.0
 70
    24
 71
     3
 72
     8
 73
     4
 74
     0
 42
0.0000000001
 43
0.0000000001
 40
0.0
 40
0.0
 40
0.0
 40
0.0
 40
1.0
 40
1.0
 40
1.0
 40
1.0
 10
0.4883937007874016
 20
-11.22856692913386
 30
0.0
 10
0.4883937007874016
 20
-11.22856692913386
 30
0.0
 10
0.4691614173228347
 20
-11.26186220472441
 30
0.0
 10
0.4691614173228347
 20
-11.26186220472441
 30
0.0
  0
SPLINE
  5
AD
330
1F
100
AcDbEntity
  8
Layer 1
 62
    22
370
    18
100
AcDbSpline
210
0.0
220
0.0
230
1.0
 70
    24
 71
     3
 72
     8
 73
     4
 74
     0
 42
0.0000000001
 43
0.0000000001
 40
0.0
 40
0.0
 40
0.0
 40
0.0
 40
1.0
 40
1.0
 40
1.0
 40
1.0
 10
-3.085055118110236
 20
-13.29175984251969
 30
0.0
 10
-3.085055118110236
 20
-13.29175984251969
 30
0.0
 10
-3.046637795275591
 20
-13.29175196850394
 30
0.0
 10
-3.046637795275591
 20
-13.29175196850394
 30
0.0
  0
SPLINE
  5
AE
330
1F
100
AcDbEntity
  8
Layer 1
 62
    22
370
    18
100
AcDbSpline
210
0.0
220
0.0
230
1.0
 70
    24
 71
     3
 72
     8
 73
     4
 74
     0
 42
0.0000000001
 43
0.0000000001
 40
0.0
 40
0.0
 40
0.0
 40
0.0
 40
1.0
 40
1.0
 40
1.0
 40
1.0
 10
0.4884566929133858
 20
-15.35485039370079
 30
0.0
 10
0.4884566929133858
 20
-15.35485039370079
 30
0.0
 10
0.4685472440944882
 20
-15.32037007874016
 30
0.0
 10
0.4685472440944882
 20
-15.32037007874016
 30
0.0
  0
SPLINE
  5
AF
330
1F
100
AcDbEntity
  8
Layer 1
 62
   114
370
     9
100
AcDbSpline
210
0.0
220
0.0
230
1.0
 70
     8
 71
     3
 72
     8
 73
     4
 74
     0
 42
0.0000000001
 43
0.0000000001
 40
0.0
 40
0.0
 40
0.0
 40
0.0
 40
1.0
 40
1.0
 40
1.0
 40
1.0
 10
0.3628228346456693
 20
-15.55282677165354
 30
0.0
 10
0.2934606299212598
 20
-15.5856062992126
 30
0.0
 10
0.2232165354330709
 20
-15.61491338582677
 30
0.0
 10
0.1523070866141732
 20
-15.64081496062992
 30
0.0
  0
SPLINE
  5
B0
330
1F
100
AcDbEntity
  8
Layer 1
 62
   114
370
     9
100
AcDbSpline
210
0.0
220
0.0
230
1.0
 70
     8
 71
     3
 72
     8
 73
     4
 74
     0
 42
0.0000000001
 43
0.0000000001
 40
0.0
 40
0.0
 40
0.0
 40
0.0
 40
1.0
 40
1.0
 40
1.0
 40
1.0
 10
0.9041850393700788
 20
-15.2067125984252
 30
0.0
 10
0.8463110236220472
 20
-15.25516929133858
 30
0.0
 10
0.7857992125984252
 20
-15.30135826771654
 30
0.0
 10
0.722732283464567
 20
-15.34503543307087
 30
0.0
  0
SPLINE
  5
B1
330
1F
100
AcDbEntity
  8
Layer 1
 62
   114
370
     9
100
AcDbSpline
210
0.0
220
0.0
230
1.0
 70
     8
 71
     3
 72
     8
 73
     4
 74
     0
 42
0.0000000001
 43
0.0000000001
 40
0.0
 40
0.0
 40
0.0
 40
0.0
 40
1.0
 40
1.0
 40
1.0
 40
1.0
 10
0.7226692913385827
 20
-11.23837795275591
 30
0.0
 10
0.785736220472441
 20
-11.28206299212598
 30
0.0
 10
0.8462440944881889
 20
-11.32824015748031
 30
0.0
 10
0.9041259842519686
 20
-11.3766968503937
 30
0.0
  0
SPLINE
  5
B2
330
1F
100
AcDbEntity
  8
Layer 1
 62
   114
370
     9
100
AcDbSpline
210
0.0
220
0.0
230
1.0
 70
     8
 71
     3
 72
     8
 73
     4
 74
     0
 42
0.0000000001
 43
0.0000000001
 40
0.0
 40
0.0
 40
0.0
 40
0.0
 40
1.0
 40
1.0
 40
1.0
 40
1.0
 10
0.152244094488189
 20
-10.9426062992126
 30
0.0
 10
0.2231496062992126
 20
-10.96849606299213
 30
0.0
 10
0.2933976377952756
 20
-10.9978031496063
 30
0.0
 10
0.3627637795275591
 20
-11.0305905511811
 30
0.0
  0
SPLINE
  5
B3
330
1F
100
AcDbEntity
  8
Layer 1
 62
   114
370
     9
100
AcDbSpline
210
0.0
220
0.0
230
1.0
 70
     8
 71
     3
 72
     8
 73
     4
 74
     0
 42
0.0000000001
 43
0.0000000001
 40
0.0
 40
0.0
 40
0.0
 40
0.0
 40
1.0
 40
1.0
 40
1.0
 40
1.0
 10
-3.193696850393701
 20
-13.08396850393701
 30
0.0
 10
-3.187393700787402
 20
-13.00751181102362
 30
0.0
 10
-3.177657480314961
 20
-12.93201968503937
 30
0.0
 10
-3.164633858267717
 20
-12.85766535433071
 30
0.0
  0
SPLINE
  5
B4
330
1F
100
AcDbEntity
  8
Layer 1
 62
   114
370
     9
100
AcDbSpline
210
0.0
220
0.0
230
1.0
 70
     8
 71
     3
 72
     8
 73
     4
 74
     0
 42
0.0000000001
 43
0.0000000001
 40
0.0
 40
0.0
 40
0.0
 40
0.0
 40
1.0
 40
1.0
 40
1.0
 40
1.0
 10
-3.164633858267717
 20
-13.72585826771654
 30
0.0
 10
-3.177657480314961
 20
-13.65150787401575
 30
0.0
 10
-3.187401574803149
 20
-13.57601181102362
 30
0.0
 10
-3.193688976377953
 20
-13.49955511811024
 30
0.0
  0
SPLINE
  5
B5
330
1F
100
AcDbEntity
  8
Layer 1
 62
   114
370
     9
100
AcDbSpline
210
0.0
220
0.0
230
1.0
 70
    24
 71
     3
 72
     8
 73
     4
 74
     0
 42
0.0000000001
 43
0.0000000001
 40
0.0
 40
0.0
 40
0.0
 40
0.0
 40
1.0
 40
1.0
 40
1.0
 40
1.0
 10
-0.3009763779527559
 20
-13.77050393700787
 30
0.0
 10
-0.3009763779527559
 20
-13.77050393700787
 30
0.0
 10
0.9039251968503937
 20
-15.20640551181102
 30
0.0
 10
0.9039251968503937
 20
-15.20640551181102
 30
0.0
  0
SPLINE
  5
B6
330
1F
100
AcDbEntity
  8
Layer 1
 62
   114
370
     9
100
AcDbSpline
210
0.0
220
0.0
230
1.0
 70
    24
 71
     3
 72
     8
 73
     4
 74
     0
 42
0.0000000001
 43
0.0000000001
 40
0.0
 40
0.0
 40
0.0
 40
0.0
 40
1.0
 40
1.0
 40
1.0
 40
1.0
 10
-0.4889645669291339
 20
-12.70440551181102
 30
0.0
 10
-0.4889645669291339
 20
-12.70440551181102
 30
0.0
 10
0.1521062992125984
 20
-10.94298031496063
 30
0.0
 10
0.1521062992125984
 20
-10.94298031496063
 30
0.0
  0
SPLINE
  5
B7
330
1F
100
AcDbEntity
  8
Layer 1
 62
   114
370
     9
100
AcDbSpline
210
0.0
220
0.0
230
1.0
 70
    24
 71
     3
 72
     8
 73
     4
 74
     0
 42
0.0000000001
 43
0.0000000001
 40
0.0
 40
0.0
 40
0.0
 40
0.0
 40
1.0
 40
1.0
 40
1.0
 40
1.0
 10
-1.318259842519685
 20
-13.40025984251968
 30
0.0
 10
-1.318259842519685
 20
-13.40025984251968
 30
0.0
 10
-3.164232283464567
 20
-13.72579527559055
 30
0.0
 10
-3.164232283464567
 20
-13.72579527559055
 30
0.0
  0
SPLINE
  5
B8
330
1F
100
AcDbEntity
  8
Layer 1
 62
   114
370
     9
100
AcDbSpline
210
0.0
220
0.0
230
1.0
 70
    24
 71
     3
 72
     8
 73
     4
 74
     0
 42
0.0000000001
 43
0.0000000001
 40
0.0
 40
0.0
 40
0.0
 40
0.0
 40
1.0
 40
1.0
 40
1.0
 40
1.0
 10
-0.4889448818897638
 20
-13.87903149606299
 30
0.0
 10
-0.4889448818897638
 20
-13.87903149606299
 30
0.0
 10
0.1521771653543307
 20
-15.64044094488189
 30
0.0
 10
0.1521771653543307
 20
-15.64044094488189
 30
0.0
  0
SPLINE
  5
B9
330
1F
100
AcDbEntity
  8
Layer 1
 62
   114
370
     9
100
AcDbSpline
210
0.0
220
0.0
230
1.0
 70
    24
 71
     3
 72
     8
 73
     4
 74
     0
 42
0.0000000001
 43
0.0000000001
 40
0.0
 40
0.0
 40
0.0
 40
0.0
 40
1.0
 40
1.0
 40
1.0
 40
1.0
 10
-0.300996062992126
 20
-12.81293307086614
 30
0.0
 10
-0.300996062992126
 20
-12.81293307086614
 30
0.0
 10
0.9038700787401575
 20
-11.377
 30
0.0
 10
0.9038700787401575
 20
-11.377
 30
0.0
  0
SPLINE
  5
BA
330
1F
100
AcDbEntity
  8
Layer 1
 62
   114
370
     9
100
AcDbSpline
210
0.0
220
0.0
230
1.0
 70
    24
 71
     3
 72
     8
 73
     4
 74
     0
 42
0.0000000001
 43
0.0000000001
 40
0.0
 40
0.0
 40
0.0
 40
0.0
 40
1.0
 40
1.0
 40
1.0
 40
1.0
 10
-1.318259842519685
 20
-13.18320866141732
 30
0.0
 10
-1.318259842519685
 20
-13.18320866141732
 30
0.0
 10
-3.164248031496063
 20
-12.85773622047244
 30
0.0
 10
-3.164248031496063
 20
-12.85773622047244
 30
0.0
  0
SPLINE
  5
BB
330
1F
100
AcDbEntity
  8
Layer 1
 62
   114
370
     9
100
AcDbSpline
210
0.0
220
0.0
230
1.0
 70
     8
 71
     3
 72
    12
 73
     8
 74
     0
 42
0.0000000001
 43
0.0000000001
 40
0.0
 40
0.0
 40
0.0
 40
0.0
 40
0.5
 40
0.5
 40
0.5
 40
0.5
 40
1.0
 40
1.0
 40
1.0
 40
1.0
 10
0.3128622047244095
 20
-15.44685433070866
 30
0.0
 10
0.3721141732283464
 20
-15.41884645669291
 30
0.0
 10
0.4306968503937008
 20
-15.3881968503937
 30
0.0
 10
0.4884566929133858
 20
-15.35485039370079
 30
0.0
 10
0.4884566929133858
 20
-15.35485039370079
 30
0.0
 10
0.5462204724409448
 20
-15.3215
 30
0.0
 10
0.6020551181102363
 20
-15.28608661417323
 30
0.0
 10
0.6559291338582677
 20
-15.24877559055118
 30
0.0
  0
SPLINE
  5
BC
330
1F
100
AcDbEntity
  8
Layer 1
 62
   114
370
     9
100
AcDbSpline
210
0.0
220
0.0
230
1.0
 70
     8
 71
     3
 72
    12
 73
     8
 74
     0
 42
0.0000000001
 43
0.0000000001
 40
0.0
 40
0.0
 40
0.0
 40
0.0
 40
0.5
 40
0.5
 40
0.5
 40
0.5
 40
1.0
 40
1.0
 40
1.0
 40
1.0
 10
0.6558661417322834
 20
-11.33463779527559
 30
0.0
 10
0.6019960629921259
 20
-11.29732677165354
 30
0.0
 10
0.5461614173228346
 20
-11.26191732283465
 30
0.0
 10
0.4883937007874016
 20
-11.22856692913386
 30
0.0
 10
0.4883937007874016
 20
-11.22856692913386
 30
0.0
 10
0.4306299212598425
 20
-11.19521653543307
 30
0.0
 10
0.3720511811023622
 20
-11.16457086614173
 30
0.0
 10
0.3128031496062992
 20
-11.13657086614173
 30
0.0
  0
SPLINE
  5
BD
330
1F
100
AcDbEntity
  8
Layer 1
 62
   114
370
     9
100
AcDbSpline
210
0.0
220
0.0
230
1.0
 70
     8
 71
     3
 72
    12
 73
     8
 74
     0
 42
0.0000000001
 43
0.0000000001
 40
0.0
 40
0.0
 40
0.0
 40
0.0
 40
0.5
 40
0.5
 40
0.5
 40
0.5
 40
1.0
 40
1.0
 40
1.0
 40
1.0
 10
-3.076933070866142
 20
-13.09368897637795
 30
0.0
 10
-3.082311023622047
 20
-13.15900787401575
 30
0.0
 10
-3.085055118110236
 20
-13.22506299212598
 30
0.0
 10
-3.085055118110236
 20
-13.29175984251969
 30
0.0
 10
-3.085055118110236
 20
-13.29175984251969
 30
0.0
 10
-3.085051181102362
 20
-13.35846456692913
 30
0.0
 10
-3.082303149606299
 20
-13.4245157480315
 30
0.0
 10
-3.076929133858268
 20
-13.48983070866142
 30
0.0
  0
SPLINE
  5
BE
330
1F
100
AcDbEntity
  8
Layer 1
 62
   114
370
     9
100
AcDbSpline
210
0.0
220
0.0
230
1.0
 70
    24
 71
     3
 72
     8
 73
     4
 74
     0
 42
0.0000000001
 43
0.0000000001
 40
0.0
 40
0.0
 40
0.0
 40
0.0
 40
1.0
 40
1.0
 40
1.0
 40
1.0
 10
0.7227165354330709
 20
-15.34500787401575
 30
0.0
 10
0.7227165354330709
 20
-15.34500787401575
 30
0.0
 10
0.6559212598425197
 20
-15.24877165354331
 30
0.0
 10
0.6559212598425197
 20
-15.24877165354331
 30
0.0
  0
SPLINE
  5
BF
330
1F
100
AcDbEntity
  8
Layer 1
 62
   114
370
     9
100
AcDbSpline
210
0.0
220
0.0
230
1.0
 70
    24
 71
     3
 72
     8
 73
     4
 74
     0
 42
0.0000000001
 43
0.0000000001
 40
0.0
 40
0.0
 40
0.0
 40
0.0
 40
1.0
 40
1.0
 40
1.0
 40
1.0
 10
0.3128503937007874
 20
-15.44682283464567
 30
0.0
 10
0.3128503937007874
 20
-15.44682283464567
 30
0.0
 10
0.3628149606299212
 20
-15.5528031496063
 30
0.0
 10
0.3628149606299212
 20
-15.5528031496063
 30
0.0
  0
SPLINE
  5
C0
330
1F
100
AcDbEntity
  8
Layer 1
 62
   114
370
     9
100
AcDbSpline
210
0.0
220
0.0
230
1.0
 70
    24
 71
     3
 72
     8
 73
     4
 74
     0
 42
0.0000000001
 43
0.0000000001
 40
0.0
 40
0.0
 40
0.0
 40
0.0
 40
1.0
 40
1.0
 40
1.0
 40
1.0
 10
0.362740157480315
 20
-11.03061811023622
 30
0.0
 10
0.362740157480315
 20
-11.03061811023622
 30
0.0
 10
0.3127952755905512
 20
-11.13657086614173
 30
0.0
 10
0.3127952755905512
 20
-11.13657086614173
 30
0.0
  0
SPLINE
  5
C1
330
1F
100
AcDbEntity
  8
Layer 1
 62
   114
370
     9
100
AcDbSpline
210
0.0
220
0.0
230
1.0
 70
    24
 71
     3
 72
     8
 73
     4
 74
     0
 42
0.0000000001
 43
0.0000000001
 40
0.0
 40
0.0
 40
0.0
 40
0.0
 40
1.0
 40
1.0
 40
1.0
 40
1.0
 10
0.6558503937007873
 20
-11.33465748031496
 30
0.0
 10
0.6558503937007873
 20
-11.33465748031496
 30
0.0
 10
0.7226535433070866
 20
-11.23840157480315
 30
0.0
 10
0.7226535433070866
 20
-11.23840157480315
 30
0.0
  0
SPLINE
  5
C2
330
1F
100
AcDbEntity
  8
Layer 1
 62
   114
370
     9
100
AcDbSpline
210
0.0
220
0.0
230
1.0
 70
    24
 71
     3
 72
     8
 73
     4
 74
     0
 42
0.0000000001
 43
0.0000000001
 40
0.0
 40
0.0
 40
0.0
 40
0.0
 40
1.0
 40
1.0
 40
1.0
 40
1.0
 10
-3.193661417322835
 20
-13.49955511811024
 30
0.0
 10
-3.193661417322835
 20
-13.49955511811024
 30
0.0
 10
-3.07692125984252
 20
-13.48983464566929
 30
0.0
 10
-3.07692125984252
 20
-13.48983464566929
 30
0.0
  0
SPLINE
  5
C3
330
1F
100
AcDbEntity
  8
Layer 1
 62
   114
370
     9
100
AcDbSpline
210
0.0
220
0.0
230
1.0
 70
    24
 71
     3
 72
     8
 73
     4
 74
     0
 42
0.0000000001
 43
0.0000000001
 40
0.0
 40
0.0
 40
0.0
 40
0.0
 40
1.0
 40
1.0
 40
1.0
 40
1.0
 10
-3.076901574803149
 20
-13.0936968503937
 30
0.0
 10
-3.076901574803149
 20
-13.0936968503937
 30
0.0
 10
-3.193669291338582
 20
-13.08397637795276
 30
0.0
 10
-3.193669291338582
 20
-13.08397637795276
 30
0.0
  0
SPLINE
  5
C4
330
1F
100
AcDbEntity
  8
Layer 1
 62
   114
370
     9
100
AcDbSpline
210
0.0
220
0.0
230
1.0
 70
     8
 71
     3
 72
     8
 73
     4
 74
     0
 42
0.0000000001
 43
0.0000000001
 40
0.0
 40
0.0
 40
0.0
 40
0.0
 40
1.0
 40
1.0
 40
1.0
 40
1.0
 10
-1.318102362204724
 20
-13.18324409448819
 30
0.0
 10
-1.293070866141732
 20
-13.04173228346457
 30
0.0
 10
-1.219625984251969
 20
-12.90957874015748
 30
0.0
 10
-1.104877952755906
 20
-12.81333858267717
 30
0.0
  0
SPLINE
  5
C5
330
1F
100
AcDbEntity
  8
Layer 1
 62
   114
370
     9
100
AcDbSpline
210
0.0
220
0.0
230
1.0
 70
     8
 71
     3
 72
     8
 73
     4
 74
     0
 42
0.0000000001
 43
0.0000000001
 40
0.0
 40
0.0
 40
0.0
 40
0.0
 40
1.0
 40
1.0
 40
1.0
 40
1.0
 10
-0.9171417322834645
 20
-12.7046968503937
 30
0.0
 10
-0.7760944881889764
 20
-12.65300787401575
 30
0.0
 10
-0.6244645669291339
 20
-12.65534645669291
 30
0.0
 10
-0.4890196850393701
 20
-12.70456299212598
 30
0.0
  0
SPLINE
  5
C6
330
1F
100
AcDbEntity
  8
Layer 1
 62
   114
370
     9
100
AcDbSpline
210
0.0
220
0.0
230
1.0
 70
     8
 71
     3
 72
    12
 73
     8
 74
     0
 42
0.0000000001
 43
0.0000000001
 40
0.0
 40
0.0
 40
0.0
 40
0.0
 40
0.5
 40
0.5
 40
0.5
 40
0.5
 40
1.0
 40
1.0
 40
1.0
 40
1.0
 10
-0.300996062992126
 20
-12.81293307086614
 30
0.0
 10
-0.2466181102362205
 20
-12.85854330708661
 30
0.0
 10
-0.1991377952755906
 20
-12.91427165354331
 30
0.0
 10
-0.1615944881889764
 20
-12.97929527559055
 30
0.0
 10
-0.1615944881889764
 20
-12.97929527559055
 30
0.0
 10
-0.1240708661417323
 20
-13.04428346456693
 30
0.0
 10
-0.0995511811023622
 20
-13.11322047244095
 30
0.0
 10
-0.087236220472441
 20
-13.18307874015748
 30
0.0
  0
SPLINE
  5
C7
330
1F
100
AcDbEntity
  8
Layer 1
 62
   114
370
     9
100
AcDbSpline
210
0.0
220
0.0
230
1.0
 70
     8
 71
     3
 72
     8
 73
     4
 74
     0
 42
0.0000000001
 43
0.0000000001
 40
0.0
 40
0.0
 40
0.0
 40
0.0
 40
1.0
 40
1.0
 40
1.0
 40
1.0
 10
-0.0874094488188976
 20
-13.40034645669291
 30
0.0
 10
-0.112488188976378
 20
-13.5419842519685
 30
0.0
 10
-0.1860590551181102
 20
-13.67423228346457
 30
0.0
 10
-0.301007874015748
 20
-13.77046850393701
 30
0.0
  0
SPLINE
  5
C8
330
1F
100
AcDbEntity
  8
Layer 1
 62
   114
370
     9
100
AcDbSpline
210
0.0
220
0.0
230
1.0
 70
     8
 71
     3
 72
     8
 73
     4
 74
     0
 42
0.0000000001
 43
0.0000000001
 40
0.0
 40
0.0
 40
0.0
 40
0.0
 40
1.0
 40
1.0
 40
1.0
 40
1.0
 10
-0.4889566929133858
 20
-13.87900393700787
 30
0.0
 10
-0.6300433070866142
 20
-13.93053937007874
 30
0.0
 10
-0.7816732283464567
 20
-13.92804724409449
 30
0.0
 10
-0.9170748031496063
 20
-13.8786811023622
 30
0.0
  0
SPLINE
  5
C9
330
1F
100
AcDbEntity
  8
Layer 1
 62
   114
370
     9
100
AcDbSpline
210
0.0
220
0.0
230
1.0
 70
     8
 71
     3
 72
    12
 73
     8
 74
     0
 42
0.0000000001
 43
0.0000000001
 40
0.0
 40
0.0
 40
0.0
 40
0.0
 40
0.5
 40
0.5
 40
0.5
 40
0.5
 40
1.0
 40
1.0
 40
1.0
 40
1.0
 10
-1.104897637795276
 20
-13.7701968503937
 30
0.0
 10
-1.159114173228347
 20
-13.72464960629921
 30
0.0
 10
-1.20644094488189
 20
-13.66903149606299
 30
0.0
 10
-1.243885826771653
 20
-13.60417322834646
 30
0.0
 10
-1.243885826771653
 20
-13.60417322834646
 30
0.0
 10
-1.281433070866142
 20
-13.53914566929134
 30
0.0
 10
-1.305956692913386
 20
-13.47016929133858
 30
0.0
 10
-1.318267716535433
 20
-13.40025984251968
 30
0.0
  0
SPLINE
  5
CA
330
1F
100
AcDbEntity
  8
Layer 1
 62
   114
370
     9
100
AcDbSpline
210
0.0
220
0.0
230
1.0
 70
     8
 71
     3
 72
     8
 73
     4
 74
     0
 42
0.0000000001
 43
0.0000000001
 40
0.0
 40
0.0
 40
0.0
 40
0.0
 40
1.0
 40
1.0
 40
1.0
 40
1.0
 10
-3.077291338582677
 20
-13.48986614173228
 30
0.0
 10
-3.088240157480315
 20
-13.35745275590551
 30
0.0
 10
-3.08798031496063
 20
-13.22492125984252
 30
0.0
 10
-3.076909448818898
 20
-13.09368897637795
 30
0.0
  0
SPLINE
  5
CB
330
1F
100
AcDbEntity
  8
Layer 1
 62
   114
370
     9
100
AcDbSpline
210
0.0
220
0.0
230
1.0
 70
     8
 71
     3
 72
     8
 73
     4
 74
     0
 42
0.0000000001
 43
0.0000000001
 40
0.0
 40
0.0
 40
0.0
 40
0.0
 40
1.0
 40
1.0
 40
1.0
 40
1.0
 10
0.3127874015748032
 20
-11.13659842519685
 30
0.0
 10
0.4319685039370079
 20
-11.19262204724409
 30
0.0
 10
0.5468700787401575
 20
-11.25867322834646
 30
0.0
 10
0.6560669291338582
 20
-11.33435039370079
 30
0.0
  0
SPLINE
  5
CC
330
1F
100
AcDbEntity
  8
Layer 1
 62
   114
370
     9
100
AcDbSpline
210
0.0
220
0.0
230
1.0
 70
     8
 71
     3
 72
    12
 73
     8
 74
     0
 42
0.0000000001
 43
0.0000000001
 40
0.0
 40
0.0
 40
0.0
 40
0.0
 40
0.5
 40
0.5
 40
0.5
 40
0.5
 40
1.0
 40
1.0
 40
1.0
 40
1.0
 10
0.6559330708661417
 20
-15.24877165354331
 30
0.0
 10
0.6020472440944882
 20
-15.28608661417323
 30
0.0
 10
0.5462047244094488
 20
-15.32150393700787
 30
0.0
 10
0.4884409448818898
 20
-15.35485826771654
 30
0.0
 10
0.4884409448818898
 20
-15.35485826771654
 30
0.0
 10
0.4306811023622047
 20
-15.38820472440945
 30
0.0
 10
0.3721102362204725
 20
-15.41885433070866
 30
0.0
 10
0.3128661417322834
 20
-15.44685433070866
 30
0.0
  0
SPLINE
  5
CD
330
1F
100
AcDbEntity
  8
Layer 1
 62
   114
370
     9
100
AcDbSpline
210
0.0
220
0.0
230
1.0
 70
     8
 71
     3
 72
     8
 73
     4
 74
     0
 42
0.0000000001
 43
0.0000000001
 40
0.0
 40
0.0
 40
0.0
 40
0.0
 40
1.0
 40
1.0
 40
1.0
 40
1.0
 10
0.3628307086614173
 20
-15.55283070866142
 30
0.0
 10
0.2934685039370079
 20
-15.58561417322835
 30
0.0
 10
0.2232165354330709
 20
-15.61492519685039
 30
0.0
 10
0.1523070866141732
 20
-15.64082677165354
 30
0.0
  0
SPLINE
  5
CE
330
1F
100
AcDbEntity
  8
Layer 1
 62
   114
370
     9
100
AcDbSpline
210
0.0
220
0.0
230
1.0
 70
     8
 71
     3
 72
     8
 73
     4
 74
     0
 42
0.0000000001
 43
0.0000000001
 40
0.0
 40
0.0
 40
0.0
 40
0.0
 40
1.0
 40
1.0
 40
1.0
 40
1.0
 10
-3.164850393700787
 20
-13.72589763779528
 30
0.0
 10
-3.178106299212598
 20
-13.65065354330709
 30
0.0
 10
-3.187818897637795
 20
-13.57513779527559
 30
0.0
 10
-3.194066929133858
 20
-13.49958661417323
 30
0.0
  0
SPLINE
  5
CF
330
1F
100
AcDbEntity
  8
Layer 1
 62
   114
370
     9
100
AcDbSpline
210
0.0
220
0.0
230
1.0
 70
     8
 71
     3
 72
     8
 73
     4
 74
     0
 42
0.0000000001
 43
0.0000000001
 40
0.0
 40
0.0
 40
0.0
 40
0.0
 40
1.0
 40
1.0
 40
1.0
 40
1.0
 10
-3.193673228346457
 20
-13.08397637795276
 30
0.0
 10
-3.187275590551181
 20
-13.00807874015748
 30
0.0
 10
-3.17742125984252
 20
-12.93258267716535
 30
0.0
 10
-3.164181102362205
 20
-12.85774409448819
 30
0.0
  0
SPLINE
  5
D0
330
1F
100
AcDbEntity
  8
Layer 1
 62
   114
370
     9
100
AcDbSpline
210
0.0
220
0.0
230
1.0
 70
     8
 71
     3
 72
     8
 73
     4
 74
     0
 42
0.0000000001
 43
0.0000000001
 40
0.0
 40
0.0
 40
0.0
 40
0.0
 40
1.0
 40
1.0
 40
1.0
 40
1.0
 10
0.1520787401574803
 20
-10.94305118110236
 30
0.0
 10
0.223507874015748
 20
-10.96900393700787
 30
0.0
 10
0.2938149606299212
 20
-10.9982125984252
 30
0.0
 10
0.362748031496063
 20
-11.03061811023622
 30
0.0
  0
SPLINE
  5
D1
330
1F
100
AcDbEntity
  8
Layer 1
 62
   114
370
     9
100
AcDbSpline
210
0.0
220
0.0
230
1.0
 70
     8
 71
     3
 72
     8
 73
     4
 74
     0
 42
0.0000000001
 43
0.0000000001
 40
0.0
 40
0.0
 40
0.0
 40
0.0
 40
1.0
 40
1.0
 40
1.0
 40
1.0
 10
0.7228858267716536
 20
-11.23807874015748
 30
0.0
 10
0.7851850393700788
 20
-11.28125590551181
 30
0.0
 10
0.8457244094488189
 20
-11.32743700787402
 30
0.0
 10
0.9042637795275591
 20
-11.37653149606299
 30
0.0
  0
SPLINE
  5
D2
330
1F
100
AcDbEntity
  8
Layer 1
 62
   114
370
     9
100
AcDbSpline
210
0.0
220
0.0
230
1.0
 70
     8
 71
     3
 72
     8
 73
     4
 74
     0
 42
0.0000000001
 43
0.0000000001
 40
0.0
 40
0.0
 40
0.0
 40
0.0
 40
1.0
 40
1.0
 40
1.0
 40
1.0
 10
0.9041850393700788
 20
-15.20670866141732
 30
0.0
 10
0.8463031496062993
 20
-15.25516929133858
 30
0.0
 10
0.7857952755905512
 20
-15.30135039370079
 30
0.0
 10
0.7227283464566929
 20
-15.34503543307087
 30
0.0
  0
SPLINE
  5
D3
330
1F
100
AcDbEntity
  8
Layer 1
 62
   114
370
     9
100
AcDbSpline
210
0.0
220
0.0
230
1.0
 70
    11
 71
     3
 72
    20
 73
    16
 74
     0
 42
0.0000000001
 43
0.0000000001
 40
0.0
 40
0.0
 40
0.0
 40
0.0
 40
0.25
 40
0.25
 40
0.25
 40
0.25
 40
0.5
 40
0.5
 40
0.5
 40
0.5
 40
0.75
 40
0.75
 40
0.75
 40
0.75
 40
1.0
 40
1.0
 40
1.0
 40
1.0
 10
-0.6259291338582678
 20
-13.42476377952756
 30
0.0
 10
-0.5521220472440945
 20
-13.38214960629921
 30
0.0
 10
-0.5268267716535433
 20
-13.28774015748031
 30
0.0
 10
-0.5694448818897638
 20
-13.21392913385827
 30
0.0
 10
-0.5694448818897638
 20
-13.21392913385827
 30
0.0
 10
-0.6120551181102363
 20
-13.14012204724409
 30
0.0
 10
-0.7064685039370079
 20
-13.11482283464567
 30
0.0
 10
-0.7802795275590552
 20
-13.15743700787402
 30
0.0
 10
-0.7802795275590552
 20
-13.15743700787402
 30
0.0
 10
-0.8540905511811023
 20
-13.20005511811024
 30
0.0
 10
-0.8793818897637795
 20
-13.29446456692913
 30
0.0
 10
-0.836767716535433
 20
-13.36827559055118
 30
0.0
 10
-0.836767716535433
 20
-13.36827559055118
 30
0.0
 10
-0.7941496062992126
 20
-13.44208267716535
 30
0.0
 10
-0.6997401574803149
 20
-13.46738188976378
 30
0.0
 10
-0.6259291338582678
 20
-13.42476377952756
 30
0.0
  0
SPLINE
  5
D4
330
1F
100
AcDbEntity
  8
Layer 1
 62
    22
370
    18
100
AcDbSpline
210
0.0
220
0.0
230
1.0
 70
    24
 71
     3
 72
     8
 73
     4
 74
     0
 42
0.0000000001
 43
0.0000000001
 40
0.0
 40
0.0
 40
0.0
 40
0.0
 40
1.0
 40
1.0
 40
1.0
 40
1.0
 10
1.678854330708661
 20
-13.29170472440945
 30
0.0
 10
1.678854330708661
 20
-13.29170472440945
 30
0.0
 10
1.640405511811024
 20
-13.29169291338583
 30
0.0
 10
1.640405511811024
 20
-13.29169291338583
 30
0.0
  0
SPLINE
  5
D5
330
1F
100
AcDbEntity
  8
Layer 1
 62
    22
370
    18
100
AcDbSpline
210
0.0
220
0.0
230
1.0
 70
    24
 71
     3
 72
     8
 73
     4
 74
     0
 42
0.0000000001
 43
0.0000000001
 40
0.0
 40
0.0
 40
0.0
 40
0.0
 40
1.0
 40
1.0
 40
1.0
 40
1.0
 10
-1.894649606299213
 20
-11.22860236220473
 30
0.0
 10
-1.894649606299213
 20
-11.22860236220473
 30
0.0
 10
-1.875433070866142
 20
-11.26187007874016
 30
0.0
 10
-1.875433070866142
 20
-11.26187007874016
 30
0.0
  0
SPLINE
  5
D6
330
1F
100
AcDbEntity
  8
Layer 1
 62
    22
370
    18
100
AcDbSpline
210
0.0
220
0.0
230
1.0
 70
    24
 71
     3
 72
     8
 73
     4
 74
     0
 42
0.0000000001
 43
0.0000000001
 40
0.0
 40
0.0
 40
0.0
 40
0.0
 40
1.0
 40
1.0
 40
1.0
 40
1.0
 10
-1.89457874015748
 20
-15.35490157480315
 30
0.0
 10
-1.89457874015748
 20
-15.35490157480315
 30
0.0
 10
-1.874669291338583
 20
-15.32041732283465
 30
0.0
 10
-1.874669291338583
 20
-15.32041732283465
 30
0.0
  0
SPLINE
  5
D7
330
1F
100
AcDbEntity
  8
Layer 1
 62
   114
370
     9
100
AcDbSpline
210
0.0
220
0.0
230
1.0
 70
     8
 71
     3
 72
     8
 73
     4
 74
     0
 42
0.0000000001
 43
0.0000000001
 40
0.0
 40
0.0
 40
0.0
 40
0.0
 40
1.0
 40
1.0
 40
1.0
 40
1.0
 10
-2.128850393700787
 20
-15.3450905511811
 30
0.0
 10
-2.19192125984252
 20
-15.30140551181102
 30
0.0
 10
-2.25242125984252
 20
-15.25522834645669
 30
0.0
 10
-2.310307086614173
 20
-15.20676771653543
 30
0.0
  0
SPLINE
  5
D8
330
1F
100
AcDbEntity
  8
Layer 1
 62
   114
370
     9
100
AcDbSpline
210
0.0
220
0.0
230
1.0
 70
     8
 71
     3
 72
     8
 73
     4
 74
     0
 42
0.0000000001
 43
0.0000000001
 40
0.0
 40
0.0
 40
0.0
 40
0.0
 40
1.0
 40
1.0
 40
1.0
 40
1.0
 10
-1.558429133858268
 20
-15.64086614173228
 30
0.0
 10
-1.629326771653543
 20
-15.61496850393701
 30
0.0
 10
-1.69957874015748
 20
-15.58566141732283
 30
0.0
 10
-1.768944881889764
 20
-15.55288188976378
 30
0.0
  0
SPLINE
  5
D9
330
1F
100
AcDbEntity
  8
Layer 1
 62
   114
370
     9
100
AcDbSpline
210
0.0
220
0.0
230
1.0
 70
     8
 71
     3
 72
     8
 73
     4
 74
     0
 42
0.0000000001
 43
0.0000000001
 40
0.0
 40
0.0
 40
0.0
 40
0.0
 40
1.0
 40
1.0
 40
1.0
 40
1.0
 10
1.787496062992126
 20
-13.4995
 30
0.0
 10
1.781196850393701
 20
-13.57595669291339
 30
0.0
 10
1.771456692913386
 20
-13.65144881889764
 30
0.0
 10
1.758437007874016
 20
-13.7258031496063
 30
0.0
  0
SPLINE
  5
DA
330
1F
100
AcDbEntity
  8
Layer 1
 62
   114
370
     9
100
AcDbSpline
210
0.0
220
0.0
230
1.0
 70
     8
 71
     3
 72
     8
 73
     4
 74
     0
 42
0.0000000001
 43
0.0000000001
 40
0.0
 40
0.0
 40
0.0
 40
0.0
 40
1.0
 40
1.0
 40
1.0
 40
1.0
 10
1.758433070866142
 20
-12.8576062992126
 30
0.0
 10
1.771456692913386
 20
-12.93195669291339
 30
0.0
 10
1.781200787401575
 20
-13.00745275590551
 30
0.0
 10
1.787492125984252
 20
-13.08391338582677
 30
0.0
  0
SPLINE
  5
DB
330
1F
100
AcDbEntity
  8
Layer 1
 62
   114
370
     9
100
AcDbSpline
210
0.0
220
0.0
230
1.0
 70
     8
 71
     3
 72
     8
 73
     4
 74
     0
 42
0.0000000001
 43
0.0000000001
 40
0.0
 40
0.0
 40
0.0
 40
0.0
 40
1.0
 40
1.0
 40
1.0
 40
1.0
 10
-1.769015748031496
 20
-11.03062204724409
 30
0.0
 10
-1.699649606299213
 20
-10.99785039370079
 30
0.0
 10
-1.62940157480315
 20
-10.96853937007874
 30
0.0
 10
-1.5585
 20
-10.94263779527559
 30
0.0
  0
SPLINE
  5
DC
330
1F
100
AcDbEntity
  8
Layer 1
 62
   114
370
     9
100
AcDbSpline
210
0.0
220
0.0
230
1.0
 70
     8
 71
     3
 72
     8
 73
     4
 74
     0
 42
0.0000000001
 43
0.0000000001
 40
0.0
 40
0.0
 40
0.0
 40
0.0
 40
1.0
 40
1.0
 40
1.0
 40
1.0
 10
-2.310377952755906
 20
-11.37673622047244
 30
0.0
 10
-2.2525
 20
-11.32827952755905
 30
0.0
 10
-2.191992125984252
 20
-11.28209448818898
 30
0.0
 10
-2.12892125984252
 20
-11.23841732283465
 30
0.0
  0
SPLINE
  5
DD
330
1F
100
AcDbEntity
  8
Layer 1
 62
   114
370
     9
100
AcDbSpline
210
0.0
220
0.0
230
1.0
 70
    24
 71
     3
 72
     8
 73
     4
 74
     0
 42
0.0000000001
 43
0.0000000001
 40
0.0
 40
0.0
 40
0.0
 40
0.0
 40
1.0
 40
1.0
 40
1.0
 40
1.0
 10
-0.9172125984251969
 20
-13.87905905511811
 30
0.0
 10
-0.9172125984251969
 20
-13.87905905511811
 30
0.0
 10
-1.558287401574803
 20
-15.6404842519685
 30
0.0
 10
-1.558287401574803
 20
-15.6404842519685
 30
0.0
  0
SPLINE
  5
DE
330
1F
100
AcDbEntity
  8
Layer 1
 62
   114
370
     9
100
AcDbSpline
210
0.0
220
0.0
230
1.0
 70
    24
 71
     3
 72
     8
 73
     4
 74
     0
 42
0.0000000001
 43
0.0000000001
 40
0.0
 40
0.0
 40
0.0
 40
0.0
 40
1.0
 40
1.0
 40
1.0
 40
1.0
 10
-0.0879409448818898
 20
-13.18320472440945
 30
0.0
 10
-0.0879409448818898
 20
-13.18320472440945
 30
0.0
 10
1.758035433070866
 20
-12.85767322834646
 30
0.0
 10
1.758035433070866
 20
-12.85767322834646
 30
0.0
  0
SPLINE
  5
DF
330
1F
100
AcDbEntity
  8
Layer 1
 62
   114
370
     9
100
AcDbSpline
210
0.0
220
0.0
230
1.0
 70
    24
 71
     3
 72
     8
 73
     4
 74
     0
 42
0.0000000001
 43
0.0000000001
 40
0.0
 40
0.0
 40
0.0
 40
0.0
 40
1.0
 40
1.0
 40
1.0
 40
1.0
 10
-1.105216535433071
 20
-12.81294488188976
 30
0.0
 10
-1.105216535433071
 20
-12.81294488188976
 30
0.0
 10
-2.31011811023622
 20
-11.37704724409449
 30
0.0
 10
-2.31011811023622
 20
-11.37704724409449
 30
0.0
  0
SPLINE
  5
E0
330
1F
100
AcDbEntity
  8
Layer 1
 62
   114
370
     9
100
AcDbSpline
210
0.0
220
0.0
230
1.0
 70
    24
 71
     3
 72
     8
 73
     4
 74
     0
 42
0.0000000001
 43
0.0000000001
 40
0.0
 40
0.0
 40
0.0
 40
0.0
 40
1.0
 40
1.0
 40
1.0
 40
1.0
 10
-1.105185039370079
 20
-13.77053937007874
 30
0.0
 10
-1.105185039370079
 20
-13.77053937007874
 30
0.0
 10
-2.310051181102362
 20
-15.20646850393701
 30
0.0
 10
-2.310051181102362
 20
-15.20646850393701
 30
0.0
  0
SPLINE
  5
E1
330
1F
100
AcDbEntity
  8
Layer 1
 62
   114
370
     9
100
AcDbSpline
210
0.0
220
0.0
230
1.0
 70
    24
 71
     3
 72
     8
 73
     4
 74
     0
 42
0.0000000001
 43
0.0000000001
 40
0.0
 40
0.0
 40
0.0
 40
0.0
 40
1.0
 40
1.0
 40
1.0
 40
1.0
 10
-0.0879409448818898
 20
-13.40025590551181
 30
0.0
 10
-0.0879409448818898
 20
-13.40025590551181
 30
0.0
 10
1.758043307086614
 20
-13.72573228346457
 30
0.0
 10
1.758043307086614
 20
-13.72573228346457
 30
0.0
  0
SPLINE
  5
E2
330
1F
100
AcDbEntity
  8
Layer 1
 62
   114
370
     9
100
AcDbSpline
210
0.0
220
0.0
230
1.0
 70
    24
 71
     3
 72
     8
 73
     4
 74
     0
 42
0.0000000001
 43
0.0000000001
 40
0.0
 40
0.0
 40
0.0
 40
0.0
 40
1.0
 40
1.0
 40
1.0
 40
1.0
 10
-0.917244094488189
 20
-12.70441732283465
 30
0.0
 10
-0.917244094488189
 20
-12.70441732283465
 30
0.0
 10
-1.558366141732283
 20
-10.94300787401575
 30
0.0
 10
-1.558366141732283
 20
-10.94300787401575
 30
0.0
  0
SPLINE
  5
E3
330
1F
100
AcDbEntity
  8
Layer 1
 62
   114
370
     9
100
AcDbSpline
210
0.0
220
0.0
230
1.0
 70
     8
 71
     3
 72
    12
 73
     8
 74
     0
 42
0.0000000001
 43
0.0000000001
 40
0.0
 40
0.0
 40
0.0
 40
0.0
 40
0.5
 40
0.5
 40
0.5
 40
0.5
 40
1.0
 40
1.0
 40
1.0
 40
1.0
 10
-2.062051181102362
 20
-15.24883070866142
 30
0.0
 10
-2.008173228346457
 20
-15.28614173228346
 30
0.0
 10
-1.952338582677165
 20
-15.32155118110236
 30
0.0
 10
-1.89457874015748
 20
-15.35490157480315
 30
0.0
 10
-1.89457874015748
 20
-15.35490157480315
 30
0.0
 10
-1.836814960629921
 20
-15.38824803149606
 30
0.0
 10
-1.778228346456693
 20
-15.4188937007874
 30
0.0
 10
-1.71898031496063
 20
-15.44689763779528
 30
0.0
  0
SPLINE
  5
E4
330
1F
100
AcDbEntity
  8
Layer 1
 62
   114
370
     9
100
AcDbSpline
210
0.0
220
0.0
230
1.0
 70
     8
 71
     3
 72
    12
 73
     8
 74
     0
 42
0.0000000001
 43
0.0000000001
 40
0.0
 40
0.0
 40
0.0
 40
0.0
 40
0.5
 40
0.5
 40
0.5
 40
0.5
 40
1.0
 40
1.0
 40
1.0
 40
1.0
 10
1.670732283464567
 20
-13.48977559055118
 30
0.0
 10
1.676106299212598
 20
-13.42446456692913
 30
0.0
 10
1.678854330708661
 20
-13.35840551181102
 30
0.0
 10
1.678854330708661
 20
-13.29170472440945
 30
0.0
 10
1.678854330708661
 20
-13.29170472440945
 30
0.0
 10
1.678854330708661
 20
-13.22500393700787
 30
0.0
 10
1.676102362204724
 20
-13.15894881889764
 30
0.0
 10
1.670728346456693
 20
-13.09363779527559
 30
0.0
  0
SPLINE
  5
E5
330
1F
100
AcDbEntity
  8
Layer 1
 62
   114
370
     9
100
AcDbSpline
210
0.0
220
0.0
230
1.0
 70
     8
 71
     3
 72
    12
 73
     8
 74
     0
 42
0.0000000001
 43
0.0000000001
 40
0.0
 40
0.0
 40
0.0
 40
0.0
 40
0.5
 40
0.5
 40
0.5
 40
0.5
 40
1.0
 40
1.0
 40
1.0
 40
1.0
 10
-1.719051181102362
 20
-11.13660236220472
 30
0.0
 10
-1.778303149606299
 20
-11.16460236220473
 30
0.0
 10
-1.836889763779528
 20
-11.19525196850394
 30
0.0
 10
-1.894649606299213
 20
-11.22860236220473
 30
0.0
 10
-1.894649606299213
 20
-11.22860236220473
 30
0.0
 10
-1.952413385826772
 20
-11.26195669291338
 30
0.0
 10
-2.008240157480315
 20
-11.29736614173228
 30
0.0
 10
-2.06211811023622
 20
-11.33467322834646
 30
0.0
  0
SPLINE
  5
E6
330
1F
100
AcDbEntity
  8
Layer 1
 62
   114
370
     9
100
AcDbSpline
210
0.0
220
0.0
230
1.0
 70
    24
 71
     3
 72
     8
 73
     4
 74
     0
 42
0.0000000001
 43
0.0000000001
 40
0.0
 40
0.0
 40
0.0
 40
0.0
 40
1.0
 40
1.0
 40
1.0
 40
1.0
 10
-1.768925196850394
 20
-15.55285039370079
 30
0.0
 10
-1.768925196850394
 20
-15.55285039370079
 30
0.0
 10
-1.71898031496063
 20
-15.4468937007874
 30
0.0
 10
-1.71898031496063
 20
-15.4468937007874
 30
0.0
  0
SPLINE
  5
E7
330
1F
100
AcDbEntity
  8
Layer 1
 62
   114
370
     9
100
AcDbSpline
210
0.0
220
0.0
230
1.0
 70
    24
 71
     3
 72
     8
 73
     4
 74
     0
 42
0.0000000001
 43
0.0000000001
 40
0.0
 40
0.0
 40
0.0
 40
0.0
 40
1.0
 40
1.0
 40
1.0
 40
1.0
 10
-2.062035433070866
 20
-15.24880708661417
 30
0.0
 10
-2.062035433070866
 20
-15.24880708661417
 30
0.0
 10
-2.128834645669291
 20
-15.34507086614173
 30
0.0
 10
-2.128834645669291
 20
-15.34507086614173
 30
0.0
  0
SPLINE
  5
E8
330
1F
100
AcDbEntity
  8
Layer 1
 62
   114
370
     9
100
AcDbSpline
210
0.0
220
0.0
230
1.0
 70
    24
 71
     3
 72
     8
 73
     4
 74
     0
 42
0.0000000001
 43
0.0000000001
 40
0.0
 40
0.0
 40
0.0
 40
0.0
 40
1.0
 40
1.0
 40
1.0
 40
1.0
 10
1.78746062992126
 20
-13.0839094488189
 30
0.0
 10
1.78746062992126
 20
-13.0839094488189
 30
0.0
 10
1.670724409448819
 20
-13.09363385826772
 30
0.0
 10
1.670724409448819
 20
-13.09363385826772
 30
0.0
  0
SPLINE
  5
E9
330
1F
100
AcDbEntity
  8
Layer 1
 62
   114
370
     9
100
AcDbSpline
210
0.0
220
0.0
230
1.0
 70
    24
 71
     3
 72
     8
 73
     4
 74
     0
 42
0.0000000001
 43
0.0000000001
 40
0.0
 40
0.0
 40
0.0
 40
0.0
 40
1.0
 40
1.0
 40
1.0
 40
1.0
 10
1.670704724409449
 20
-13.48977165354331
 30
0.0
 10
1.670704724409449
 20
-13.48977165354331
 30
0.0
 10
1.787468503937008
 20
-13.49949606299213
 30
0.0
 10
1.787468503937008
 20
-13.49949606299213
 30
0.0
  0
SPLINE
  5
EA
330
1F
100
AcDbEntity
  8
Layer 1
 62
   114
370
     9
100
AcDbSpline
210
0.0
220
0.0
230
1.0
 70
    24
 71
     3
 72
     8
 73
     4
 74
     0
 42
0.0000000001
 43
0.0000000001
 40
0.0
 40
0.0
 40
0.0
 40
0.0
 40
1.0
 40
1.0
 40
1.0
 40
1.0
 10
-2.128905511811024
 20
-11.23844488188976
 30
0.0
 10
-2.128905511811024
 20
-11.23844488188976
 30
0.0
 10
-2.06211811023622
 20
-11.33468110236221
 30
0.0
 10
-2.06211811023622
 20
-11.33468110236221
 30
0.0
  0
SPLINE
  5
EB
330
1F
100
AcDbEntity
  8
Layer 1
 62
   114
370
     9
100
AcDbSpline
210
0.0
220
0.0
230
1.0
 70
    24
 71
     3
 72
     8
 73
     4
 74
     0
 42
0.0000000001
 43
0.0000000001
 40
0.0
 40
0.0
 40
0.0
 40
0.0
 40
1.0
 40
1.0
 40
1.0
 40
1.0
 10
-1.719043307086614
 20
-11.13662992125984
 30
0.0
 10
-1.719043307086614
 20
-11.13662992125984
 30
0.0
 10
-1.769007874015748
 20
-11.03064960629921
 30
0.0
 10
-1.769007874015748
 20
-11.03064960629921
 30
0.0
  0
SPLINE
  5
EC
330
1F
100
AcDbEntity
  8
Layer 1
 62
   114
370
     9
100
AcDbSpline
210
0.0
220
0.0
230
1.0
 70
     8
 71
     3
 72
     8
 73
     4
 74
     0
 42
0.0000000001
 43
0.0000000001
 40
0.0
 40
0.0
 40
0.0
 40
0.0
 40
1.0
 40
1.0
 40
1.0
 40
1.0
 10
-2.062326771653543
 20
-11.33437795275591
 30
0.0
 10
-1.953129921259843
 20
-11.25868897637795
 30
0.0
 10
-1.838228346456693
 20
-11.19264960629921
 30
0.0
 10
-1.71903937007874
 20
-11.13662204724409
 30
0.0
  0
SPLINE
  5
ED
330
1F
100
AcDbEntity
  8
Layer 1
 62
   114
370
     9
100
AcDbSpline
210
0.0
220
0.0
230
1.0
 70
     8
 71
     3
 72
     8
 73
     4
 74
     0
 42
0.0000000001
 43
0.0000000001
 40
0.0
 40
0.0
 40
0.0
 40
0.0
 40
1.0
 40
1.0
 40
1.0
 40
1.0
 10
1.670700787401575
 20
-13.09363779527559
 30
0.0
 10
1.681771653543307
 20
-13.22486614173228
 30
0.0
 10
1.682023622047244
 20
-13.35739763779528
 30
0.0
 10
1.67107874015748
 20
-13.48980708661417
 30
0.0
  0
SPLINE
  5
EE
330
1F
100
AcDbEntity
  8
Layer 1
 62
   114
370
     9
100
AcDbSpline
210
0.0
220
0.0
230
1.0
 70
     8
 71
     3
 72
    12
 73
     8
 74
     0
 42
0.0000000001
 43
0.0000000001
 40
0.0
 40
0.0
 40
0.0
 40
0.0
 40
0.5
 40
0.5
 40
0.5
 40
0.5
 40
1.0
 40
1.0
 40
1.0
 40
1.0
 10
-1.718976377952756
 20
-15.44689763779528
 30
0.0
 10
-1.778232283464567
 20
-15.4188937007874
 30
0.0
 10
-1.836826771653543
 20
-15.38824015748031
 30
0.0
 10
-1.894594488188976
 20
-15.35488976377953
 30
0.0
 10
-1.894594488188976
 20
-15.35488976377953
 30
0.0
 10
-1.952354330708661
 20
-15.32154330708661
 30
0.0
 10
-2.008185039370079
 20
-15.28614173228346
 30
0.0
 10
-2.062055118110236
 20
-15.24883464566929
 30
0.0
  0
SPLINE
  5
EF
330
1F
100
AcDbEntity
  8
Layer 1
 62
   114
370
     9
100
AcDbSpline
210
0.0
220
0.0
230
1.0
 70
     8
 71
     3
 72
     8
 73
     4
 74
     0
 42
0.0000000001
 43
0.0000000001
 40
0.0
 40
0.0
 40
0.0
 40
0.0
 40
1.0
 40
1.0
 40
1.0
 40
1.0
 10
-2.128850393700787
 20
-15.34509448818898
 30
0.0
 10
-2.191925196850394
 20
-15.30141338582677
 30
0.0
 10
-2.252433070866142
 20
-15.25523228346457
 30
0.0
 10
-2.310318897637795
 20
-15.20677559055118
 30
0.0
  0
SPLINE
  5
F0
330
1F
100
AcDbEntity
  8
Layer 1
 62
   114
370
     9
100
AcDbSpline
210
0.0
220
0.0
230
1.0
 70
     8
 71
     3
 72
     8
 73
     4
 74
     0
 42
0.0000000001
 43
0.0000000001
 40
0.0
 40
0.0
 40
0.0
 40
0.0
 40
1.0
 40
1.0
 40
1.0
 40
1.0
 10
-2.31051968503937
 20
-11.37656692913386
 30
0.0
 10
-2.251984251968504
 20
-11.32746456692913
 30
0.0
 10
-2.19144094488189
 20
-11.28129527559055
 30
0.0
 10
-2.129137795275591
 20
-11.23811417322835
 30
0.0
  0
SPLINE
  5
F1
330
1F
100
AcDbEntity
  8
Layer 1
 62
   114
370
     9
100
AcDbSpline
210
0.0
220
0.0
230
1.0
 70
     8
 71
     3
 72
     8
 73
     4
 74
     0
 42
0.0000000001
 43
0.0000000001
 40
0.0
 40
0.0
 40
0.0
 40
0.0
 40
1.0
 40
1.0
 40
1.0
 40
1.0
 10
-1.769011811023622
 20
-11.03064566929134
 30
0.0
 10
-1.700082677165354
 20
-10.99823622047244
 30
0.0
 10
-1.629771653543307
 20
-10.96902362204724
 30
0.0
 10
-1.558342519685039
 20
-10.94306692913386
 30
0.0
  0
SPLINE
  5
F2
330
1F
100
AcDbEntity
  8
Layer 1
 62
   114
370
     9
100
AcDbSpline
210
0.0
220
0.0
230
1.0
 70
     8
 71
     3
 72
     8
 73
     4
 74
     0
 42
0.0000000001
 43
0.0000000001
 40
0.0
 40
0.0
 40
0.0
 40
0.0
 40
1.0
 40
1.0
 40
1.0
 40
1.0
 10
1.75796062992126
 20
-12.85768897637795
 30
0.0
 10
1.771196850393701
 20
-12.93252362204724
 30
0.0
 10
1.78105905511811
 20
-13.0080157480315
 30
0.0
 10
1.78746062992126
 20
-13.08391732283465
 30
0.0
  0
SPLINE
  5
F3
330
1F
100
AcDbEntity
  8
Layer 1
 62
   114
370
     9
100
AcDbSpline
210
0.0
220
0.0
230
1.0
 70
     8
 71
     3
 72
     8
 73
     4
 74
     0
 42
0.0000000001
 43
0.0000000001
 40
0.0
 40
0.0
 40
0.0
 40
0.0
 40
1.0
 40
1.0
 40
1.0
 40
1.0
 10
1.787862204724409
 20
-13.49953543307087
 30
0.0
 10
1.781618110236221
 20
-13.57507480314961
 30
0.0
 10
1.771897637795276
 20
-13.65059448818898
 30
0.0
 10
1.758645669291339
 20
-13.72583858267716
 30
0.0
  0
SPLINE
  5
F4
330
1F
100
AcDbEntity
  8
Layer 1
 62
   114
370
     9
100
AcDbSpline
210
0.0
220
0.0
230
1.0
 70
     8
 71
     3
 72
     8
 73
     4
 74
     0
 42
0.0000000001
 43
0.0000000001
 40
0.0
 40
0.0
 40
0.0
 40
0.0
 40
1.0
 40
1.0
 40
1.0
 40
1.0
 10
-1.55842125984252
 20
-15.64085826771653
 30
0.0
 10
-1.629330708661417
 20
-15.61496456692913
 30
0.0
 10
-1.699574803149606
 20
-15.58565354330709
 30
0.0
 10
-1.76894094488189
 20
-15.5528779527559
 30
0.0
  0
TEXT
  5
F6
330
1F
100
AcDbEntity
  8
Layer 1
 62
   250
100
AcDbText
 10
-2.363228346456693
 20
-16.32427165354331
 30
0.0
 40
0.2400009448818897
  1
        FAN BLADES
 51
-0.0000015352345087
  7
5
100
AcDbText
  0
TEXT
  5
F7
330
1F
100
AcDbEntity
  8
Layer 1
 62
   250
100
AcDbText
 10
-2.363228346456693
 20
-16.69666141732283
 30
0.0
 40
0.2400009448818897
  1
.037” BIRCH PLYWOOD
 51
-0.0000015352345087
  7
0
100
AcDbText
  0
SPLINE
  5
F8
330
1F
100
AcDbEntity
  8
Layer 1
 62
   114
370
     9
100
AcDbSpline
210
0.0
220
0.0
230
1.0
 70
    11
 71
     3
 72
    20
 73
    16
 74
     0
 42
0.0000000001
 43
0.0000000001
 40
0.0
 40
0.0
 40
0.0
 40
0.0
 40
0.25
 40
0.25
 40
0.25
 40
0.25
 40
0.5
 40
0.5
 40
0.5
 40
0.5
 40
0.75
 40
0.75
 40
0.75
 40
0.75
 40
1.0
 40
1.0
 40
1.0
 40
1.0
 10
-6.819850393700787
 20
-15.67786614173228
 30
0.0
 10
-5.439374015748031
 20
-15.67786614173228
 30
0.0
 10
-4.319850393700787
 20
-14.55834251968504
 30
0.0
 10
-4.319850393700787
 20
-13.17786614173228
 30
0.0
 10
-4.319850393700787
 20
-13.17786614173228
 30
0.0
 10
-4.319850393700787
 20
-11.79738976377953
 30
0.0
 10
-5.439374015748031
 20
-10.67786614173228
 30
0.0
 10
-6.819850393700787
 20
-10.67786614173228
 30
0.0
 10
-6.819850393700787
 20
-10.67786614173228
 30
0.0
 10
-8.200330708661417
 20
-10.67786614173228
 30
0.0
 10
-9.319850393700788
 20
-11.79738976377953
 30
0.0
 10
-9.319850393700788
 20
-13.17786614173228
 30
0.0
 10
-9.319850393700788
 20
-13.17786614173228
 30
0.0
 10
-9.319850393700788
 20
-14.55834251968504
 30
0.0
 10
-8.200330708661417
 20
-15.67786614173228
 30
0.0
 10
-6.819850393700787
 20
-15.67786614173228
 30
0.0
  0
SPLINE
  5
F9
330
1F
100
AcDbEntity
  8
Layer 1
 62
   114
370
     9
100
AcDbSpline
210
0.0
220
0.0
230
1.0
 70
    11
 71
     3
 72
    20
 73
    16
 74
     0
 42
0.0000000001
 43
0.0000000001
 40
0.0
 40
0.0
 40
0.0
 40
0.0
 40
0.25
 40
0.25
 40
0.25
 40
0.25
 40
0.5
 40
0.5
 40
0.5
 40
0.5
 40
0.75
 40
0.75
 40
0.75
 40
0.75
 40
1.0
 40
1.0
 40
1.0
 40
1.0
 10
-6.819850393700787
 20
-15.5606811023622
 30
0.0
 10
-5.504082677165354
 20
-15.5606811023622
 30
0.0
 10
-4.43703937007874
 20
-14.49363385826772
 30
0.0
 10
-4.43703937007874
 20
-13.17786614173228
 30
0.0
 10
-4.43703937007874
 20
-13.17786614173228
 30
0.0
 10
-4.43703937007874
 20
-11.86209842519685
 30
0.0
 10
-5.504082677165354
 20
-10.79505118110236
 30
0.0
 10
-6.819850393700787
 20
-10.79505118110236
 30
0.0
 10
-6.819850393700787
 20
-10.79505118110236
 30
0.0
 10
-8.135622047244095
 20
-10.79505118110236
 30
0.0
 10
-9.202661417322835
 20
-11.86209842519685
 30
0.0
 10
-9.202661417322835
 20
-13.17786614173228
 30
0.0
 10
-9.202661417322835
 20
-13.17786614173228
 30
0.0
 10
-9.202661417322835
 20
-14.49363385826772
 30
0.0
 10
-8.135622047244095
 20
-15.5606811023622
 30
0.0
 10
-6.819850393700787
 20
-15.5606811023622
 30
0.0
  0
SPLINE
  5
FA
330
1F
100
AcDbEntity
  8
Layer 1
 62
    22
370
    18
100
AcDbSpline
210
0.0
220
0.0
230
1.0
 70
    24
 71
     3
 72
     8
 73
     4
 74
     0
 42
0.0000000001
 43
0.0000000001
 40
0.0
 40
0.0
 40
0.0
 40
0.0
 40
1.0
 40
1.0
 40
1.0
 40
1.0
 10
-6.819850393700787
 20
-15.56067716535433
 30
0.0
 10
-6.819850393700787
 20
-15.56067716535433
 30
0.0
 10
-6.819850393700787
 20
-15.67786614173228
 30
0.0
 10
-6.819850393700787
 20
-15.67786614173228
 30
0.0
  0
SPLINE
  5
FB
330
1F
100
AcDbEntity
  8
Layer 1
 62
    22
370
    18
100
AcDbSpline
210
0.0
220
0.0
230
1.0
 70
    24
 71
     3
 72
     8
 73
     4
 74
     0
 42
0.0000000001
 43
0.0000000001
 40
0.0
 40
0.0
 40
0.0
 40
0.0
 40
1.0
 40
1.0
 40
1.0
 40
1.0
 10
-4.75603937007874
 20
-14.36940551181102
 30
0.0
 10
-4.75603937007874
 20
-14.36940551181102
 30
0.0
 10
-4.654787401574803
 20
-14.42786614173228
 30
0.0
 10
-4.654787401574803
 20
-14.42786614173228
 30
0.0
  0
SPLINE
  5
FC
330
1F
100
AcDbEntity
  8
Layer 1
 62
    22
370
    18
100
AcDbSpline
210
0.0
220
0.0
230
1.0
 70
    24
 71
     3
 72
     8
 73
     4
 74
     0
 42
0.0000000001
 43
0.0000000001
 40
0.0
 40
0.0
 40
0.0
 40
0.0
 40
1.0
 40
1.0
 40
1.0
 40
1.0
 10
-6.819850393700787
 20
-10.79507086614173
 30
0.0
 10
-6.819850393700787
 20
-10.79507086614173
 30
0.0
 10
-6.819850393700787
 20
-10.67786614173228
 30
0.0
 10
-6.819850393700787
 20
-10.67786614173228
 30
0.0
  0
SPLINE
  5
FD
330
1F
100
AcDbEntity
  8
Layer 1
 62
    22
370
    18
100
AcDbSpline
210
0.0
220
0.0
230
1.0
 70
    24
 71
     3
 72
     8
 73
     4
 74
     0
 42
0.0000000001
 43
0.0000000001
 40
0.0
 40
0.0
 40
0.0
 40
0.0
 40
1.0
 40
1.0
 40
1.0
 40
1.0
 10
-8.883673228346456
 20
-14.3694094488189
 30
0.0
 10
-8.883673228346456
 20
-14.3694094488189
 30
0.0
 10
-8.984913385826772
 20
-14.42786614173228
 30
0.0
 10
-8.984913385826772
 20
-14.42786614173228
 30
0.0
  0
SPLINE
  5
FE
330
1F
100
AcDbEntity
  8
Layer 1
 62
    22
370
    18
100
AcDbSpline
210
0.0
220
0.0
230
1.0
 70
    24
 71
     3
 72
     8
 73
     4
 74
     0
 42
0.0000000001
 43
0.0000000001
 40
0.0
 40
0.0
 40
0.0
 40
0.0
 40
1.0
 40
1.0
 40
1.0
 40
1.0
 10
-4.756047244094488
 20
-11.98631496062992
 30
0.0
 10
-4.756047244094488
 20
-11.98631496062992
 30
0.0
 10
-4.654787401574803
 20
-11.92786614173228
 30
0.0
 10
-4.654787401574803
 20
-11.92786614173228
 30
0.0
  0
SPLINE
  5
FF
330
1F
100
AcDbEntity
  8
Layer 1
 62
    22
370
    18
100
AcDbSpline
210
0.0
220
0.0
230
1.0
 70
    24
 71
     3
 72
     8
 73
     4
 74
     0
 42
0.0000000001
 43
0.0000000001
 40
0.0
 40
0.0
 40
0.0
 40
0.0
 40
1.0
 40
1.0
 40
1.0
 40
1.0
 10
-8.88367716535433
 20
-11.98631496062992
 30
0.0
 10
-8.88367716535433
 20
-11.98631496062992
 30
0.0
 10
-8.984913385826772
 20
-11.92786614173228
 30
0.0
 10
-8.984913385826772
 20
-11.92786614173228
 30
0.0
  0
TEXT
  5
101
330
1F
100
AcDbEntity
  8
Layer 1
 62
   250
100
AcDbText
 10
-8.593503937007874
 20
-16.41070472440945
 30
0.0
 40
0.2400009448818897
  1
            FAN RIM
 51
-0.0000015352345087
  7
6
100
AcDbText
  0
TEXT
  5
102
330
1F
100
AcDbEntity
  8
Layer 1
 62
   250
100
AcDbText
 10
-8.593503937007874
 20
-16.78309448818898
 30
0.0
 40
0.2400009448818897
  1
 1/8” BIRCH PLYWOOD
 51
-0.0000015352345087
  7
0
100
AcDbText
  0
SPLINE
  5
103
330
1F
100
AcDbEntity
  8
Layer 1
 62
   114
370
     9
100
AcDbSpline
210
0.0
220
0.0
230
1.0
 70
    11
 71
     3
 72
    20
 73
    16
 74
     0
 42
0.0000000001
 43
0.0000000001
 40
0.0
 40
0.0
 40
0.0
 40
0.0
 40
0.25
 40
0.25
 40
0.25
 40
0.25
 40
0.5
 40
0.5
 40
0.5
 40
0.5
 40
0.75
 40
0.75
 40
0.75
 40
0.75
 40
1.0
 40
1.0
 40
1.0
 40
1.0
 10
4.437602362204724
 20
-13.72856299212599
 30
0.0
 10
4.713696850393701
 20
-13.72856299212599
 30
0.0
 10
4.937602362204724
 20
-13.50465748031496
 30
0.0
 10
4.937602362204724
 20
-13.22856299212599
 30
0.0
 10
4.937602362204724
 20
-13.22856299212599
 30
0.0
 10
4.937602362204724
 20
-12.95246850393701
 30
0.0
 10
4.713696850393701
 20
-12.72856299212599
 30
0.0
 10
4.437602362204724
 20
-12.72856299212599
 30
0.0
 10
4.437602362204724
 20
-12.72856299212599
 30
0.0
 10
4.161507874015748
 20
-12.72856299212599
 30
0.0
 10
3.937602362204724
 20
-12.95246850393701
 30
0.0
 10
3.937602362204724
 20
-13.22856299212599
 30
0.0
 10
3.937602362204724
 20
-13.22856299212599
 30
0.0
 10
3.937602362204724
 20
-13.50465748031496
 30
0.0
 10
4.161507874015748
 20
-13.72856299212599
 30
0.0
 10
4.437602362204724
 20
-13.72856299212599
 30
0.0
  0
SPLINE
  5
104
330
1F
100
AcDbEntity
  8
Layer 1
 62
   114
370
     9
100
AcDbSpline
210
0.0
220
0.0
230
1.0
 70
    11
 71
     3
 72
    20
 73
    16
 74
     0
 42
0.0000000001
 43
0.0000000001
 40
0.0
 40
0.0
 40
0.0
 40
0.0
 40
0.25
 40
0.25
 40
0.25
 40
0.25
 40
0.5
 40
0.5
 40
0.5
 40
0.5
 40
0.75
 40
0.75
 40
0.75
 40
0.75
 40
1.0
 40
1.0
 40
1.0
 40
1.0
 10
4.437602362204724
 20
-13.34856299212598
 30
0.0
 10
4.503866141732283
 20
-13.34856299212598
 30
0.0
 10
4.557602362204724
 20
-13.29482677165354
 30
0.0
 10
4.557602362204724
 20
-13.22856299212599
 30
0.0
 10
4.557602362204724
 20
-13.22856299212599
 30
0.0
 10
4.557602362204724
 20
-13.16229921259843
 30
0.0
 10
4.503866141732283
 20
-13.10856299212598
 30
0.0
 10
4.437602362204724
 20
-13.10856299212598
 30
0.0
 10
4.437602362204724
 20
-13.10856299212598
 30
0.0
 10
4.371338582677166
 20
-13.10856299212598
 30
0.0
 10
4.317602362204725
 20
-13.16229921259843
 30
0.0
 10
4.317602362204725
 20
-13.22856299212599
 30
0.0
 10
4.317602362204725
 20
-13.22856299212599
 30
0.0
 10
4.317602362204725
 20
-13.29482677165354
 30
0.0
 10
4.371338582677166
 20
-13.34856299212598
 30
0.0
 10
4.437602362204724
 20
-13.34856299212598
 30
0.0
  0
SPLINE
  5
105
330
1F
100
AcDbEntity
  8
Layer 1
 62
   114
370
     9
100
AcDbSpline
210
0.0
220
0.0
230
1.0
 70
    11
 71
     3
 72
    20
 73
    16
 74
     0
 42
0.0000000001
 43
0.0000000001
 40
0.0
 40
0.0
 40
0.0
 40
0.0
 40
0.25
 40
0.25
 40
0.25
 40
0.25
 40
0.5
 40
0.5
 40
0.5
 40
0.5
 40
0.75
 40
0.75
 40
0.75
 40
0.75
 40
1.0
 40
1.0
 40
1.0
 40
1.0
 10
5.504161417322835
 20
-13.72856299212599
 30
0.0
 10
5.780255905511811
 20
-13.72856299212599
 30
0.0
 10
6.004161417322835
 20
-13.50465748031496
 30
0.0
 10
6.004161417322835
 20
-13.22856299212599
 30
0.0
 10
6.004161417322835
 20
-13.22856299212599
 30
0.0
 10
6.004161417322835
 20
-12.95246850393701
 30
0.0
 10
5.780255905511811
 20
-12.72856299212599
 30
0.0
 10
5.504161417322835
 20
-12.72856299212599
 30
0.0
 10
5.504161417322835
 20
-12.72856299212599
 30
0.0
 10
5.228066929133858
 20
-12.72856299212599
 30
0.0
 10
5.004161417322835
 20
-12.95246850393701
 30
0.0
 10
5.004161417322835
 20
-13.22856299212599
 30
0.0
 10
5.004161417322835
 20
-13.22856299212599
 30
0.0
 10
5.004161417322835
 20
-13.50465748031496
 30
0.0
 10
5.228066929133858
 20
-13.72856299212599
 30
0.0
 10
5.504161417322835
 20
-13.72856299212599
 30
0.0
  0
SPLINE
  5
106
330
1F
100
AcDbEntity
  8
Layer 1
 62
   114
370
     9
100
AcDbSpline
210
0.0
220
0.0
230
1.0
 70
    11
 71
     3
 72
    20
 73
    16
 74
     0
 42
0.0000000001
 43
0.0000000001
 40
0.0
 40
0.0
 40
0.0
 40
0.0
 40
0.25
 40
0.25
 40
0.25
 40
0.25
 40
0.5
 40
0.5
 40
0.5
 40
0.5
 40
0.75
 40
0.75
 40
0.75
 40
0.75
 40
1.0
 40
1.0
 40
1.0
 40
1.0
 10
5.504161417322835
 20
-13.34856299212598
 30
0.0
 10
5.570425196850394
 20
-13.34856299212598
 30
0.0
 10
5.624161417322835
 20
-13.29482677165354
 30
0.0
 10
5.624161417322835
 20
-13.22856299212599
 30
0.0
 10
5.624161417322835
 20
-13.22856299212599
 30
0.0
 10
5.624161417322835
 20
-13.16229921259843
 30
0.0
 10
5.570425196850394
 20
-13.10856299212598
 30
0.0
 10
5.504161417322835
 20
-13.10856299212598
 30
0.0
 10
5.504161417322835
 20
-13.10856299212598
 30
0.0
 10
5.437897637795276
 20
-13.10856299212598
 30
0.0
 10
5.384161417322835
 20
-13.16229921259843
 30
0.0
 10
5.384161417322835
 20
-13.22856299212599
 30
0.0
 10
5.384161417322835
 20
-13.22856299212599
 30
0.0
 10
5.384161417322835
 20
-13.29482677165354
 30
0.0
 10
5.437897637795276
 20
-13.34856299212598
 30
0.0
 10
5.504161417322835
 20
-13.34856299212598
 30
0.0
  0
TEXT
  5
108
330
1F
100
AcDbEntity
  8
Layer 1
 62
   250
100
AcDbText
 10
3.318507874015748
 20
-14.30364173228346
 30
0.0
 40
0.2400009448818897
  1
           FAN HUB
 51
-0.0000015352345087
  7
7
100
AcDbText
  0
TEXT
  5
109
330
1F
100
AcDbEntity
  8
Layer 1
 62
   250
100
AcDbText
 10
3.318507874015748
 20
-14.67603149606299
 30
0.0
 40
0.2400009448818897
  1
1/8” BIRCH PLYWOOD
 51
-0.0000015352345087
  7
0
100
AcDbText
  0
TEXT
  5
10A
330
1F
100
AcDbEntity
  8
Layer 1
 62
   250
100
AcDbText
 10
-2.212377952755898
 20
-5.106452755905512
 30
0.0
 40
0.2400009448818897
  1
LAUNCH PAD   1/8” BIRCH PLYWOOD
 41
0.9999999999999999
 51
-0.0000015352345087
  7
0
100
AcDbText
  0
SPLINE
  5
10B
330
1F
100
AcDbEntity
  8
Layer 1
 62
   114
370
     9
100
AcDbSpline
210
0.0
220
0.0
230
1.0
 70
     8
 71
     3
 72
    12
 73
     8
 74
     0
 42
0.0000000001
 43
0.0000000001
 40
0.0
 40
0.0
 40
0.0
 40
0.0
 40
0.5
 40
0.5
 40
0.5
 40
0.5
 40
1.0
 40
1.0
 40
1.0
 40
1.0
 10
2.115192913385827
 20
1.232
 30
0.0
 10
0.6884803149606299
 20
2.019106299212599
 30
0.0
 10
-1.112720472440945
 20
1.522102362204725
 30
0.0
 10
-1.931070866141732
 20
0.1046771653543307
 30
0.0
 10
-1.931070866141732
 20
0.1046771653543307
 30
0.0
 10
-2.193547244094488
 20
-0.3499409448818898
 30
0.0
 10
-2.323472440944882
 20
-0.8447874015748031
 30
0.0
 10
-2.332834645669291
 20
-1.33505905511811
 30
0.0
  0
SPLINE
  5
10C
330
1F
100
AcDbEntity
  8
Layer 1
 62
   114
370
     9
100
AcDbSpline
210
0.0
220
0.0
230
1.0
 70
     8
 71
     3
 72
    12
 73
     8
 74
     0
 42
0.0000000001
 43
0.0000000001
 40
0.0
 40
0.0
 40
0.0
 40
0.0
 40
0.5
 40
0.5
 40
0.5
 40
0.5
 40
1.0
 40
1.0
 40
1.0
 40
1.0
 10
-2.332677165354331
 20
-1.45709842519685
 30
0.0
 10
-2.310755905511811
 20
-2.471031496062992
 30
0.0
 10
-1.775251968503937
 20
-3.449385826771654
 30
0.0
 10
-0.832996062992126
 20
-3.993397637795276
 30
0.0
 10
-0.832996062992126
 20
-3.993397637795276
 30
0.0
 10
0.1090590551181102
 20
-4.537295275590552
 30
0.0
 10
1.223814960629921
 20
-4.512007874015748
 30
0.0
 10
2.112771653543307
 20
-4.024326771653543
 30
0.0
  0
SPLINE
  5
10D
330
1F
100
AcDbEntity
  8
Layer 1
 62
   114
370
     9
100
AcDbSpline
210
0.0
220
0.0
230
1.0
 70
     8
 71
     3
 72
    12
 73
     8
 74
     0
 42
0.0000000001
 43
0.0000000001
 40
0.0
 40
0.0
 40
0.0
 40
0.0
 40
0.5
 40
0.5
 40
0.5
 40
0.5
 40
1.0
 40
1.0
 40
1.0
 40
1.0
 10
2.21842125984252
 20
-3.963543307086614
 30
0.0
 10
2.638614173228346
 20
-3.710275590551181
 30
0.0
 10
3.00246062992126
 20
-3.350192913385827
 30
0.0
 10
3.26507874015748
 20
-2.895322834645669
 30
0.0
 10
3.26507874015748
 20
-2.895322834645669
 30
0.0
 10
4.082929133858268
 20
-1.478767716535433
 30
0.0
 10
3.613826771653543
 20
0.3282755905511811
 30
0.0
 10
2.220799212598425
 20
1.17096062992126
 30
0.0
  0
SPLINE
  5
10E
330
1F
100
AcDbEntity
  8
Layer 1
 62
   114
370
     9
100
AcDbSpline
210
0.0
220
0.0
230
1.0
 70
     8
 71
     3
 72
     8
 73
     4
 74
     0
 42
0.0000000001
 43
0.0000000001
 40
0.0
 40
0.0
 40
0.0
 40
0.0
 40
1.0
 40
1.0
 40
1.0
 40
1.0
 10
1.112047244094488
 20
-2.290905511811024
 30
0.0
 10
1.148342519685039
 20
-2.272913385826772
 30
0.0
 10
1.183633858267717
 20
-2.252681102362205
 30
0.0
 10
1.217685039370079
 20
-2.230263779527559
 30
0.0
  0
SPLINE
  5
10F
330
1F
100
AcDbEntity
  8
Layer 1
 62
   114
370
     9
100
AcDbSpline
210
0.0
220
0.0
230
1.0
 70
     8
 71
     3
 72
    12
 73
     8
 74
     0
 42
0.0000000001
 43
0.0000000001
 40
0.0
 40
0.0
 40
0.0
 40
0.0
 40
0.5
 40
0.5
 40
0.5
 40
0.5
 40
1.0
 40
1.0
 40
1.0
 40
1.0
 10
1.220188976377953
 20
-0.562228346456693
 30
0.0
 10
1.202917322834646
 20
-0.5507834645669292
 30
0.0
 10
1.185188976377953
 20
-0.5397992125984252
 30
0.0
 10
1.167003937007874
 20
-0.5292992125984252
 30
0.0
 10
1.167003937007874
 20
-0.5292992125984252
 30
0.0
 10
1.149716535433071
 20
-0.5193188976377953
 30
0.0
 10
1.132255905511811
 20
-0.5099133858267717
 30
0.0
 10
1.114649606299213
 20
-0.5010787401574803
 30
0.0
  0
SPLINE
  5
110
330
1F
100
AcDbEntity
  8
Layer 1
 62
   114
370
     9
100
AcDbSpline
210
0.0
220
0.0
230
1.0
 70
     8
 71
     3
 72
     8
 73
     4
 74
     0
 42
0.0000000001
 43
0.0000000001
 40
0.0
 40
0.0
 40
0.0
 40
0.0
 40
1.0
 40
1.0
 40
1.0
 40
1.0
 10
-0.3313661417322835
 20
-1.335094488188976
 30
0.0
 10
-0.3337952755905512
 20
-1.375842519685039
 30
0.0
 10
-0.3337007874015748
 20
-1.416570866141732
 30
0.0
 10
-0.3311535433070866
 20
-1.457043307086614
 30
0.0
  0
SPLINE
  5
111
330
1F
100
AcDbEntity
  8
Layer 1
 62
   114
370
     9
100
AcDbSpline
210
0.0
220
0.0
230
1.0
 70
    24
 71
     3
 72
     8
 73
     4
 74
     0
 42
0.0000000001
 43
0.0000000001
 40
0.0
 40
0.0
 40
0.0
 40
0.0
 40
1.0
 40
1.0
 40
1.0
 40
1.0
 10
1.220188976377953
 20
-0.562228346456693
 30
0.0
 10
1.220188976377953
 20
-0.562228346456693
 30
0.0
 10
1.471129921259843
 20
-0.1275393700787402
 30
0.0
 10
1.471129921259843
 20
-0.1275393700787402
 30
0.0
  0
SPLINE
  5
112
330
1F
100
AcDbEntity
  8
Layer 1
 62
   114
370
     9
100
AcDbSpline
210
0.0
220
0.0
230
1.0
 70
    24
 71
     3
 72
     8
 73
     4
 74
     0
 42
0.0000000001
 43
0.0000000001
 40
0.0
 40
0.0
 40
0.0
 40
0.0
 40
1.0
 40
1.0
 40
1.0
 40
1.0
 10
1.971129921259843
 20
0.7384881889763779
 30
0.0
 10
1.971129921259843
 20
0.7384881889763779
 30
0.0
 10
2.221129921259843
 20
1.171503937007874
 30
0.0
 10
2.221129921259843
 20
1.171503937007874
 30
0.0
  0
SPLINE
  5
113
330
1F
100
AcDbEntity
  8
Layer 1
 62
   114
370
     9
100
AcDbSpline
210
0.0
220
0.0
230
1.0
 70
    24
 71
     3
 72
     8
 73
     4
 74
     0
 42
0.0000000001
 43
0.0000000001
 40
0.0
 40
0.0
 40
0.0
 40
0.0
 40
1.0
 40
1.0
 40
1.0
 40
1.0
 10
-0.3316929133858268
 20
-1.33507874015748
 30
0.0
 10
-0.3316929133858268
 20
-1.33507874015748
 30
0.0
 10
-0.8316889763779528
 20
-1.33507874015748
 30
0.0
 10
-0.8316889763779528
 20
-1.33507874015748
 30
0.0
  0
SPLINE
  5
114
330
1F
100
AcDbEntity
  8
Layer 1
 62
   114
370
     9
100
AcDbSpline
210
0.0
220
0.0
230
1.0
 70
    24
 71
     3
 72
     8
 73
     4
 74
     0
 42
0.0000000001
 43
0.0000000001
 40
0.0
 40
0.0
 40
0.0
 40
0.0
 40
1.0
 40
1.0
 40
1.0
 40
1.0
 10
-1.831688976377953
 20
-1.33507874015748
 30
0.0
 10
-1.831688976377953
 20
-1.33507874015748
 30
0.0
 10
-2.332834645669291
 20
-1.33505905511811
 30
0.0
 10
-2.332834645669291
 20
-1.33505905511811
 30
0.0
  0
SPLINE
  5
115
330
1F
100
AcDbEntity
  8
Layer 1
 62
   114
370
     9
100
AcDbSpline
210
0.0
220
0.0
230
1.0
 70
    24
 71
     3
 72
     8
 73
     4
 74
     0
 42
0.0000000001
 43
0.0000000001
 40
0.0
 40
0.0
 40
0.0
 40
0.0
 40
1.0
 40
1.0
 40
1.0
 40
1.0
 10
1.112047244094488
 20
-2.290905511811024
 30
0.0
 10
1.112047244094488
 20
-2.290905511811024
 30
0.0
 10
1.364181102362205
 20
-2.727854330708662
 30
0.0
 10
1.364181102362205
 20
-2.727854330708662
 30
0.0
  0
SPLINE
  5
116
330
1F
100
AcDbEntity
  8
Layer 1
 62
   114
370
     9
100
AcDbSpline
210
0.0
220
0.0
230
1.0
 70
    24
 71
     3
 72
     8
 73
     4
 74
     0
 42
0.0000000001
 43
0.0000000001
 40
0.0
 40
0.0
 40
0.0
 40
0.0
 40
1.0
 40
1.0
 40
1.0
 40
1.0
 10
1.864181102362205
 20
-3.593877952755906
 30
0.0
 10
1.864181102362205
 20
-3.593877952755906
 30
0.0
 10
2.112720472440945
 20
-4.024358267716535
 30
0.0
 10
2.112720472440945
 20
-4.024358267716535
 30
0.0
  0
SPLINE
  5
117
330
1F
100
AcDbEntity
  8
Layer 1
 62
   114
370
     9
100
AcDbSpline
210
0.0
220
0.0
230
1.0
 70
    24
 71
     3
 72
     8
 73
     4
 74
     0
 42
0.0000000001
 43
0.0000000001
 40
0.0
 40
0.0
 40
0.0
 40
0.0
 40
1.0
 40
1.0
 40
1.0
 40
1.0
 10
1.114649606299213
 20
-0.5010787401574803
 30
0.0
 10
1.114649606299213
 20
-0.5010787401574803
 30
0.0
 10
1.365472440944882
 20
-0.0665393700787402
 30
0.0
 10
1.365472440944882
 20
-0.0665393700787402
 30
0.0
  0
SPLINE
  5
118
330
1F
100
AcDbEntity
  8
Layer 1
 62
   114
370
     9
100
AcDbSpline
210
0.0
220
0.0
230
1.0
 70
    24
 71
     3
 72
     8
 73
     4
 74
     0
 42
0.0000000001
 43
0.0000000001
 40
0.0
 40
0.0
 40
0.0
 40
0.0
 40
1.0
 40
1.0
 40
1.0
 40
1.0
 10
1.865472440944882
 20
0.799488188976378
 30
0.0
 10
1.865472440944882
 20
0.799488188976378
 30
0.0
 10
2.115476377952756
 20
1.232503937007874
 30
0.0
 10
2.115476377952756
 20
1.232503937007874
 30
0.0
  0
SPLINE
  5
119
330
1F
100
AcDbEntity
  8
Layer 1
 62
   114
370
     9
100
AcDbSpline
210
0.0
220
0.0
230
1.0
 70
    24
 71
     3
 72
     8
 73
     4
 74
     0
 42
0.0000000001
 43
0.0000000001
 40
0.0
 40
0.0
 40
0.0
 40
0.0
 40
1.0
 40
1.0
 40
1.0
 40
1.0
 10
-0.3316929133858268
 20
-1.45707874015748
 30
0.0
 10
-0.3316929133858268
 20
-1.45707874015748
 30
0.0
 10
-0.8316889763779528
 20
-1.457082677165354
 30
0.0
 10
-0.8316889763779528
 20
-1.457082677165354
 30
0.0
  0
SPLINE
  5
11A
330
1F
100
AcDbEntity
  8
Layer 1
 62
   114
370
     9
100
AcDbSpline
210
0.0
220
0.0
230
1.0
 70
    24
 71
     3
 72
     8
 73
     4
 74
     0
 42
0.0000000001
 43
0.0000000001
 40
0.0
 40
0.0
 40
0.0
 40
0.0
 40
1.0
 40
1.0
 40
1.0
 40
1.0
 10
-1.831692913385827
 20
-1.45707874015748
 30
0.0
 10
-1.831692913385827
 20
-1.45707874015748
 30
0.0
 10
-2.332673228346457
 20
-1.457094488188976
 30
0.0
 10
-2.332673228346457
 20
-1.457094488188976
 30
0.0
  0
SPLINE
  5
11B
330
1F
100
AcDbEntity
  8
Layer 1
 62
   114
370
     9
100
AcDbSpline
210
0.0
220
0.0
230
1.0
 70
    24
 71
     3
 72
     8
 73
     4
 74
     0
 42
0.0000000001
 43
0.0000000001
 40
0.0
 40
0.0
 40
0.0
 40
0.0
 40
1.0
 40
1.0
 40
1.0
 40
1.0
 10
1.217681102362205
 20
-2.230263779527559
 30
0.0
 10
1.217681102362205
 20
-2.230263779527559
 30
0.0
 10
1.469834645669291
 20
-2.666854330708662
 30
0.0
 10
1.469834645669291
 20
-2.666854330708662
 30
0.0
  0
SPLINE
  5
11C
330
1F
100
AcDbEntity
  8
Layer 1
 62
   114
370
     9
100
AcDbSpline
210
0.0
220
0.0
230
1.0
 70
    24
 71
     3
 72
     8
 73
     4
 74
     0
 42
0.0000000001
 43
0.0000000001
 40
0.0
 40
0.0
 40
0.0
 40
0.0
 40
1.0
 40
1.0
 40
1.0
 40
1.0
 10
1.969834645669291
 20
-3.53288188976378
 30
0.0
 10
1.969834645669291
 20
-3.53288188976378
 30
0.0
 10
2.218464566929134
 20
-3.963515748031496
 30
0.0
 10
2.218464566929134
 20
-3.963515748031496
 30
0.0
  0
SPLINE
  5
11D
330
1F
100
AcDbEntity
  8
Layer 1
 62
   114
370
     9
100
AcDbSpline
210
0.0
220
0.0
230
1.0
 70
    24
 71
     3
 72
     8
 73
     4
 74
     0
 42
0.0000000001
 43
0.0000000001
 40
0.0
 40
0.0
 40
0.0
 40
0.0
 40
1.0
 40
1.0
 40
1.0
 40
1.0
 10
1.865472440944882
 20
0.799488188976378
 30
0.0
 10
1.865472440944882
 20
0.799488188976378
 30
0.0
 10
1.971129921259843
 20
0.7384881889763779
 30
0.0
 10
1.971129921259843
 20
0.7384881889763779
 30
0.0
  0
SPLINE
  5
11E
330
1F
100
AcDbEntity
  8
Layer 1
 62
   114
370
     9
100
AcDbSpline
210
0.0
220
0.0
230
1.0
 70
    24
 71
     3
 72
     8
 73
     4
 74
     0
 42
0.0000000001
 43
0.0000000001
 40
0.0
 40
0.0
 40
0.0
 40
0.0
 40
1.0
 40
1.0
 40
1.0
 40
1.0
 10
-1.831692913385827
 20
-1.45707874015748
 30
0.0
 10
-1.831692913385827
 20
-1.45707874015748
 30
0.0
 10
-1.831688976377953
 20
-1.33507874015748
 30
0.0
 10
-1.831688976377953
 20
-1.33507874015748
 30
0.0
  0
SPLINE
  5
11F
330
1F
100
AcDbEntity
  8
Layer 1
 62
   114
370
     9
100
AcDbSpline
210
0.0
220
0.0
230
1.0
 70
    24
 71
     3
 72
     8
 73
     4
 74
     0
 42
0.0000000001
 43
0.0000000001
 40
0.0
 40
0.0
 40
0.0
 40
0.0
 40
1.0
 40
1.0
 40
1.0
 40
1.0
 10
1.969834645669291
 20
-3.53288188976378
 30
0.0
 10
1.969834645669291
 20
-3.53288188976378
 30
0.0
 10
1.864177165354331
 20
-3.59388188976378
 30
0.0
 10
1.864177165354331
 20
-3.59388188976378
 30
0.0
  0
SPLINE
  5
120
330
1F
100
AcDbEntity
  8
Layer 1
 62
   114
370
     9
100
AcDbSpline
210
0.0
220
0.0
230
1.0
 70
    24
 71
     3
 72
     8
 73
     4
 74
     0
 42
0.0000000001
 43
0.0000000001
 40
0.0
 40
0.0
 40
0.0
 40
0.0
 40
1.0
 40
1.0
 40
1.0
 40
1.0
 10
1.365472440944882
 20
-0.0665393700787402
 30
0.0
 10
1.365472440944882
 20
-0.0665393700787402
 30
0.0
 10
1.471129921259843
 20
-0.1275393700787402
 30
0.0
 10
1.471129921259843
 20
-0.1275393700787402
 30
0.0
  0
SPLINE
  5
121
330
1F
100
AcDbEntity
  8
Layer 1
 62
   114
370
     9
100
AcDbSpline
210
0.0
220
0.0
230
1.0
 70
    24
 71
     3
 72
     8
 73
     4
 74
     0
 42
0.0000000001
 43
0.0000000001
 40
0.0
 40
0.0
 40
0.0
 40
0.0
 40
1.0
 40
1.0
 40
1.0
 40
1.0
 10
-0.8316889763779528
 20
-1.457082677165354
 30
0.0
 10
-0.8316889763779528
 20
-1.457082677165354
 30
0.0
 10
-0.8316889763779528
 20
-1.33507874015748
 30
0.0
 10
-0.8316889763779528
 20
-1.33507874015748
 30
0.0
  0
SPLINE
  5
122
330
1F
100
AcDbEntity
  8
Layer 1
 62
   114
370
     9
100
AcDbSpline
210
0.0
220
0.0
230
1.0
 70
    24
 71
     3
 72
     8
 73
     4
 74
     0
 42
0.0000000001
 43
0.0000000001
 40
0.0
 40
0.0
 40
0.0
 40
0.0
 40
1.0
 40
1.0
 40
1.0
 40
1.0
 10
1.469838582677165
 20
-2.666850393700787
 30
0.0
 10
1.469838582677165
 20
-2.666850393700787
 30
0.0
 10
1.364177165354331
 20
-2.727854330708662
 30
0.0
 10
1.364177165354331
 20
-2.727854330708662
 30
0.0
  0
SPLINE
  5
123
330
1F
100
AcDbEntity
  8
Layer 1
 62
   114
370
     9
100
AcDbSpline
210
0.0
220
0.0
230
1.0
 70
     8
 71
     3
 72
    24
 73
    20
 74
     0
 42
0.0000000001
 43
0.0000000001
 40
0.0
 40
0.0
 40
0.0
 40
0.0
 40
0.2
 40
0.2
 40
0.2
 40
0.2
 40
0.4
 40
0.4
 40
0.4
 40
0.4
 40
0.6000000000000001
 40
0.6000000000000001
 40
0.6000000000000001
 40
0.6000000000000001
 40
0.8
 40
0.8
 40
0.8
 40
0.8
 40
1.0
 40
1.0
 40
1.0
 40
1.0
 10
1.206358267716535
 20
-1.19605905511811
 30
0.0
 10
1.161511811023622
 20
-1.074448818897638
 30
0.0
 10
1.075503937007874
 20
-0.9672165354330708
 30
0.0
 10
0.9545039370078741
 20
-0.8973582677165355
 30
0.0
 10
0.9545039370078741
 20
-0.8973582677165355
 30
0.0
 10
0.6795314960629921
 20
-0.7386023622047244
 30
0.0
 10
0.3277952755905512
 20
-0.8328503937007874
 30
0.0
 10
0.1690393700787401
 20
-1.107822834645669
 30
0.0
 10
0.1690393700787401
 20
-1.107822834645669
 30
0.0
 10
0.0102834645669291
 20
-1.382795275590551
 30
0.0
 10
0.1045314960629921
 20
-1.734531496062992
 30
0.0
 10
0.379503937007874
 20
-1.893287401574803
 30
0.0
 10
0.379503937007874
 20
-1.893287401574803
 30
0.0
 10
0.6544763779527559
 20
-2.052043307086614
 30
0.0
 10
1.006212598425197
 20
-1.957795275590551
 30
0.0
 10
1.164968503937008
 20
-1.682822834645669
 30
0.0
 10
1.164968503937008
 20
-1.682822834645669
 30
0.0
 10
1.181259842519685
 20
-1.654606299212598
 30
0.0
 10
1.194889763779527
 20
-1.62557874015748
 30
0.0
 10
1.205929133858268
 20
-1.596035433070866
 30
0.0
  0
SPLINE
  5
124
330
1F
100
AcDbEntity
  8
Layer 1
 62
   114
370
     9
100
AcDbSpline
210
0.0
220
0.0
230
1.0
 70
    24
 71
     3
 72
     8
 73
     4
 74
     0
 42
0.0000000001
 43
0.0000000001
 40
0.0
 40
0.0
 40
0.0
 40
0.0
 40
1.0
 40
1.0
 40
1.0
 40
1.0
 10
1.206362204724409
 20
-1.196055118110236
 30
0.0
 10
1.206362204724409
 20
-1.196055118110236
 30
0.0
 10
1.544913385826772
 20
-1.196055118110236
 30
0.0
 10
1.544913385826772
 20
-1.196055118110236
 30
0.0
  0
SPLINE
  5
125
330
1F
100
AcDbEntity
  8
Layer 1
 62
   114
370
     9
100
AcDbSpline
210
0.0
220
0.0
230
1.0
 70
    24
 71
     3
 72
     8
 73
     4
 74
     0
 42
0.0000000001
 43
0.0000000001
 40
0.0
 40
0.0
 40
0.0
 40
0.0
 40
1.0
 40
1.0
 40
1.0
 40
1.0
 10
1.205937007874016
 20
-1.59603937007874
 30
0.0
 10
1.205937007874016
 20
-1.59603937007874
 30
0.0
 10
1.544637795275591
 20
-1.596035433070866
 30
0.0
 10
1.544637795275591
 20
-1.596035433070866
 30
0.0
  0
SPLINE
  5
126
330
1F
100
AcDbEntity
  8
Layer 1
 62
   114
370
     9
100
AcDbSpline
210
0.0
220
0.0
230
1.0
 70
    24
 71
     3
 72
     8
 73
     4
 74
     0
 42
0.0000000001
 43
0.0000000001
 40
0.0
 40
0.0
 40
0.0
 40
0.0
 40
1.0
 40
1.0
 40
1.0
 40
1.0
 10
1.567082677165354
 20
-1.397909448818898
 30
0.0
 10
1.567082677165354
 20
-1.397909448818898
 30
0.0
 10
1.567082677165354
 20
-1.394055118110236
 30
0.0
 10
1.567082677165354
 20
-1.394055118110236
 30
0.0
  0
SPLINE
  5
127
330
1F
100
AcDbEntity
  8
Layer 1
 62
   114
370
     9
100
AcDbSpline
210
0.0
220
0.0
230
1.0
 70
     8
 71
     3
 72
    12
 73
     8
 74
     0
 42
0.0000000001
 43
0.0000000001
 40
0.0
 40
0.0
 40
0.0
 40
0.0
 40
0.5
 40
0.5
 40
0.5
 40
0.5
 40
1.0
 40
1.0
 40
1.0
 40
1.0
 10
1.544645669291339
 20
-1.596035433070866
 30
0.0
 10
1.559334645669291
 20
-1.531535433070866
 30
0.0
 10
1.567090551181102
 20
-1.464393700787401
 30
0.0
 10
1.567090551181102
 20
-1.395448818897638
 30
0.0
 10
1.567090551181102
 20
-1.395448818897638
 30
0.0
 10
1.567090551181102
 20
-1.326929133858268
 30
0.0
 10
1.559429133858268
 20
-1.260188976377953
 30
0.0
 10
1.544917322834646
 20
-1.196055118110236
 30
0.0
  0
SPLINE
  5
128
330
1F
100
AcDbEntity
  8
Layer 1
 62
    22
100
AcDbSpline
210
0.0
220
0.0
230
1.0
 70
    11
 71
     3
 72
    80
 73
    76
 74
     0
 42
0.0000000001
 43
0.0000000001
 40
0.0
 40
0.0
 40
0.0
 40
0.0
 40
0.0526315789473684
 40
0.0526315789473684
 40
0.0526315789473684
 40
0.0526315789473684
 40
0.1052631578947368
 40
0.1052631578947368
 40
0.1052631578947368
 40
0.1052631578947368
 40
0.1578947368421053
 40
0.1578947368421053
 40
0.1578947368421053
 40
0.1578947368421053
 40
0.2105263157894737
 40
0.2105263157894737
 40
0.2105263157894737
 40
0.2105263157894737
 40
0.2631578947368421
 40
0.2631578947368421
 40
0.2631578947368421
 40
0.2631578947368421
 40
0.3157894736842105
 40
0.3157894736842105
 40
0.3157894736842105
 40
0.3157894736842105
 40
0.3684210526315789
 40
0.3684210526315789
 40
0.3684210526315789
 40
0.3684210526315789
 40
0.4210526315789473
 40
0.4210526315789473
 40
0.4210526315789473
 40
0.4210526315789473
 40
0.4736842105263158
 40
0.4736842105263158
 40
0.4736842105263158
 40
0.4736842105263158
 40
0.5263157894736842
 40
0.5263157894736842
 40
0.5263157894736842
 40
0.5263157894736842
 40
0.5789473684210527
 40
0.5789473684210527
 40
0.5789473684210527
 40
0.5789473684210527
 40
0.631578947368421
 40
0.631578947368421
 40
0.631578947368421
 40
0.631578947368421
 40
0.6842105263157894
 40
0.6842105263157894
 40
0.6842105263157894
 40
0.6842105263157894
 40
0.7368421052631577
 40
0.7368421052631577
 40
0.7368421052631577
 40
0.7368421052631577
 40
0.7894736842105261
 40
0.7894736842105261
 40
0.7894736842105261
 40
0.7894736842105261
 40
0.8421052631578945
 40
0.8421052631578945
 40
0.8421052631578945
 40
0.8421052631578945
 40
0.8947368421052628
 40
0.8947368421052628
 40
0.8947368421052628
 40
0.8947368421052628
 40
0.9473684210526312
 40
0.9473684210526312
 40
0.9473684210526312
 40
0.9473684210526312
 40
1.0
 40
1.0
 40
1.0
 40
1.0
 10
1.010842519685039
 20
-0.8000669291338582
 30
0.0
 10
0.9816574803149606
 20
-0.7832204724409448
 30
0.0
 10
0.9712047244094488
 20
-0.7463779527559055
 30
0.0
 10
0.9867874015748032
 20
-0.7168307086614173
 30
0.0
 10
0.9867874015748032
 20
-0.7168307086614173
 30
0.0
 10
0.8898070866141732
 20
-0.6710511811023622
 30
0.0
 10
0.7814330708661418
 20
-0.6454488188976378
 30
0.0
 10
0.6670905511811024
 20
-0.6454488188976378
 30
0.0
 10
0.6670905511811024
 20
-0.6454488188976378
 30
0.0
 10
0.2739763779527559
 20
-0.6454488188976378
 30
0.0
 10
-0.0486062992125984
 20
-0.9480629921259842
 30
0.0
 10
-0.0803464566929134
 20
-1.333
 30
0.0
 10
-0.0803464566929134
 20
-1.333
 30
0.0
 10
-0.0470275590551181
 20
-1.334346456692913
 30
0.0
 10
-0.0204094488188976
 20
-1.361791338582677
 30
0.0
 10
-0.0204094488188976
 20
-1.395444881889764
 30
0.0
 10
-0.0204094488188976
 20
-1.395444881889764
 30
0.0
 10
-0.0204094488188976
 20
-1.429102362204724
 30
0.0
 10
-0.0470275590551181
 20
-1.456551181102362
 30
0.0
 10
-0.0803464566929134
 20
-1.457897637795275
 30
0.0
 10
-0.0803464566929134
 20
-1.457897637795275
 30
0.0
 10
-0.0486062992125984
 20
-1.842834645669291
 30
0.0
 10
0.2739763779527559
 20
-2.145448818897638
 30
0.0
 10
0.6670905511811024
 20
-2.145448818897638
 30
0.0
 10
0.6670905511811024
 20
-2.145448818897638
 30
0.0
 10
0.7814212598425196
 20
-2.145448818897638
 30
0.0
 10
0.8897952755905512
 20
-2.119850393700788
 30
0.0
 10
0.986767716535433
 20
-2.074074803149606
 30
0.0
 10
0.986767716535433
 20
-2.074074803149606
 30
0.0
 10
0.9712007874015748
 20
-2.044527559055118
 30
0.0
 10
0.9816535433070867
 20
-2.007692913385827
 30
0.0
 10
1.010826771653543
 20
-1.990846456692913
 30
0.0
 10
1.010826771653543
 20
-1.990846456692913
 30
0.0
 10
1.039976377952756
 20
-1.974015748031496
 30
0.0
 10
1.077047244094488
 20
-1.983346456692913
 30
0.0
 10
1.094877952755906
 20
-2.011527559055118
 30
0.0
 10
1.094877952755906
 20
-2.011527559055118
 30
0.0
 10
1.236586614173228
 20
-1.912933070866142
 30
0.0
 10
1.342685039370079
 20
-1.766696850393701
 30
0.0
 10
1.389956692913386
 20
-1.596035433070866
 30
0.0
 10
1.389956692913386
 20
-1.596035433070866
 30
0.0
 10
1.389956692913386
 20
-1.596035433070866
 30
0.0
 10
1.205929133858268
 20
-1.596035433070866
 30
0.0
 10
1.205929133858268
 20
-1.596035433070866
 30
0.0
 10
1.205929133858268
 20
-1.596035433070866
 30
0.0
 10
1.194889763779527
 20
-1.62557874015748
 30
0.0
 10
1.181259842519685
 20
-1.654606299212598
 30
0.0
 10
1.164968503937008
 20
-1.682822834645669
 30
0.0
 10
1.164968503937008
 20
-1.682822834645669
 30
0.0
 10
1.006212598425197
 20
-1.957795275590551
 30
0.0
 10
0.6544763779527559
 20
-2.052043307086614
 30
0.0
 10
0.379503937007874
 20
-1.893287401574803
 30
0.0
 10
0.379503937007874
 20
-1.893287401574803
 30
0.0
 10
0.1045314960629921
 20
-1.734531496062992
 30
0.0
 10
0.0102834645669291
 20
-1.382795275590551
 30
0.0
 10
0.1690393700787401
 20
-1.107822834645669
 30
0.0
 10
0.1690393700787401
 20
-1.107822834645669
 30
0.0
 10
0.3277952755905512
 20
-0.8328503937007874
 30
0.0
 10
0.6795314960629921
 20
-0.7386023622047244
 30
0.0
 10
0.9545039370078741
 20
-0.8973582677165355
 30
0.0
 10
0.9545039370078741
 20
-0.8973582677165355
 30
0.0
 10
1.075503937007874
 20
-0.9672165354330708
 30
0.0
 10
1.161511811023622
 20
-1.074448818897638
 30
0.0
 10
1.206362204724409
 20
-1.196055118110236
 30
0.0
 10
1.206362204724409
 20
-1.196055118110236
 30
0.0
 10
1.206362204724409
 20
-1.196055118110236
 30
0.0
 10
1.390283464566929
 20
-1.196051181102362
 30
0.0
 10
1.390283464566929
 20
-1.196051181102362
 30
0.0
 10
1.390283464566929
 20
-1.196051181102362
 30
0.0
 10
1.343177165354331
 20
-1.024889763779528
 30
0.0
 10
1.236917322834646
 20
-0.8782086614173228
 30
0.0
 10
1.094889763779528
 20
-0.7793858267716536
 30
0.0
 10
1.094889763779528
 20
-0.7793858267716536
 30
0.0
 10
1.077066929133858
 20
-0.8075708661417322
 30
0.0
 10
1.039984251968504
 20
-0.8168937007874015
 30
0.0
 10
1.010842519685039
 20
-0.8000669291338582
 30
0.0
  0
SPLINE
  5
129
330
1F
100
AcDbEntity
  8
Layer 1
 62
   114
370
     9
100
AcDbSpline
210
0.0
220
0.0
230
1.0
 70
    11
 71
     3
 72
    20
 73
    16
 74
     0
 42
0.0000000001
 43
0.0000000001
 40
0.0
 40
0.0
 40
0.0
 40
0.0
 40
0.25
 40
0.25
 40
0.25
 40
0.25
 40
0.5
 40
0.5
 40
0.5
 40
0.5
 40
0.75
 40
0.75
 40
0.75
 40
0.75
 40
1.0
 40
1.0
 40
1.0
 40
1.0
 10
0.1299803149606299
 20
-2.432748031496063
 30
0.0
 10
0.1299803149606299
 20
-2.396027559055118
 30
0.0
 10
0.1002007874015748
 20
-2.366248031496063
 30
0.0
 10
0.0634803149606299
 20
-2.366248031496063
 30
0.0
 10
0.0634803149606299
 20
-2.366248031496063
 30
0.0
 10
0.026759842519685
 20
-2.366248031496063
 30
0.0
 10
-0.0030196850393701
 20
-2.396027559055118
 30
0.0
 10
-0.0030196850393701
 20
-2.432748031496063
 30
0.0
 10
-0.0030196850393701
 20
-2.432748031496063
 30
0.0
 10
-0.0030196850393701
 20
-2.469468503937008
 30
0.0
 10
0.026759842519685
 20
-2.499248031496063
 30
0.0
 10
0.0634803149606299
 20
-2.499248031496063
 30
0.0
 10
0.0634803149606299
 20
-2.499248031496063
 30
0.0
 10
0.1002007874015748
 20
-2.499248031496063
 30
0.0
 10
0.1299803149606299
 20
-2.469468503937008
 30
0.0
 10
0.1299803149606299
 20
-2.432748031496063
 30
0.0
  0
SPLINE
  5
12A
330
1F
100
AcDbEntity
  8
Layer 1
 62
   114
370
     9
100
AcDbSpline
210
0.0
220
0.0
230
1.0
 70
    11
 71
     3
 72
    20
 73
    16
 74
     0
 42
0.0000000001
 43
0.0000000001
 40
0.0
 40
0.0
 40
0.0
 40
0.0
 40
0.25
 40
0.25
 40
0.25
 40
0.25
 40
0.5
 40
0.5
 40
0.5
 40
0.5
 40
0.75
 40
0.75
 40
0.75
 40
0.75
 40
1.0
 40
1.0
 40
1.0
 40
1.0
 10
0.1314724409448819
 20
-0.3572755905511811
 30
0.0
 10
0.1314724409448819
 20
-0.3205551181102362
 30
0.0
 10
0.1016929133858268
 20
-0.2907755905511811
 30
0.0
 10
0.0649724409448819
 20
-0.2907755905511811
 30
0.0
 10
0.0649724409448819
 20
-0.2907755905511811
 30
0.0
 10
0.028251968503937
 20
-0.2907755905511811
 30
0.0
 10
-0.0015275590551181
 20
-0.3205551181102362
 30
0.0
 10
-0.0015275590551181
 20
-0.3572755905511811
 30
0.0
 10
-0.0015275590551181
 20
-0.3572755905511811
 30
0.0
 10
-0.0015275590551181
 20
-0.393996062992126
 30
0.0
 10
0.028251968503937
 20
-0.4237755905511811
 30
0.0
 10
0.0649724409448819
 20
-0.4237755905511811
 30
0.0
 10
0.0649724409448819
 20
-0.4237755905511811
 30
0.0
 10
0.1016929133858268
 20
-0.4237755905511811
 30
0.0
 10
0.1314724409448819
 20
-0.393996062992126
 30
0.0
 10
0.1314724409448819
 20
-0.3572755905511811
 30
0.0
  0
SPLINE
  5
12B
330
1F
100
AcDbEntity
  8
Layer 1
 62
   114
370
     9
100
AcDbSpline
210
0.0
220
0.0
230
1.0
 70
    11
 71
     3
 72
    20
 73
    16
 74
     0
 42
0.0000000001
 43
0.0000000001
 40
0.0
 40
0.0
 40
0.0
 40
0.0
 40
0.25
 40
0.25
 40
0.25
 40
0.25
 40
0.5
 40
0.5
 40
0.5
 40
0.5
 40
0.75
 40
0.75
 40
0.75
 40
0.75
 40
1.0
 40
1.0
 40
1.0
 40
1.0
 10
1.933606299212598
 20
-1.395448818897638
 30
0.0
 10
1.933606299212598
 20
-1.358728346456693
 30
0.0
 10
1.903826771653543
 20
-1.328948818897638
 30
0.0
 10
1.867106299212598
 20
-1.328948818897638
 30
0.0
 10
1.867106299212598
 20
-1.328948818897638
 30
0.0
 10
1.830385826771654
 20
-1.328948818897638
 30
0.0
 10
1.800606299212598
 20
-1.358728346456693
 30
0.0
 10
1.800606299212598
 20
-1.395448818897638
 30
0.0
 10
1.800606299212598
 20
-1.395448818897638
 30
0.0
 10
1.800606299212598
 20
-1.432169291338583
 30
0.0
 10
1.830385826771654
 20
-1.461948818897638
 30
0.0
 10
1.867106299212598
 20
-1.461948818897638
 30
0.0
 10
1.867106299212598
 20
-1.461948818897638
 30
0.0
 10
1.903826771653543
 20
-1.461948818897638
 30
0.0
 10
1.933606299212598
 20
-1.432169291338583
 30
0.0
 10
1.933606299212598
 20
-1.395448818897638
 30
0.0
  0
SPLINE
  5
12C
330
1F
100
AcDbEntity
  8
Layer 1
 62
   114
370
     9
100
AcDbSpline
210
0.0
220
0.0
230
1.0
 70
    11
 71
     3
 72
    20
 73
    16
 74
     0
 42
0.0000000001
 43
0.0000000001
 40
0.0
 40
0.0
 40
0.0
 40
0.0
 40
0.25
 40
0.25
 40
0.25
 40
0.25
 40
0.5
 40
0.5
 40
0.5
 40
0.5
 40
0.75
 40
0.75
 40
0.75
 40
0.75
 40
1.0
 40
1.0
 40
1.0
 40
1.0
 10
8.873775590551181
 20
13.91374015748032
 30
0.0
 10
9.310200787401575
 20
14.1657125984252
 30
0.0
 10
9.459783464566929
 20
14.72396850393701
 30
0.0
 10
9.207818897637795
 20
15.1603937007874
 30
0.0
 10
9.207818897637795
 20
15.1603937007874
 30
0.0
 10
8.955842519685039
 20
15.5968188976378
 30
0.0
 10
8.397586614173228
 20
15.74640157480315
 30
0.0
 10
7.961161417322835
 20
15.49443700787402
 30
0.0
 10
7.961161417322835
 20
15.49443700787402
 30
0.0
 10
7.524740157480315
 20
15.24246062992126
 30
0.0
 10
7.375153543307087
 20
14.68420472440945
 30
0.0
 10
7.627122047244095
 20
14.24777952755906
 30
0.0
 10
7.627122047244095
 20
14.24777952755906
 30
0.0
 10
7.879094488188977
 20
13.81135826771654
 30
0.0
 10
8.437350393700788
 20
13.66177165354331
 30
0.0
 10
8.873775590551181
 20
13.91374015748032
 30
0.0
  0
SPLINE
  5
12D
330
1F
100
AcDbEntity
  8
Layer 1
 62
   114
370
     9
100
AcDbSpline
210
0.0
220
0.0
230
1.0
 70
    11
 71
     3
 72
    20
 73
    16
 74
     0
 42
0.0000000001
 43
0.0000000001
 40
0.0
 40
0.0
 40
0.0
 40
0.0
 40
0.25
 40
0.25
 40
0.25
 40
0.25
 40
0.5
 40
0.5
 40
0.5
 40
0.5
 40
0.75
 40
0.75
 40
0.75
 40
0.75
 40
1.0
 40
1.0
 40
1.0
 40
1.0
 10
8.417468503937007
 20
13.20408661417323
 30
0.0
 10
9.24575590551181
 20
13.20408661417323
 30
0.0
 10
9.917468503937007
 20
13.87579921259842
 30
0.0
 10
9.917468503937007
 20
14.70408661417323
 30
0.0
 10
9.917468503937007
 20
14.70408661417323
 30
0.0
 10
9.917468503937007
 20
15.53237401574803
 30
0.0
 10
9.24575590551181
 20
16.20408661417323
 30
0.0
 10
8.417468503937007
 20
16.20408661417323
 30
0.0
 10
8.417468503937007
 20
16.20408661417323
 30
0.0
 10
7.589181102362205
 20
16.20408661417323
 30
0.0
 10
6.917468503937008
 20
15.53237401574803
 30
0.0
 10
6.917468503937008
 20
14.70408661417323
 30
0.0
 10
6.917468503937008
 20
14.70408661417323
 30
0.0
 10
6.917468503937008
 20
13.87579921259842
 30
0.0
 10
7.589181102362205
 20
13.20408661417323
 30
0.0
 10
8.417468503937007
 20
13.20408661417323
 30
0.0
  0
SPLINE
  5
12E
330
1F
100
AcDbEntity
  8
Layer 1
 62
   114
370
     9
100
AcDbSpline
210
0.0
220
0.0
230
1.0
 70
    11
 71
     3
 72
    20
 73
    16
 74
     0
 42
0.0000000001
 43
0.0000000001
 40
0.0
 40
0.0
 40
0.0
 40
0.0
 40
0.25
 40
0.25
 40
0.25
 40
0.25
 40
0.5
 40
0.5
 40
0.5
 40
0.5
 40
0.75
 40
0.75
 40
0.75
 40
0.75
 40
1.0
 40
1.0
 40
1.0
 40
1.0
 10
7.380169291338583
 20
15.24120866141732
 30
0.0
 10
7.416889763779528
 20
15.24120866141732
 30
0.0
 10
7.446669291338583
 20
15.27098818897638
 30
0.0
 10
7.446669291338583
 20
15.30770866141732
 30
0.0
 10
7.446669291338583
 20
15.30770866141732
 30
0.0
 10
7.446669291338583
 20
15.34442913385827
 30
0.0
 10
7.416889763779528
 20
15.37420866141732
 30
0.0
 10
7.380169291338583
 20
15.37420866141732
 30
0.0
 10
7.380169291338583
 20
15.37420866141732
 30
0.0
 10
7.343448818897638
 20
15.37420866141732
 30
0.0
 10
7.313669291338583
 20
15.34442913385827
 30
0.0
 10
7.313669291338583
 20
15.30770866141732
 30
0.0
 10
7.313669291338583
 20
15.30770866141732
 30
0.0
 10
7.313669291338583
 20
15.27098818897638
 30
0.0
 10
7.343448818897638
 20
15.24120866141732
 30
0.0
 10
7.380169291338583
 20
15.24120866141732
 30
0.0
  0
SPLINE
  5
12F
330
1F
100
AcDbEntity
  8
Layer 1
 62
   114
370
     9
100
AcDbSpline
210
0.0
220
0.0
230
1.0
 70
    11
 71
     3
 72
    20
 73
    16
 74
     0
 42
0.0000000001
 43
0.0000000001
 40
0.0
 40
0.0
 40
0.0
 40
0.0
 40
0.25
 40
0.25
 40
0.25
 40
0.25
 40
0.5
 40
0.5
 40
0.5
 40
0.5
 40
0.75
 40
0.75
 40
0.75
 40
0.75
 40
1.0
 40
1.0
 40
1.0
 40
1.0
 10
9.455641732283464
 20
15.23971653543307
 30
0.0
 10
9.49236220472441
 20
15.23971653543307
 30
0.0
 10
9.522141732283465
 20
15.26949606299213
 30
0.0
 10
9.522141732283465
 20
15.30621653543307
 30
0.0
 10
9.522141732283465
 20
15.30621653543307
 30
0.0
 10
9.522141732283465
 20
15.34293700787402
 30
0.0
 10
9.49236220472441
 20
15.37271653543307
 30
0.0
 10
9.455641732283464
 20
15.37271653543307
 30
0.0
 10
9.455641732283464
 20
15.37271653543307
 30
0.0
 10
9.41892125984252
 20
15.37271653543307
 30
0.0
 10
9.389141732283464
 20
15.34293700787402
 30
0.0
 10
9.389141732283464
 20
15.30621653543307
 30
0.0
 10
9.389141732283464
 20
15.30621653543307
 30
0.0
 10
9.389141732283464
 20
15.26949606299213
 30
0.0
 10
9.41892125984252
 20
15.23971653543307
 30
0.0
 10
9.455641732283464
 20
15.23971653543307
 30
0.0
  0
SPLINE
  5
130
330
1F
100
AcDbEntity
  8
Layer 1
 62
   114
370
     9
100
AcDbSpline
210
0.0
220
0.0
230
1.0
 70
    11
 71
     3
 72
    20
 73
    16
 74
     0
 42
0.0000000001
 43
0.0000000001
 40
0.0
 40
0.0
 40
0.0
 40
0.0
 40
0.25
 40
0.25
 40
0.25
 40
0.25
 40
0.5
 40
0.5
 40
0.5
 40
0.5
 40
0.75
 40
0.75
 40
0.75
 40
0.75
 40
1.0
 40
1.0
 40
1.0
 40
1.0
 10
8.417468503937007
 20
13.43758267716535
 30
0.0
 10
8.454188976377953
 20
13.43758267716535
 30
0.0
 10
8.483968503937009
 20
13.46736220472441
 30
0.0
 10
8.483968503937009
 20
13.50408267716535
 30
0.0
 10
8.483968503937009
 20
13.50408267716535
 30
0.0
 10
8.483968503937009
 20
13.5408031496063
 30
0.0
 10
8.454188976377953
 20
13.57058267716535
 30
0.0
 10
8.417468503937007
 20
13.57058267716535
 30
0.0
 10
8.417468503937007
 20
13.57058267716535
 30
0.0
 10
8.380748031496063
 20
13.57058267716535
 30
0.0
 10
8.350968503937008
 20
13.5408031496063
 30
0.0
 10
8.350968503937008
 20
13.50408267716535
 30
0.0
 10
8.350968503937008
 20
13.50408267716535
 30
0.0
 10
8.350968503937008
 20
13.46736220472441
 30
0.0
 10
8.380748031496063
 20
13.43758267716535
 30
0.0
 10
8.417468503937007
 20
13.43758267716535
 30
0.0
  0
TEXT
  5
132
330
1F
100
AcDbEntity
  8
Layer 1
 62
   250
100
AcDbText
 10
7.237185039370079
 20
12.63526771653543
 30
0.0
 40
0.2400009448818897
  1
PYLON SPACER
 51
-0.0000015352345087
  7
8
100
AcDbText
  0
TEXT
  5
134
330
1F
100
AcDbEntity
  8
Layer 1
 62
   250
100
AcDbText
 10
7.237185039370079
 20
12.26287795275591
 30
0.0
 40
0.2400009448818897
  1
   1/4” POPLAR
 51
-0.0000015352345087
  7
9
100
AcDbText
  0
TEXT
  5
136
330
1F
100
AcDbEntity
  8
Layer 1
 62
   250
100
AcDbText
 10
7.237185039370079
 20
11.89048818897638
 30
0.0
 40
0.2400009448818897
  1
   2 REQUIRED
 51
-0.0000015352345087
  7
10
100
AcDbText
  0
SPLINE
  5
137
330
1F
100
AcDbEntity
  8
Layer 1
 62
   114
370
     9
100
AcDbSpline
210
0.0
220
0.0
230
1.0
 70
    11
 71
     3
 72
    20
 73
    16
 74
     0
 42
0.0000000001
 43
0.0000000001
 40
0.0
 40
0.0
 40
0.0
 40
0.0
 40
0.25
 40
0.25
 40
0.25
 40
0.25
 40
0.5
 40
0.5
 40
0.5
 40
0.5
 40
0.75
 40
0.75
 40
0.75
 40
0.75
 40
1.0
 40
1.0
 40
1.0
 40
1.0
 10
11.3395905511811
 20
15.1537125984252
 30
0.0
 10
11.37631102362205
 20
15.1537125984252
 30
0.0
 10
11.4060905511811
 20
15.18349212598425
 30
0.0
 10
11.4060905511811
 20
15.2202125984252
 30
0.0
 10
11.4060905511811
 20
15.2202125984252
 30
0.0
 10
11.4060905511811
 20
15.25693307086614
 30
0.0
 10
11.37631102362205
 20
15.2867125984252
 30
0.0
 10
11.3395905511811
 20
15.2867125984252
 30
0.0
 10
11.3395905511811
 20
15.2867125984252
 30
0.0
 10
11.30287007874016
 20
15.2867125984252
 30
0.0
 10
11.2730905511811
 20
15.25693307086614
 30
0.0
 10
11.2730905511811
 20
15.2202125984252
 30
0.0
 10
11.2730905511811
 20
15.2202125984252
 30
0.0
 10
11.2730905511811
 20
15.18349212598425
 30
0.0
 10
11.30287007874016
 20
15.1537125984252
 30
0.0
 10
11.3395905511811
 20
15.1537125984252
 30
0.0
  0
SPLINE
  5
138
330
1F
100
AcDbEntity
  8
Layer 1
 62
   114
370
     9
100
AcDbSpline
210
0.0
220
0.0
230
1.0
 70
    11
 71
     3
 72
    20
 73
    16
 74
     0
 42
0.0000000001
 43
0.0000000001
 40
0.0
 40
0.0
 40
0.0
 40
0.0
 40
0.25
 40
0.25
 40
0.25
 40
0.25
 40
0.5
 40
0.5
 40
0.5
 40
0.5
 40
0.75
 40
0.75
 40
0.75
 40
0.75
 40
1.0
 40
1.0
 40
1.0
 40
1.0
 10
13.41506299212598
 20
15.15222047244094
 30
0.0
 10
13.45178346456693
 20
15.15222047244094
 30
0.0
 10
13.48156299212598
 20
15.182
 30
0.0
 10
13.48156299212598
 20
15.21872047244094
 30
0.0
 10
13.48156299212598
 20
15.21872047244094
 30
0.0
 10
13.48156299212598
 20
15.25544094488189
 30
0.0
 10
13.45178346456693
 20
15.28522047244095
 30
0.0
 10
13.41506299212598
 20
15.28522047244095
 30
0.0
 10
13.41506299212598
 20
15.28522047244095
 30
0.0
 10
13.37834251968504
 20
15.28522047244095
 30
0.0
 10
13.34856299212598
 20
15.25544094488189
 30
0.0
 10
13.34856299212598
 20
15.21872047244094
 30
0.0
 10
13.34856299212598
 20
15.21872047244094
 30
0.0
 10
13.34856299212598
 20
15.182
 30
0.0
 10
13.37834251968504
 20
15.15222047244094
 30
0.0
 10
13.41506299212598
 20
15.15222047244094
 30
0.0
  0
SPLINE
  5
139
330
1F
100
AcDbEntity
  8
Layer 1
 62
   114
370
     9
100
AcDbSpline
210
0.0
220
0.0
230
1.0
 70
    11
 71
     3
 72
    20
 73
    16
 74
     0
 42
0.0000000001
 43
0.0000000001
 40
0.0
 40
0.0
 40
0.0
 40
0.0
 40
0.25
 40
0.25
 40
0.25
 40
0.25
 40
0.5
 40
0.5
 40
0.5
 40
0.5
 40
0.75
 40
0.75
 40
0.75
 40
0.75
 40
1.0
 40
1.0
 40
1.0
 40
1.0
 10
12.37688976377953
 20
13.35008661417323
 30
0.0
 10
12.41361023622047
 20
13.35008661417323
 30
0.0
 10
12.44338976377953
 20
13.37986614173228
 30
0.0
 10
12.44338976377953
 20
13.41658661417323
 30
0.0
 10
12.44338976377953
 20
13.41658661417323
 30
0.0
 10
12.44338976377953
 20
13.45330708661417
 30
0.0
 10
12.41361023622047
 20
13.48308661417323
 30
0.0
 10
12.37688976377953
 20
13.48308661417323
 30
0.0
 10
12.37688976377953
 20
13.48308661417323
 30
0.0
 10
12.34016929133858
 20
13.48308661417323
 30
0.0
 10
12.31038976377953
 20
13.45330708661417
 30
0.0
 10
12.31038976377953
 20
13.41658661417323
 30
0.0
 10
12.31038976377953
 20
13.41658661417323
 30
0.0
 10
12.31038976377953
 20
13.37986614173228
 30
0.0
 10
12.34016929133858
 20
13.35008661417323
 30
0.0
 10
12.37688976377953
 20
13.35008661417323
 30
0.0
  0
SPLINE
  5
13A
330
1F
100
AcDbEntity
  8
Layer 1
 62
   114
370
     9
100
AcDbSpline
210
0.0
220
0.0
230
1.0
 70
     8
 71
     3
 72
    20
 73
    16
 74
     0
 42
0.0000000001
 43
0.0000000001
 40
0.0
 40
0.0
 40
0.0
 40
0.0
 40
0.25
 40
0.25
 40
0.25
 40
0.25
 40
0.5
 40
0.5
 40
0.5
 40
0.5
 40
0.75
 40
0.75
 40
0.75
 40
0.75
 40
1.0
 40
1.0
 40
1.0
 40
1.0
 10
13.25861417322835
 20
14.85283858267717
 30
0.0
 10
13.23838582677165
 20
14.92817322834646
 30
0.0
 10
13.2080905511811
 20
15.00213779527559
 30
0.0
 10
13.16724015748031
 20
15.07289763779528
 30
0.0
 10
13.16724015748031
 20
15.07289763779528
 30
0.0
 10
12.91526377952756
 20
15.50932283464567
 30
0.0
 10
12.35700787401575
 20
15.65890551181102
 30
0.0
 10
11.92058267716535
 20
15.40694094488189
 30
0.0
 10
11.92058267716535
 20
15.40694094488189
 30
0.0
 10
11.48416141732283
 20
15.15496456692913
 30
0.0
 10
11.33457480314961
 20
14.59670866141732
 30
0.0
 10
11.58654330708661
 20
14.16028346456693
 30
0.0
 10
11.58654330708661
 20
14.16028346456693
 30
0.0
 10
11.79766535433071
 20
13.79461811023622
 30
0.0
 10
12.22381102362205
 20
13.6303188976378
 30
0.0
 10
12.61314566929134
 20
13.73486614173228
 30
0.0
  0
SPLINE
  5
13B
330
1F
100
AcDbEntity
  8
Layer 1
 62
   114
370
     9
100
AcDbSpline
210
0.0
220
0.0
230
1.0
 70
     8
 71
     3
 72
    20
 73
    16
 74
     0
 42
0.0000000001
 43
0.0000000001
 40
0.0
 40
0.0
 40
0.0
 40
0.0
 40
0.25
 40
0.25
 40
0.25
 40
0.25
 40
0.5
 40
0.5
 40
0.5
 40
0.5
 40
0.75
 40
0.75
 40
0.75
 40
0.75
 40
1.0
 40
1.0
 40
1.0
 40
1.0
 10
13.82611811023622
 20
15.00490157480315
 30
0.0
 10
13.65497244094488
 20
15.64501968503937
 30
0.0
 10
13.0708937007874
 20
16.1165905511811
 30
0.0
 10
12.37688976377953
 20
16.1165905511811
 30
0.0
 10
12.37688976377953
 20
16.1165905511811
 30
0.0
 10
11.54860236220472
 20
16.1165905511811
 30
0.0
 10
10.87688976377953
 20
15.44487795275591
 30
0.0
 10
10.87688976377953
 20
14.6165905511811
 30
0.0
 10
10.87688976377953
 20
14.6165905511811
 30
0.0
 10
10.87688976377953
 20
13.7883031496063
 30
0.0
 10
11.54860236220472
 20
13.1165905511811
 30
0.0
 10
12.37688976377953
 20
13.1165905511811
 30
0.0
 10
12.37688976377953
 20
13.1165905511811
 30
0.0
 10
12.51117716535433
 20
13.1165905511811
 30
0.0
 10
12.64135039370079
 20
13.13424803149606
 30
0.0
 10
12.76520866141732
 20
13.16736220472441
 30
0.0
  0
SPLINE
  5
13C
330
1F
100
AcDbEntity
  8
Layer 1
 62
   114
370
     9
100
AcDbSpline
210
0.0
220
0.0
230
1.0
 70
    24
 71
     3
 72
     8
 73
     4
 74
     0
 42
0.0000000001
 43
0.0000000001
 40
0.0
 40
0.0
 40
0.0
 40
0.0
 40
1.0
 40
1.0
 40
1.0
 40
1.0
 10
12.61314960629921
 20
13.73487007874016
 30
0.0
 10
12.61314960629921
 20
13.73487007874016
 30
0.0
 10
12.76511811023622
 20
13.16770078740158
 30
0.0
 10
12.76511811023622
 20
13.16770078740158
 30
0.0
  0
SPLINE
  5
13D
330
1F
100
AcDbEntity
  8
Layer 1
 62
   114
370
     9
100
AcDbSpline
210
0.0
220
0.0
230
1.0
 70
    24
 71
     3
 72
     8
 73
     4
 74
     0
 42
0.0000000001
 43
0.0000000001
 40
0.0
 40
0.0
 40
0.0
 40
0.0
 40
1.0
 40
1.0
 40
1.0
 40
1.0
 10
13.25861811023622
 20
14.85283464566929
 30
0.0
 10
13.25861811023622
 20
14.85283464566929
 30
0.0
 10
13.82577952755905
 20
15.00481102362205
 30
0.0
 10
13.82577952755905
 20
15.00481102362205
 30
0.0
  0
TEXT
  5
13F
330
1F
100
AcDbEntity
  8
Layer 1
 62
   250
100
AcDbText
 10
11.30209842519685
 20
12.61226771653543
 30
0.0
 40
0.2400009448818897
  1
PYLON SPACER
 51
-0.0000015352345087
  7
11
100
AcDbText
  0
TEXT
  5
141
330
1F
100
AcDbEntity
  8
Layer 1
 62
   250
100
AcDbText
 10
11.30209842519685
 20
12.23987795275591
 30
0.0
 40
0.2400009448818897
  1
   1/4” POPLAR
 51
-0.0000015352345087
  7
12
100
AcDbText
  0
TEXT
  5
143
330
1F
100
AcDbEntity
  8
Layer 1
 62
   250
100
AcDbText
 10
11.30209842519685
 20
11.86748818897638
 30
0.0
 40
0.2400009448818897
  1
   5 REQUIRED
 51
-0.0000015352345087
  7
13
100
AcDbText
  0
SPLINE
  5
144
330
1F
100
AcDbEntity
  8
Layer 1
 62
   114
370
     9
100
AcDbSpline
210
0.0
220
0.0
230
1.0
 70
     8
 71
     3
 72
    12
 73
     8
 74
     0
 42
0.0000000001
 43
0.0000000001
 40
0.0
 40
0.0
 40
0.0
 40
0.0
 40
0.5
 40
0.5
 40
0.5
 40
0.5
 40
1.0
 40
1.0
 40
1.0
 40
1.0
 10
-0.700992125984252
 20
14.89977559055118
 30
0.0
 10
-0.773251968503937
 20
14.87407874015748
 30
0.0
 10
-0.8250196850393701
 20
14.80507480314961
 30
0.0
 10
-0.825015748031496
 20
14.724
 30
0.0
 10
-0.825015748031496
 20
14.724
 30
0.0
 10
-0.8250196850393701
 20
14.71251968503937
 30
0.0
 10
-0.8239763779527559
 20
14.70127952755906
 30
0.0
 10
-0.8219881889763779
 20
14.69037007874016
 30
0.0
  0
SPLINE
  5
145
330
1F
100
AcDbEntity
  8
Layer 1
 62
   114
370
     9
100
AcDbSpline
210
0.0
220
0.0
230
1.0
 70
     8
 71
     3
 72
    12
 73
     8
 74
     0
 42
0.0000000001
 43
0.0000000001
 40
0.0
 40
0.0
 40
0.0
 40
0.0
 40
0.5
 40
0.5
 40
0.5
 40
0.5
 40
1.0
 40
1.0
 40
1.0
 40
1.0
 10
-0.4550433070866142
 20
14.69038582677165
 30
0.0
 10
-0.4530590551181102
 20
14.7012874015748
 30
0.0
 10
-0.4520196850393701
 20
14.71252362204724
 30
0.0
 10
-0.4520157480314961
 20
14.724
 30
0.0
 10
-0.4520157480314961
 20
14.724
 30
0.0
 10
-0.4520157480314961
 20
14.80507874015748
 30
0.0
 10
-0.5037952755905512
 20
14.87409842519685
 30
0.0
 10
-0.5760787401574803
 20
14.89978346456693
 30
0.0
  0
SPLINE
  5
146
330
1F
100
AcDbEntity
  8
Layer 1
 62
   114
370
     9
100
AcDbSpline
210
0.0
220
0.0
230
1.0
 70
     8
 71
     3
 72
    12
 73
     8
 74
     0
 42
0.0000000001
 43
0.0000000001
 40
0.0
 40
0.0
 40
0.0
 40
0.0
 40
0.5
 40
0.5
 40
0.5
 40
0.5
 40
1.0
 40
1.0
 40
1.0
 40
1.0
 10
-0.7592204724409449
 20
14.58184251968504
 30
0.0
 10
-0.7266889763779527
 20
14.55419291338583
 30
0.0
 10
-0.6845472440944882
 20
14.5375
 30
0.0
 10
-0.638515748031496
 20
14.5375
 30
0.0
 10
-0.638515748031496
 20
14.5375
 30
0.0
 10
-0.5924055118110236
 20
14.5375
 30
0.0
 10
-0.5501929133858268
 20
14.55425196850394
 30
0.0
 10
-0.5176377952755905
 20
14.5819842519685
 30
0.0
  0
SPLINE
  5
147
330
1F
100
AcDbEntity
  8
Layer 1
 62
   114
370
     9
100
AcDbSpline
210
0.0
220
0.0
230
1.0
 70
     8
 71
     3
 72
    12
 73
     8
 74
     0
 42
0.0000000001
 43
0.0000000001
 40
0.0
 40
0.0
 40
0.0
 40
0.0
 40
0.5
 40
0.5
 40
0.5
 40
0.5
 40
1.0
 40
1.0
 40
1.0
 40
1.0
 10
0.6908582677165355
 20
14.02863385826772
 30
0.0
 10
0.7998267716535433
 20
14.23650393700787
 30
0.0
 10
0.8614803149606299
 20
14.47306692913386
 30
0.0
 10
0.8614803149606299
 20
14.724
 30
0.0
 10
0.8614803149606299
 20
14.724
 30
0.0
 10
0.861484251968504
 20
15.53136614173228
 30
0.0
 10
0.223259842519685
 20
16.18998031496063
 30
0.0
 10
-0.5760708661417323
 20
16.22272440944882
 30
0.0
  0
SPLINE
  5
148
330
1F
100
AcDbEntity
  8
Layer 1
 62
   114
370
     9
100
AcDbSpline
210
0.0
220
0.0
230
1.0
 70
     8
 71
     3
 72
    12
 73
     8
 74
     0
 42
0.0000000001
 43
0.0000000001
 40
0.0
 40
0.0
 40
0.0
 40
0.0
 40
0.5
 40
0.5
 40
0.5
 40
0.5
 40
1.0
 40
1.0
 40
1.0
 40
1.0
 10
-1.905314960629921
 20
13.92051181102362
 30
0.0
 10
-1.639185039370079
 20
13.50186220472441
 30
0.0
 10
-1.171232283464567
 20
13.224
 30
0.0
 10
-0.6385196850393701
 20
13.224
 30
0.0
 10
-0.6385196850393701
 20
13.224
 30
0.0
 10
-0.1058031496062992
 20
13.224
 30
0.0
 10
0.3621574803149606
 20
13.50186220472441
 30
0.0
 10
0.6282913385826772
 20
13.92051968503937
 30
0.0
  0
SPLINE
  5
149
330
1F
100
AcDbEntity
  8
Layer 1
 62
   114
370
     9
100
AcDbSpline
210
0.0
220
0.0
230
1.0
 70
     8
 71
     3
 72
    12
 73
     8
 74
     0
 42
0.0000000001
 43
0.0000000001
 40
0.0
 40
0.0
 40
0.0
 40
0.0
 40
0.5
 40
0.5
 40
0.5
 40
0.5
 40
1.0
 40
1.0
 40
1.0
 40
1.0
 10
-0.7009685039370078
 20
16.22272047244094
 30
0.0
 10
-1.500299212598425
 20
16.18996850393701
 30
0.0
 10
-2.138515748031496
 20
15.53137007874016
 30
0.0
 10
-2.138515748031496
 20
14.72400393700787
 30
0.0
 10
-2.138515748031496
 20
14.72400393700787
 30
0.0
 10
-2.13851968503937
 20
14.47306299212598
 30
0.0
 10
-2.076850393700787
 20
14.2364842519685
 30
0.0
 10
-1.967877952755906
 20
14.02861811023622
 30
0.0
  0
SPLINE
  5
14A
330
1F
100
AcDbEntity
  8
Layer 1
 62
   114
370
     9
100
AcDbSpline
210
0.0
220
0.0
230
1.0
 70
    24
 71
     3
 72
     8
 73
     4
 74
     0
 42
0.0000000001
 43
0.0000000001
 40
0.0
 40
0.0
 40
0.0
 40
0.0
 40
1.0
 40
1.0
 40
1.0
 40
1.0
 10
-0.282488188976378
 20
14.59064173228346
 30
0.0
 10
-0.282488188976378
 20
14.59064173228346
 30
0.0
 10
-0.344992125984252
 20
14.48238976377953
 30
0.0
 10
-0.344992125984252
 20
14.48238976377953
 30
0.0
  0
SPLINE
  5
14B
330
1F
100
AcDbEntity
  8
Layer 1
 62
   114
370
     9
100
AcDbSpline
210
0.0
220
0.0
230
1.0
 70
    24
 71
     3
 72
     8
 73
     4
 74
     0
 42
0.0000000001
 43
0.0000000001
 40
0.0
 40
0.0
 40
0.0
 40
0.0
 40
1.0
 40
1.0
 40
1.0
 40
1.0
 10
-0.9320275590551181
 20
14.48237795275591
 30
0.0
 10
-0.9320275590551181
 20
14.48237795275591
 30
0.0
 10
-0.9945236220472441
 20
14.59063385826772
 30
0.0
 10
-0.9945236220472441
 20
14.59063385826772
 30
0.0
  0
SPLINE
  5
14C
330
1F
100
AcDbEntity
  8
Layer 1
 62
   114
370
     9
100
AcDbSpline
210
0.0
220
0.0
230
1.0
 70
    24
 71
     3
 72
     8
 73
     4
 74
     0
 42
0.0000000001
 43
0.0000000001
 40
0.0
 40
0.0
 40
0.0
 40
0.0
 40
1.0
 40
1.0
 40
1.0
 40
1.0
 10
-0.7010196850393701
 20
15.09900393700787
 30
0.0
 10
-0.7010196850393701
 20
15.09900393700787
 30
0.0
 10
-0.576015748031496
 20
15.099
 30
0.0
 10
-0.576015748031496
 20
15.099
 30
0.0
  0
SPLINE
  5
14D
330
1F
100
AcDbEntity
  8
Layer 1
 62
   114
370
     9
100
AcDbSpline
210
0.0
220
0.0
230
1.0
 70
    24
 71
     3
 72
     8
 73
     4
 74
     0
 42
0.0000000001
 43
0.0000000001
 40
0.0
 40
0.0
 40
0.0
 40
0.0
 40
1.0
 40
1.0
 40
1.0
 40
1.0
 10
0.4127795275590551
 20
14.0448937007874
 30
0.0
 10
0.4127795275590551
 20
14.0448937007874
 30
0.0
 10
0.4752834645669292
 20
14.15314173228346
 30
0.0
 10
0.4752834645669292
 20
14.15314173228346
 30
0.0
  0
SPLINE
  5
14E
330
1F
100
AcDbEntity
  8
Layer 1
 62
   114
370
     9
100
AcDbSpline
210
0.0
220
0.0
230
1.0
 70
    24
 71
     3
 72
     8
 73
     4
 74
     0
 42
0.0000000001
 43
0.0000000001
 40
0.0
 40
0.0
 40
0.0
 40
0.0
 40
1.0
 40
1.0
 40
1.0
 40
1.0
 10
-1.752299212598425
 20
14.15313385826772
 30
0.0
 10
-1.752299212598425
 20
14.15313385826772
 30
0.0
 10
-1.689795275590551
 20
14.04487795275591
 30
0.0
 10
-1.689795275590551
 20
14.04487795275591
 30
0.0
  0
SPLINE
  5
14F
330
1F
100
AcDbEntity
  8
Layer 1
 62
   114
370
     9
100
AcDbSpline
210
0.0
220
0.0
230
1.0
 70
    24
 71
     3
 72
     8
 73
     4
 74
     0
 42
0.0000000001
 43
0.0000000001
 40
0.0
 40
0.0
 40
0.0
 40
0.0
 40
1.0
 40
1.0
 40
1.0
 40
1.0
 10
-0.576015748031496
 20
15.974
 30
0.0
 10
-0.576015748031496
 20
15.974
 30
0.0
 10
-0.7010196850393701
 20
15.97400393700787
 30
0.0
 10
-0.7010196850393701
 20
15.97400393700787
 30
0.0
  0
SPLINE
  5
150
330
1F
100
AcDbEntity
  8
Layer 1
 62
   114
370
     9
100
AcDbSpline
210
0.0
220
0.0
230
1.0
 70
    24
 71
     3
 72
     8
 73
     4
 74
     0
 42
0.0000000001
 43
0.0000000001
 40
0.0
 40
0.0
 40
0.0
 40
0.0
 40
1.0
 40
1.0
 40
1.0
 40
1.0
 10
-0.282488188976378
 20
14.59064173228346
 30
0.0
 10
-0.282488188976378
 20
14.59064173228346
 30
0.0
 10
-0.4550433070866142
 20
14.69038582677165
 30
0.0
 10
-0.4550433070866142
 20
14.69038582677165
 30
0.0
  0
SPLINE
  5
151
330
1F
100
AcDbEntity
  8
Layer 1
 62
   114
370
     9
100
AcDbSpline
210
0.0
220
0.0
230
1.0
 70
    24
 71
     3
 72
     8
 73
     4
 74
     0
 42
0.0000000001
 43
0.0000000001
 40
0.0
 40
0.0
 40
0.0
 40
0.0
 40
1.0
 40
1.0
 40
1.0
 40
1.0
 10
0.6917913385826772
 20
14.02814173228346
 30
0.0
 10
0.6917913385826772
 20
14.02814173228346
 30
0.0
 10
0.4752795275590551
 20
14.15314566929134
 30
0.0
 10
0.4752795275590551
 20
14.15314566929134
 30
0.0
  0
SPLINE
  5
152
330
1F
100
AcDbEntity
  8
Layer 1
 62
   114
370
     9
100
AcDbSpline
210
0.0
220
0.0
230
1.0
 70
    24
 71
     3
 72
     8
 73
     4
 74
     0
 42
0.0000000001
 43
0.0000000001
 40
0.0
 40
0.0
 40
0.0
 40
0.0
 40
1.0
 40
1.0
 40
1.0
 40
1.0
 10
-0.9320275590551181
 20
14.48237795275591
 30
0.0
 10
-0.9320275590551181
 20
14.48237795275591
 30
0.0
 10
-0.7592204724409449
 20
14.58184251968504
 30
0.0
 10
-0.7592204724409449
 20
14.58184251968504
 30
0.0
  0
SPLINE
  5
153
330
1F
100
AcDbEntity
  8
Layer 1
 62
   114
370
     9
100
AcDbSpline
210
0.0
220
0.0
230
1.0
 70
    24
 71
     3
 72
     8
 73
     4
 74
     0
 42
0.0000000001
 43
0.0000000001
 40
0.0
 40
0.0
 40
0.0
 40
0.0
 40
1.0
 40
1.0
 40
1.0
 40
1.0
 10
-1.906299212598425
 20
13.91987795275591
 30
0.0
 10
-1.906299212598425
 20
13.91987795275591
 30
0.0
 10
-1.689795275590551
 20
14.04487795275591
 30
0.0
 10
-1.689795275590551
 20
14.04487795275591
 30
0.0
  0
SPLINE
  5
154
330
1F
100
AcDbEntity
  8
Layer 1
 62
   114
370
     9
100
AcDbSpline
210
0.0
220
0.0
230
1.0
 70
    24
 71
     3
 72
     8
 73
     4
 74
     0
 42
0.0000000001
 43
0.0000000001
 40
0.0
 40
0.0
 40
0.0
 40
0.0
 40
1.0
 40
1.0
 40
1.0
 40
1.0
 10
-0.7010196850393701
 20
15.09900393700787
 30
0.0
 10
-0.7010196850393701
 20
15.09900393700787
 30
0.0
 10
-0.700992125984252
 20
14.89976771653543
 30
0.0
 10
-0.700992125984252
 20
14.89976771653543
 30
0.0
  0
SPLINE
  5
155
330
1F
100
AcDbEntity
  8
Layer 1
 62
   114
370
     9
100
AcDbSpline
210
0.0
220
0.0
230
1.0
 70
    24
 71
     3
 72
     8
 73
     4
 74
     0
 42
0.0000000001
 43
0.0000000001
 40
0.0
 40
0.0
 40
0.0
 40
0.0
 40
1.0
 40
1.0
 40
1.0
 40
1.0
 10
-0.7010196850393701
 20
16.224
 30
0.0
 10
-0.7010196850393701
 20
16.224
 30
0.0
 10
-0.7010196850393701
 20
15.97400393700787
 30
0.0
 10
-0.7010196850393701
 20
15.97400393700787
 30
0.0
  0
SPLINE
  5
156
330
1F
100
AcDbEntity
  8
Layer 1
 62
   114
370
     9
100
AcDbSpline
210
0.0
220
0.0
230
1.0
 70
    24
 71
     3
 72
     8
 73
     4
 74
     0
 42
0.0000000001
 43
0.0000000001
 40
0.0
 40
0.0
 40
0.0
 40
0.0
 40
1.0
 40
1.0
 40
1.0
 40
1.0
 10
-0.344992125984252
 20
14.48238976377953
 30
0.0
 10
-0.344992125984252
 20
14.48238976377953
 30
0.0
 10
-0.5176377952755905
 20
14.58199212598425
 30
0.0
 10
-0.5176377952755905
 20
14.58199212598425
 30
0.0
  0
SPLINE
  5
157
330
1F
100
AcDbEntity
  8
Layer 1
 62
   114
370
     9
100
AcDbSpline
210
0.0
220
0.0
230
1.0
 70
    24
 71
     3
 72
     8
 73
     4
 74
     0
 42
0.0000000001
 43
0.0000000001
 40
0.0
 40
0.0
 40
0.0
 40
0.0
 40
1.0
 40
1.0
 40
1.0
 40
1.0
 10
0.6292874015748031
 20
13.91988582677165
 30
0.0
 10
0.6292874015748031
 20
13.91988582677165
 30
0.0
 10
0.4127795275590551
 20
14.0448937007874
 30
0.0
 10
0.4127795275590551
 20
14.0448937007874
 30
0.0
  0
SPLINE
  5
158
330
1F
100
AcDbEntity
  8
Layer 1
 62
   114
370
     9
100
AcDbSpline
210
0.0
220
0.0
230
1.0
 70
    24
 71
     3
 72
     8
 73
     4
 74
     0
 42
0.0000000001
 43
0.0000000001
 40
0.0
 40
0.0
 40
0.0
 40
0.0
 40
1.0
 40
1.0
 40
1.0
 40
1.0
 10
-0.9945236220472441
 20
14.59063385826772
 30
0.0
 10
-0.9945236220472441
 20
14.59063385826772
 30
0.0
 10
-0.8204606299212598
 20
14.69125196850394
 30
0.0
 10
-0.8204606299212598
 20
14.69125196850394
 30
0.0
  0
SPLINE
  5
159
330
1F
100
AcDbEntity
  8
Layer 1
 62
   114
370
     9
100
AcDbSpline
210
0.0
220
0.0
230
1.0
 70
    24
 71
     3
 72
     8
 73
     4
 74
     0
 42
0.0000000001
 43
0.0000000001
 40
0.0
 40
0.0
 40
0.0
 40
0.0
 40
1.0
 40
1.0
 40
1.0
 40
1.0
 10
-1.968803149606299
 20
14.02813385826772
 30
0.0
 10
-1.968803149606299
 20
14.02813385826772
 30
0.0
 10
-1.752299212598425
 20
14.15313385826772
 30
0.0
 10
-1.752299212598425
 20
14.15313385826772
 30
0.0
  0
SPLINE
  5
15A
330
1F
100
AcDbEntity
  8
Layer 1
 62
   114
370
     9
100
AcDbSpline
210
0.0
220
0.0
230
1.0
 70
    24
 71
     3
 72
     8
 73
     4
 74
     0
 42
0.0000000001
 43
0.0000000001
 40
0.0
 40
0.0
 40
0.0
 40
0.0
 40
1.0
 40
1.0
 40
1.0
 40
1.0
 10
-0.576015748031496
 20
15.099
 30
0.0
 10
-0.576015748031496
 20
15.099
 30
0.0
 10
-0.5760748031496064
 20
14.8997874015748
 30
0.0
 10
-0.5760748031496064
 20
14.8997874015748
 30
0.0
  0
SPLINE
  5
15B
330
1F
100
AcDbEntity
  8
Layer 1
 62
   114
370
     9
100
AcDbSpline
210
0.0
220
0.0
230
1.0
 70
    24
 71
     3
 72
     8
 73
     4
 74
     0
 42
0.0000000001
 43
0.0000000001
 40
0.0
 40
0.0
 40
0.0
 40
0.0
 40
1.0
 40
1.0
 40
1.0
 40
1.0
 10
-0.576015748031496
 20
16.22399606299212
 30
0.0
 10
-0.576015748031496
 20
16.22399606299212
 30
0.0
 10
-0.576015748031496
 20
15.974
 30
0.0
 10
-0.576015748031496
 20
15.974
 30
0.0
  0
SPLINE
  5
15C
330
1F
100
AcDbEntity
  8
Layer 1
 62
   114
370
     9
100
AcDbSpline
210
0.0
220
0.0
230
1.0
 70
    11
 71
     3
 72
    20
 73
    16
 74
     0
 42
0.0000000001
 43
0.0000000001
 40
0.0
 40
0.0
 40
0.0
 40
0.0
 40
0.25
 40
0.25
 40
0.25
 40
0.25
 40
0.5
 40
0.5
 40
0.5
 40
0.5
 40
0.75
 40
0.75
 40
0.75
 40
0.75
 40
1.0
 40
1.0
 40
1.0
 40
1.0
 10
-0.638515748031496
 20
13.45685826771654
 30
0.0
 10
-0.6017952755905511
 20
13.45685826771654
 30
0.0
 10
-0.572015748031496
 20
13.48663779527559
 30
0.0
 10
-0.572015748031496
 20
13.52335826771654
 30
0.0
 10
-0.572015748031496
 20
13.52335826771654
 30
0.0
 10
-0.572015748031496
 20
13.56007874015748
 30
0.0
 10
-0.6017952755905511
 20
13.58985826771653
 30
0.0
 10
-0.638515748031496
 20
13.58985826771653
 30
0.0
 10
-0.638515748031496
 20
13.58985826771653
 30
0.0
 10
-0.6752362204724409
 20
13.58985826771653
 30
0.0
 10
-0.705015748031496
 20
13.56007874015748
 30
0.0
 10
-0.705015748031496
 20
13.52335826771654
 30
0.0
 10
-0.705015748031496
 20
13.52335826771654
 30
0.0
 10
-0.705015748031496
 20
13.48663779527559
 30
0.0
 10
-0.6752362204724409
 20
13.45685826771654
 30
0.0
 10
-0.638515748031496
 20
13.45685826771654
 30
0.0
  0
SPLINE
  5
15D
330
1F
100
AcDbEntity
  8
Layer 1
 62
   114
370
     9
100
AcDbSpline
210
0.0
220
0.0
230
1.0
 70
    11
 71
     3
 72
    20
 73
    16
 74
     0
 42
0.0000000001
 43
0.0000000001
 40
0.0
 40
0.0
 40
0.0
 40
0.0
 40
0.25
 40
0.25
 40
0.25
 40
0.25
 40
0.5
 40
0.5
 40
0.5
 40
0.5
 40
0.75
 40
0.75
 40
0.75
 40
0.75
 40
1.0
 40
1.0
 40
1.0
 40
1.0
 10
0.3996574803149606
 20
15.25899212598425
 30
0.0
 10
0.4363779527559055
 20
15.25899212598425
 30
0.0
 10
0.4661574803149606
 20
15.28877165354331
 30
0.0
 10
0.4661574803149606
 20
15.32549212598425
 30
0.0
 10
0.4661574803149606
 20
15.32549212598425
 30
0.0
 10
0.4661574803149606
 20
15.3622125984252
 30
0.0
 10
0.4363779527559055
 20
15.39199212598425
 30
0.0
 10
0.3996574803149606
 20
15.39199212598425
 30
0.0
 10
0.3996574803149606
 20
15.39199212598425
 30
0.0
 10
0.3629370078740157
 20
15.39199212598425
 30
0.0
 10
0.3331574803149606
 20
15.3622125984252
 30
0.0
 10
0.3331574803149606
 20
15.32549212598425
 30
0.0
 10
0.3331574803149606
 20
15.32549212598425
 30
0.0
 10
0.3331574803149606
 20
15.28877165354331
 30
0.0
 10
0.3629370078740157
 20
15.25899212598425
 30
0.0
 10
0.3996574803149606
 20
15.25899212598425
 30
0.0
  0
SPLINE
  5
15E
330
1F
100
AcDbEntity
  8
Layer 1
 62
   114
370
     9
100
AcDbSpline
210
0.0
220
0.0
230
1.0
 70
    11
 71
     3
 72
    20
 73
    16
 74
     0
 42
0.0000000001
 43
0.0000000001
 40
0.0
 40
0.0
 40
0.0
 40
0.0
 40
0.25
 40
0.25
 40
0.25
 40
0.25
 40
0.5
 40
0.5
 40
0.5
 40
0.5
 40
0.75
 40
0.75
 40
0.75
 40
0.75
 40
1.0
 40
1.0
 40
1.0
 40
1.0
 10
-1.675814960629921
 20
15.2604842519685
 30
0.0
 10
-1.639094488188976
 20
15.2604842519685
 30
0.0
 10
-1.609314960629921
 20
15.29026377952756
 30
0.0
 10
-1.609314960629921
 20
15.3269842519685
 30
0.0
 10
-1.609314960629921
 20
15.3269842519685
 30
0.0
 10
-1.609314960629921
 20
15.36370472440945
 30
0.0
 10
-1.639094488188976
 20
15.3934842519685
 30
0.0
 10
-1.675814960629921
 20
15.3934842519685
 30
0.0
 10
-1.675814960629921
 20
15.3934842519685
 30
0.0
 10
-1.712535433070866
 20
15.3934842519685
 30
0.0
 10
-1.742314960629921
 20
15.36370472440945
 30
0.0
 10
-1.742314960629921
 20
15.3269842519685
 30
0.0
 10
-1.742314960629921
 20
15.3269842519685
 30
0.0
 10
-1.742314960629921
 20
15.29026377952756
 30
0.0
 10
-1.712535433070866
 20
15.2604842519685
 30
0.0
 10
-1.675814960629921
 20
15.2604842519685
 30
0.0
  0
TEXT
  5
160
330
1F
100
AcDbEntity
  8
Layer 1
 62
   250
100
AcDbText
 10
-2.314933070866142
 20
12.69581102362205
 30
0.0
 40
0.2400009448818897
  1
       PYLON BASE
 51
-0.0000015352345087
  7
14
100
AcDbText
  0
TEXT
  5
161
330
1F
100
AcDbEntity
  8
Layer 1
 62
   250
100
AcDbText
 10
-2.314933070866142
 20
12.32342125984252
 30
0.0
 40
0.2400009448818897
  1
1/8” BIRCH PLYWOOD
 51
-0.0000015352345087
  7
0
100
AcDbText
  0
SPLINE
  5
162
330
1F
100
AcDbEntity
  8
Layer 1
 62
   114
370
     9
100
AcDbSpline
210
0.0
220
0.0
230
1.0
 70
    24
 71
     3
 72
     8
 73
     4
 74
     0
 42
0.0000000001
 43
0.0000000001
 40
0.0
 40
0.0
 40
0.0
 40
0.0
 40
1.0
 40
1.0
 40
1.0
 40
1.0
 10
-11.00299606299213
 20
13.5759842519685
 30
0.0
 10
-11.00299606299213
 20
13.5759842519685
 30
0.0
 10
-10.17603149606299
 20
13.5759842519685
 30
0.0
 10
-10.17603149606299
 20
13.5759842519685
 30
0.0
  0
SPLINE
  5
163
330
1F
100
AcDbEntity
  8
Layer 1
 62
   114
370
     9
100
AcDbSpline
210
0.0
220
0.0
230
1.0
 70
    24
 71
     3
 72
     8
 73
     4
 74
     0
 42
0.0000000001
 43
0.0000000001
 40
0.0
 40
0.0
 40
0.0
 40
0.0
 40
1.0
 40
1.0
 40
1.0
 40
1.0
 10
-10.17603149606299
 20
15.41109842519685
 30
0.0
 10
-10.17603149606299
 20
15.41109842519685
 30
0.0
 10
-10.17603149606299
 20
13.5759842519685
 30
0.0
 10
-10.17603149606299
 20
13.5759842519685
 30
0.0
  0
SPLINE
  5
164
330
1F
100
AcDbEntity
  8
Layer 1
 62
   114
370
     9
100
AcDbSpline
210
0.0
220
0.0
230
1.0
 70
    24
 71
     3
 72
     8
 73
     4
 74
     0
 42
0.0000000001
 43
0.0000000001
 40
0.0
 40
0.0
 40
0.0
 40
0.0
 40
1.0
 40
1.0
 40
1.0
 40
1.0
 10
-10.17603149606299
 20
15.41109842519685
 30
0.0
 10
-10.17603149606299
 20
15.41109842519685
 30
0.0
 10
-11.003
 20
13.57598818897638
 30
0.0
 10
-11.003
 20
13.57598818897638
 30
0.0
  0
SPLINE
  5
165
330
1F
100
AcDbEntity
  8
Layer 1
 62
   114
370
     9
100
AcDbSpline
210
0.0
220
0.0
230
1.0
 70
    24
 71
     3
 72
     8
 73
     4
 74
     0
 42
0.0000000001
 43
0.0000000001
 40
0.0
 40
0.0
 40
0.0
 40
0.0
 40
1.0
 40
1.0
 40
1.0
 40
1.0
 10
-10.17603149606299
 20
13.36850787401575
 30
0.0
 10
-10.17603149606299
 20
13.36850787401575
 30
0.0
 10
-10.17603149606299
 20
13.24650787401575
 30
0.0
 10
-10.17603149606299
 20
13.24650787401575
 30
0.0
  0
SPLINE
  5
166
330
1F
100
AcDbEntity
  8
Layer 1
 62
   114
370
     9
100
AcDbSpline
210
0.0
220
0.0
230
1.0
 70
    24
 71
     3
 72
     8
 73
     4
 74
     0
 42
0.0000000001
 43
0.0000000001
 40
0.0
 40
0.0
 40
0.0
 40
0.0
 40
1.0
 40
1.0
 40
1.0
 40
1.0
 10
-10.17603149606299
 20
15.87650787401575
 30
0.0
 10
-10.17603149606299
 20
15.87650787401575
 30
0.0
 10
-11.30103149606299
 20
13.37800787401575
 30
0.0
 10
-11.30103149606299
 20
13.37800787401575
 30
0.0
  0
SPLINE
  5
167
330
1F
100
AcDbEntity
  8
Layer 1
 62
   114
370
     9
100
AcDbSpline
210
0.0
220
0.0
230
1.0
 70
    24
 71
     3
 72
     8
 73
     4
 74
     0
 42
0.0000000001
 43
0.0000000001
 40
0.0
 40
0.0
 40
0.0
 40
0.0
 40
1.0
 40
1.0
 40
1.0
 40
1.0
 10
-11.05103149606299
 20
13.24650787401575
 30
0.0
 10
-11.05103149606299
 20
13.24650787401575
 30
0.0
 10
-11.05103149606299
 20
13.36850787401575
 30
0.0
 10
-11.05103149606299
 20
13.36850787401575
 30
0.0
  0
SPLINE
  5
168
330
1F
100
AcDbEntity
  8
Layer 1
 62
   114
370
     9
100
AcDbSpline
210
0.0
220
0.0
230
1.0
 70
    24
 71
     3
 72
     8
 73
     4
 74
     0
 42
0.0000000001
 43
0.0000000001
 40
0.0
 40
0.0
 40
0.0
 40
0.0
 40
1.0
 40
1.0
 40
1.0
 40
1.0
 10
-11.30103149606299
 20
13.24650787401575
 30
0.0
 10
-11.30103149606299
 20
13.24650787401575
 30
0.0
 10
-11.30103149606299
 20
13.37800787401575
 30
0.0
 10
-11.30103149606299
 20
13.37800787401575
 30
0.0
  0
SPLINE
  5
169
330
1F
100
AcDbEntity
  8
Layer 1
 62
   114
370
     9
100
AcDbSpline
210
0.0
220
0.0
230
1.0
 70
    24
 71
     3
 72
     8
 73
     4
 74
     0
 42
0.0000000001
 43
0.0000000001
 40
0.0
 40
0.0
 40
0.0
 40
0.0
 40
1.0
 40
1.0
 40
1.0
 40
1.0
 10
-10.17603149606299
 20
15.75450787401575
 30
0.0
 10
-10.17603149606299
 20
15.75450787401575
 30
0.0
 10
-10.17603149606299
 20
15.87650787401575
 30
0.0
 10
-10.17603149606299
 20
15.87650787401575
 30
0.0
  0
SPLINE
  5
16A
330
1F
100
AcDbEntity
  8
Layer 1
 62
   114
370
     9
100
AcDbSpline
210
0.0
220
0.0
230
1.0
 70
    24
 71
     3
 72
     8
 73
     4
 74
     0
 42
0.0000000001
 43
0.0000000001
 40
0.0
 40
0.0
 40
0.0
 40
0.0
 40
1.0
 40
1.0
 40
1.0
 40
1.0
 10
-11.05103149606299
 20
13.36850787401575
 30
0.0
 10
-11.05103149606299
 20
13.36850787401575
 30
0.0
 10
-10.17603149606299
 20
13.36850787401575
 30
0.0
 10
-10.17603149606299
 20
13.36850787401575
 30
0.0
  0
SPLINE
  5
16B
330
1F
100
AcDbEntity
  8
Layer 1
 62
   114
370
     9
100
AcDbSpline
210
0.0
220
0.0
230
1.0
 70
    24
 71
     3
 72
     8
 73
     4
 74
     0
 42
0.0000000001
 43
0.0000000001
 40
0.0
 40
0.0
 40
0.0
 40
0.0
 40
1.0
 40
1.0
 40
1.0
 40
1.0
 10
-10.17603149606299
 20
15.75450787401575
 30
0.0
 10
-10.17603149606299
 20
15.75450787401575
 30
0.0
 10
-9.988531496062992
 20
15.75450787401575
 30
0.0
 10
-9.988531496062992
 20
15.75450787401575
 30
0.0
  0
SPLINE
  5
16C
330
1F
100
AcDbEntity
  8
Layer 1
 62
   114
370
     9
100
AcDbSpline
210
0.0
220
0.0
230
1.0
 70
    24
 71
     3
 72
     8
 73
     4
 74
     0
 42
0.0000000001
 43
0.0000000001
 40
0.0
 40
0.0
 40
0.0
 40
0.0
 40
1.0
 40
1.0
 40
1.0
 40
1.0
 10
-10.17603149606299
 20
13.24650787401575
 30
0.0
 10
-10.17603149606299
 20
13.24650787401575
 30
0.0
 10
-9.988531496062992
 20
13.24650787401575
 30
0.0
 10
-9.988531496062992
 20
13.24650787401575
 30
0.0
  0
SPLINE
  5
16D
330
1F
100
AcDbEntity
  8
Layer 1
 62
   114
370
     9
100
AcDbSpline
210
0.0
220
0.0
230
1.0
 70
    24
 71
     3
 72
     8
 73
     4
 74
     0
 42
0.0000000001
 43
0.0000000001
 40
0.0
 40
0.0
 40
0.0
 40
0.0
 40
1.0
 40
1.0
 40
1.0
 40
1.0
 10
-11.30103149606299
 20
13.24650787401575
 30
0.0
 10
-11.30103149606299
 20
13.24650787401575
 30
0.0
 10
-11.05103149606299
 20
13.24650787401575
 30
0.0
 10
-11.05103149606299
 20
13.24650787401575
 30
0.0
  0
SPLINE
  5
16E
330
1F
100
AcDbEntity
  8
Layer 1
 62
   114
370
     9
100
AcDbSpline
210
0.0
220
0.0
230
1.0
 70
    24
 71
     3
 72
     8
 73
     4
 74
     0
 42
0.0000000001
 43
0.0000000001
 40
0.0
 40
0.0
 40
0.0
 40
0.0
 40
1.0
 40
1.0
 40
1.0
 40
1.0
 10
-9.988531496062992
 20
15.75450787401575
 30
0.0
 10
-9.988531496062992
 20
15.75450787401575
 30
0.0
 10
-9.988531496062992
 20
13.24650787401575
 30
0.0
 10
-9.988531496062992
 20
13.24650787401575
 30
0.0
  0
SPLINE
  5
16F
330
1F
100
AcDbEntity
  8
Layer 1
 62
   114
370
     9
100
AcDbSpline
210
0.0
220
0.0
230
1.0
 70
    24
 71
     3
 72
     8
 73
     4
 74
     0
 42
0.0000000001
 43
0.0000000001
 40
0.0
 40
0.0
 40
0.0
 40
0.0
 40
1.0
 40
1.0
 40
1.0
 40
1.0
 10
-8.84240157480315
 20
13.56706299212598
 30
0.0
 10
-8.84240157480315
 20
13.56706299212598
 30
0.0
 10
-9.669366141732283
 20
13.56706299212598
 30
0.0
 10
-9.669366141732283
 20
13.56706299212598
 30
0.0
  0
SPLINE
  5
170
330
1F
100
AcDbEntity
  8
Layer 1
 62
   114
370
     9
100
AcDbSpline
210
0.0
220
0.0
230
1.0
 70
    24
 71
     3
 72
     8
 73
     4
 74
     0
 42
0.0000000001
 43
0.0000000001
 40
0.0
 40
0.0
 40
0.0
 40
0.0
 40
1.0
 40
1.0
 40
1.0
 40
1.0
 10
-9.669366141732283
 20
15.40217716535433
 30
0.0
 10
-9.669366141732283
 20
15.40217716535433
 30
0.0
 10
-9.669366141732283
 20
13.56706299212598
 30
0.0
 10
-9.669366141732283
 20
13.56706299212598
 30
0.0
  0
SPLINE
  5
171
330
1F
100
AcDbEntity
  8
Layer 1
 62
   114
370
     9
100
AcDbSpline
210
0.0
220
0.0
230
1.0
 70
    24
 71
     3
 72
     8
 73
     4
 74
     0
 42
0.0000000001
 43
0.0000000001
 40
0.0
 40
0.0
 40
0.0
 40
0.0
 40
1.0
 40
1.0
 40
1.0
 40
1.0
 10
-9.669366141732283
 20
15.40217716535433
 30
0.0
 10
-9.669366141732283
 20
15.40217716535433
 30
0.0
 10
-8.842397637795276
 20
13.56706692913386
 30
0.0
 10
-8.842397637795276
 20
13.56706692913386
 30
0.0
  0
SPLINE
  5
172
330
1F
100
AcDbEntity
  8
Layer 1
 62
   114
370
     9
100
AcDbSpline
210
0.0
220
0.0
230
1.0
 70
    24
 71
     3
 72
     8
 73
     4
 74
     0
 42
0.0000000001
 43
0.0000000001
 40
0.0
 40
0.0
 40
0.0
 40
0.0
 40
1.0
 40
1.0
 40
1.0
 40
1.0
 10
-9.669366141732283
 20
13.35958661417323
 30
0.0
 10
-9.669366141732283
 20
13.35958661417323
 30
0.0
 10
-9.669366141732283
 20
13.23758661417323
 30
0.0
 10
-9.669366141732283
 20
13.23758661417323
 30
0.0
  0
SPLINE
  5
173
330
1F
100
AcDbEntity
  8
Layer 1
 62
   114
370
     9
100
AcDbSpline
210
0.0
220
0.0
230
1.0
 70
    24
 71
     3
 72
     8
 73
     4
 74
     0
 42
0.0000000001
 43
0.0000000001
 40
0.0
 40
0.0
 40
0.0
 40
0.0
 40
1.0
 40
1.0
 40
1.0
 40
1.0
 10
-9.669366141732283
 20
15.86758661417323
 30
0.0
 10
-9.669366141732283
 20
15.86758661417323
 30
0.0
 10
-8.544366141732283
 20
13.36908661417323
 30
0.0
 10
-8.544366141732283
 20
13.36908661417323
 30
0.0
  0
SPLINE
  5
174
330
1F
100
AcDbEntity
  8
Layer 1
 62
   114
370
     9
100
AcDbSpline
210
0.0
220
0.0
230
1.0
 70
    24
 71
     3
 72
     8
 73
     4
 74
     0
 42
0.0000000001
 43
0.0000000001
 40
0.0
 40
0.0
 40
0.0
 40
0.0
 40
1.0
 40
1.0
 40
1.0
 40
1.0
 10
-8.794366141732283
 20
13.23758661417323
 30
0.0
 10
-8.794366141732283
 20
13.23758661417323
 30
0.0
 10
-8.794366141732283
 20
13.35958661417323
 30
0.0
 10
-8.794366141732283
 20
13.35958661417323
 30
0.0
  0
SPLINE
  5
175
330
1F
100
AcDbEntity
  8
Layer 1
 62
   114
370
     9
100
AcDbSpline
210
0.0
220
0.0
230
1.0
 70
    24
 71
     3
 72
     8
 73
     4
 74
     0
 42
0.0000000001
 43
0.0000000001
 40
0.0
 40
0.0
 40
0.0
 40
0.0
 40
1.0
 40
1.0
 40
1.0
 40
1.0
 10
-8.544366141732283
 20
13.23758661417323
 30
0.0
 10
-8.544366141732283
 20
13.23758661417323
 30
0.0
 10
-8.544366141732283
 20
13.36908661417323
 30
0.0
 10
-8.544366141732283
 20
13.36908661417323
 30
0.0
  0
SPLINE
  5
176
330
1F
100
AcDbEntity
  8
Layer 1
 62
   114
370
     9
100
AcDbSpline
210
0.0
220
0.0
230
1.0
 70
    24
 71
     3
 72
     8
 73
     4
 74
     0
 42
0.0000000001
 43
0.0000000001
 40
0.0
 40
0.0
 40
0.0
 40
0.0
 40
1.0
 40
1.0
 40
1.0
 40
1.0
 10
-9.669366141732283
 20
15.74558661417323
 30
0.0
 10
-9.669366141732283
 20
15.74558661417323
 30
0.0
 10
-9.669366141732283
 20
15.86758661417323
 30
0.0
 10
-9.669366141732283
 20
15.86758661417323
 30
0.0
  0
SPLINE
  5
177
330
1F
100
AcDbEntity
  8
Layer 1
 62
   114
370
     9
100
AcDbSpline
210
0.0
220
0.0
230
1.0
 70
    24
 71
     3
 72
     8
 73
     4
 74
     0
 42
0.0000000001
 43
0.0000000001
 40
0.0
 40
0.0
 40
0.0
 40
0.0
 40
1.0
 40
1.0
 40
1.0
 40
1.0
 10
-8.794366141732283
 20
13.35958661417323
 30
0.0
 10
-8.794366141732283
 20
13.35958661417323
 30
0.0
 10
-9.669366141732283
 20
13.35958661417323
 30
0.0
 10
-9.669366141732283
 20
13.35958661417323
 30
0.0
  0
SPLINE
  5
178
330
1F
100
AcDbEntity
  8
Layer 1
 62
   114
370
     9
100
AcDbSpline
210
0.0
220
0.0
230
1.0
 70
    24
 71
     3
 72
     8
 73
     4
 74
     0
 42
0.0000000001
 43
0.0000000001
 40
0.0
 40
0.0
 40
0.0
 40
0.0
 40
1.0
 40
1.0
 40
1.0
 40
1.0
 10
-9.669366141732283
 20
15.74558661417323
 30
0.0
 10
-9.669366141732283
 20
15.74558661417323
 30
0.0
 10
-9.856866141732283
 20
15.74558661417323
 30
0.0
 10
-9.856866141732283
 20
15.74558661417323
 30
0.0
  0
SPLINE
  5
179
330
1F
100
AcDbEntity
  8
Layer 1
 62
   114
370
     9
100
AcDbSpline
210
0.0
220
0.0
230
1.0
 70
    24
 71
     3
 72
     8
 73
     4
 74
     0
 42
0.0000000001
 43
0.0000000001
 40
0.0
 40
0.0
 40
0.0
 40
0.0
 40
1.0
 40
1.0
 40
1.0
 40
1.0
 10
-9.669366141732283
 20
13.23758661417323
 30
0.0
 10
-9.669366141732283
 20
13.23758661417323
 30
0.0
 10
-9.856866141732283
 20
13.23758661417323
 30
0.0
 10
-9.856866141732283
 20
13.23758661417323
 30
0.0
  0
SPLINE
  5
17A
330
1F
100
AcDbEntity
  8
Layer 1
 62
   114
370
     9
100
AcDbSpline
210
0.0
220
0.0
230
1.0
 70
    24
 71
     3
 72
     8
 73
     4
 74
     0
 42
0.0000000001
 43
0.0000000001
 40
0.0
 40
0.0
 40
0.0
 40
0.0
 40
1.0
 40
1.0
 40
1.0
 40
1.0
 10
-8.544366141732283
 20
13.23758661417323
 30
0.0
 10
-8.544366141732283
 20
13.23758661417323
 30
0.0
 10
-8.794366141732283
 20
13.23758661417323
 30
0.0
 10
-8.794366141732283
 20
13.23758661417323
 30
0.0
  0
SPLINE
  5
17B
330
1F
100
AcDbEntity
  8
Layer 1
 62
   114
370
     9
100
AcDbSpline
210
0.0
220
0.0
230
1.0
 70
    24
 71
     3
 72
     8
 73
     4
 74
     0
 42
0.0000000001
 43
0.0000000001
 40
0.0
 40
0.0
 40
0.0
 40
0.0
 40
1.0
 40
1.0
 40
1.0
 40
1.0
 10
-9.856866141732283
 20
15.74558661417323
 30
0.0
 10
-9.856866141732283
 20
15.74558661417323
 30
0.0
 10
-9.856866141732283
 20
13.23758661417323
 30
0.0
 10
-9.856866141732283
 20
13.23758661417323
 30
0.0
  0
SPLINE
  5
17C
330
1F
100
AcDbEntity
  8
Layer 1
 62
   114
370
     9
100
AcDbSpline
210
0.0
220
0.0
230
1.0
 70
    24
 71
     3
 72
     8
 73
     4
 74
     0
 42
0.0000000001
 43
0.0000000001
 40
0.0
 40
0.0
 40
0.0
 40
0.0
 40
1.0
 40
1.0
 40
1.0
 40
1.0
 10
-10.65430708661417
 20
15.55143307086614
 30
0.0
 10
-10.65430708661417
 20
15.55143307086614
 30
0.0
 10
-11.48127165354331
 20
15.55143307086614
 30
0.0
 10
-11.48127165354331
 20
15.55143307086614
 30
0.0
  0
SPLINE
  5
17D
330
1F
100
AcDbEntity
  8
Layer 1
 62
   114
370
     9
100
AcDbSpline
210
0.0
220
0.0
230
1.0
 70
    24
 71
     3
 72
     8
 73
     4
 74
     0
 42
0.0000000001
 43
0.0000000001
 40
0.0
 40
0.0
 40
0.0
 40
0.0
 40
1.0
 40
1.0
 40
1.0
 40
1.0
 10
-11.48127165354331
 20
13.71631889763779
 30
0.0
 10
-11.48127165354331
 20
13.71631889763779
 30
0.0
 10
-11.48127165354331
 20
15.55143307086614
 30
0.0
 10
-11.48127165354331
 20
15.55143307086614
 30
0.0
  0
SPLINE
  5
17E
330
1F
100
AcDbEntity
  8
Layer 1
 62
   114
370
     9
100
AcDbSpline
210
0.0
220
0.0
230
1.0
 70
    24
 71
     3
 72
     8
 73
     4
 74
     0
 42
0.0000000001
 43
0.0000000001
 40
0.0
 40
0.0
 40
0.0
 40
0.0
 40
1.0
 40
1.0
 40
1.0
 40
1.0
 10
-11.48127165354331
 20
13.71631889763779
 30
0.0
 10
-11.48127165354331
 20
13.71631889763779
 30
0.0
 10
-10.6543031496063
 20
15.55142913385827
 30
0.0
 10
-10.6543031496063
 20
15.55142913385827
 30
0.0
  0
SPLINE
  5
17F
330
1F
100
AcDbEntity
  8
Layer 1
 62
   114
370
     9
100
AcDbSpline
210
0.0
220
0.0
230
1.0
 70
    24
 71
     3
 72
     8
 73
     4
 74
     0
 42
0.0000000001
 43
0.0000000001
 40
0.0
 40
0.0
 40
0.0
 40
0.0
 40
1.0
 40
1.0
 40
1.0
 40
1.0
 10
-11.48127165354331
 20
15.7589094488189
 30
0.0
 10
-11.48127165354331
 20
15.7589094488189
 30
0.0
 10
-11.48127165354331
 20
15.8809094488189
 30
0.0
 10
-11.48127165354331
 20
15.8809094488189
 30
0.0
  0
SPLINE
  5
180
330
1F
100
AcDbEntity
  8
Layer 1
 62
   114
370
     9
100
AcDbSpline
210
0.0
220
0.0
230
1.0
 70
    24
 71
     3
 72
     8
 73
     4
 74
     0
 42
0.0000000001
 43
0.0000000001
 40
0.0
 40
0.0
 40
0.0
 40
0.0
 40
1.0
 40
1.0
 40
1.0
 40
1.0
 10
-11.48127165354331
 20
13.2509094488189
 30
0.0
 10
-11.48127165354331
 20
13.2509094488189
 30
0.0
 10
-10.35627165354331
 20
15.7494094488189
 30
0.0
 10
-10.35627165354331
 20
15.7494094488189
 30
0.0
  0
SPLINE
  5
181
330
1F
100
AcDbEntity
  8
Layer 1
 62
   114
370
     9
100
AcDbSpline
210
0.0
220
0.0
230
1.0
 70
    24
 71
     3
 72
     8
 73
     4
 74
     0
 42
0.0000000001
 43
0.0000000001
 40
0.0
 40
0.0
 40
0.0
 40
0.0
 40
1.0
 40
1.0
 40
1.0
 40
1.0
 10
-10.60627165354331
 20
15.8809094488189
 30
0.0
 10
-10.60627165354331
 20
15.8809094488189
 30
0.0
 10
-10.60627165354331
 20
15.7589094488189
 30
0.0
 10
-10.60627165354331
 20
15.7589094488189
 30
0.0
  0
SPLINE
  5
182
330
1F
100
AcDbEntity
  8
Layer 1
 62
   114
370
     9
100
AcDbSpline
210
0.0
220
0.0
230
1.0
 70
    24
 71
     3
 72
     8
 73
     4
 74
     0
 42
0.0000000001
 43
0.0000000001
 40
0.0
 40
0.0
 40
0.0
 40
0.0
 40
1.0
 40
1.0
 40
1.0
 40
1.0
 10
-10.35627165354331
 20
15.8809094488189
 30
0.0
 10
-10.35627165354331
 20
15.8809094488189
 30
0.0
 10
-10.35627165354331
 20
15.7494094488189
 30
0.0
 10
-10.35627165354331
 20
15.7494094488189
 30
0.0
  0
SPLINE
  5
183
330
1F
100
AcDbEntity
  8
Layer 1
 62
   114
370
     9
100
AcDbSpline
210
0.0
220
0.0
230
1.0
 70
    24
 71
     3
 72
     8
 73
     4
 74
     0
 42
0.0000000001
 43
0.0000000001
 40
0.0
 40
0.0
 40
0.0
 40
0.0
 40
1.0
 40
1.0
 40
1.0
 40
1.0
 10
-11.48127165354331
 20
13.3729094488189
 30
0.0
 10
-11.48127165354331
 20
13.3729094488189
 30
0.0
 10
-11.48127165354331
 20
13.2509094488189
 30
0.0
 10
-11.48127165354331
 20
13.2509094488189
 30
0.0
  0
SPLINE
  5
184
330
1F
100
AcDbEntity
  8
Layer 1
 62
   114
370
     9
100
AcDbSpline
210
0.0
220
0.0
230
1.0
 70
    24
 71
     3
 72
     8
 73
     4
 74
     0
 42
0.0000000001
 43
0.0000000001
 40
0.0
 40
0.0
 40
0.0
 40
0.0
 40
1.0
 40
1.0
 40
1.0
 40
1.0
 10
-10.60627165354331
 20
15.7589094488189
 30
0.0
 10
-10.60627165354331
 20
15.7589094488189
 30
0.0
 10
-11.48127165354331
 20
15.7589094488189
 30
0.0
 10
-11.48127165354331
 20
15.7589094488189
 30
0.0
  0
SPLINE
  5
185
330
1F
100
AcDbEntity
  8
Layer 1
 62
   114
370
     9
100
AcDbSpline
210
0.0
220
0.0
230
1.0
 70
    24
 71
     3
 72
     8
 73
     4
 74
     0
 42
0.0000000001
 43
0.0000000001
 40
0.0
 40
0.0
 40
0.0
 40
0.0
 40
1.0
 40
1.0
 40
1.0
 40
1.0
 10
-11.48127165354331
 20
13.3729094488189
 30
0.0
 10
-11.48127165354331
 20
13.3729094488189
 30
0.0
 10
-11.66877165354331
 20
13.3729094488189
 30
0.0
 10
-11.66877165354331
 20
13.3729094488189
 30
0.0
  0
SPLINE
  5
186
330
1F
100
AcDbEntity
  8
Layer 1
 62
   114
370
     9
100
AcDbSpline
210
0.0
220
0.0
230
1.0
 70
    24
 71
     3
 72
     8
 73
     4
 74
     0
 42
0.0000000001
 43
0.0000000001
 40
0.0
 40
0.0
 40
0.0
 40
0.0
 40
1.0
 40
1.0
 40
1.0
 40
1.0
 10
-11.48127165354331
 20
15.8809094488189
 30
0.0
 10
-11.48127165354331
 20
15.8809094488189
 30
0.0
 10
-11.66877165354331
 20
15.8809094488189
 30
0.0
 10
-11.66877165354331
 20
15.8809094488189
 30
0.0
  0
SPLINE
  5
187
330
1F
100
AcDbEntity
  8
Layer 1
 62
   114
370
     9
100
AcDbSpline
210
0.0
220
0.0
230
1.0
 70
    24
 71
     3
 72
     8
 73
     4
 74
     0
 42
0.0000000001
 43
0.0000000001
 40
0.0
 40
0.0
 40
0.0
 40
0.0
 40
1.0
 40
1.0
 40
1.0
 40
1.0
 10
-10.35627165354331
 20
15.8809094488189
 30
0.0
 10
-10.35627165354331
 20
15.8809094488189
 30
0.0
 10
-10.60627165354331
 20
15.8809094488189
 30
0.0
 10
-10.60627165354331
 20
15.8809094488189
 30
0.0
  0
SPLINE
  5
188
330
1F
100
AcDbEntity
  8
Layer 1
 62
   114
370
     9
100
AcDbSpline
210
0.0
220
0.0
230
1.0
 70
    24
 71
     3
 72
     8
 73
     4
 74
     0
 42
0.0000000001
 43
0.0000000001
 40
0.0
 40
0.0
 40
0.0
 40
0.0
 40
1.0
 40
1.0
 40
1.0
 40
1.0
 10
-11.66877165354331
 20
13.3729094488189
 30
0.0
 10
-11.66877165354331
 20
13.3729094488189
 30
0.0
 10
-11.66877165354331
 20
15.8809094488189
 30
0.0
 10
-11.66877165354331
 20
15.8809094488189
 30
0.0
  0
TEXT
  5
18A
330
1F
100
AcDbEntity
  8
Layer 1
 62
   250
100
AcDbText
 10
-11.75968503937008
 20
12.64993307086614
 30
0.0
 40
0.2400009448818897
  1
       PYLON LEGS
 51
-0.0000015352345087
  7
15
100
AcDbText
  0
TEXT
  5
18B
330
1F
100
AcDbEntity
  8
Layer 1
 62
   250
100
AcDbText
 10
-11.75968503937008
 20
12.27754330708662
 30
0.0
 40
0.2400009448818897
  1
1/8” BIRCH PLYWOOD
 51
-0.0000015352345087
  7
0
100
AcDbText
  0
SPLINE
  5
18C
330
1F
100
AcDbEntity
  8
Layer 1
 62
   114
370
     9
100
AcDbSpline
210
0.0
220
0.0
230
1.0
 70
    11
 71
     3
 72
    20
 73
    16
 74
     0
 42
0.0000000001
 43
0.0000000001
 40
0.0
 40
0.0
 40
0.0
 40
0.0
 40
0.25
 40
0.25
 40
0.25
 40
0.25
 40
0.5
 40
0.5
 40
0.5
 40
0.5
 40
0.75
 40
0.75
 40
0.75
 40
0.75
 40
1.0
 40
1.0
 40
1.0
 40
1.0
 10
-5.138303149606299
 20
13.21448031496063
 30
0.0
 10
-4.929850393700788
 20
13.21448031496063
 30
0.0
 10
-4.760803149606299
 20
13.38352755905512
 30
0.0
 10
-4.760803149606299
 20
13.59198031496063
 30
0.0
 10
-4.760803149606299
 20
13.59198031496063
 30
0.0
 10
-4.760803149606299
 20
13.80043307086614
 30
0.0
 10
-4.929850393700788
 20
13.96948031496063
 30
0.0
 10
-5.138303149606299
 20
13.96948031496063
 30
0.0
 10
-5.138303149606299
 20
13.96948031496063
 30
0.0
 10
-5.346755905511811
 20
13.96948031496063
 30
0.0
 10
-5.515803149606299
 20
13.80043307086614
 30
0.0
 10
-5.515803149606299
 20
13.59198031496063
 30
0.0
 10
-5.515803149606299
 20
13.59198031496063
 30
0.0
 10
-5.515803149606299
 20
13.38352755905512
 30
0.0
 10
-5.346755905511811
 20
13.21448031496063
 30
0.0
 10
-5.138303149606299
 20
13.21448031496063
 30
0.0
  0
SPLINE
  5
18D
330
1F
100
AcDbEntity
  8
Layer 1
 62
   114
370
     9
100
AcDbSpline
210
0.0
220
0.0
230
1.0
 70
    11
 71
     3
 72
    20
 73
    16
 74
     0
 42
0.0000000001
 43
0.0000000001
 40
0.0
 40
0.0
 40
0.0
 40
0.0
 40
0.25
 40
0.25
 40
0.25
 40
0.25
 40
0.5
 40
0.5
 40
0.5
 40
0.5
 40
0.75
 40
0.75
 40
0.75
 40
0.75
 40
1.0
 40
1.0
 40
1.0
 40
1.0
 10
-5.138303149606299
 20
13.40548031496063
 30
0.0
 10
-5.035318897637795
 20
13.40548031496063
 30
0.0
 10
-4.951803149606299
 20
13.48899606299213
 30
0.0
 10
-4.951803149606299
 20
13.59198031496063
 30
0.0
 10
-4.951803149606299
 20
13.59198031496063
 30
0.0
 10
-4.951803149606299
 20
13.69496456692913
 30
0.0
 10
-5.035318897637795
 20
13.77848031496063
 30
0.0
 10
-5.138303149606299
 20
13.77848031496063
 30
0.0
 10
-5.138303149606299
 20
13.77848031496063
 30
0.0
 10
-5.241287401574803
 20
13.77848031496063
 30
0.0
 10
-5.324803149606299
 20
13.69496456692913
 30
0.0
 10
-5.324803149606299
 20
13.59198031496063
 30
0.0
 10
-5.324803149606299
 20
13.59198031496063
 30
0.0
 10
-5.324803149606299
 20
13.48899606299213
 30
0.0
 10
-5.241287401574803
 20
13.40548031496063
 30
0.0
 10
-5.138303149606299
 20
13.40548031496063
 30
0.0
  0
TEXT
  5
18F
330
1F
100
AcDbEntity
  8
Layer 1
 62
   250
100
AcDbText
 10
-6.814133858267716
 20
12.71286220472441
 30
0.0
 40
0.2400009448818897
  1
        PYLON TOP
 51
-0.0000015352345087
  7
16
100
AcDbText
  0
TEXT
  5
190
330
1F
100
AcDbEntity
  8
Layer 1
 62
   250
100
AcDbText
 10
-6.814133858267716
 20
12.34047244094488
 30
0.0
 40
0.2400009448818897
  1
1/8” BIRCH PLYWOOD
 51
-0.0000015352345087
  7
0
100
AcDbText
  0
TEXT
  5
192
330
1F
100
AcDbEntity
  8
Layer 1
 62
   250
100
AcDbText
 10
6.214909448818898
 20
-2.188751968503937
 30
0.0
 40
0.2400009448818897
  1
  MOTOR MOUNT
 51
-0.0000015352345087
  7
17
100
AcDbText
  0
TEXT
  5
194
330
1F
100
AcDbEntity
  8
Layer 1
 62
   250
100
AcDbText
 10
6.149956692913386
 20
-2.575161417322835
 30
0.0
 40
0.2400009448818897
  1
  1/16” ALUMINUM
 51
-0.0000015352345087
  7
18
100
AcDbText
  0
SPLINE
  5
195
330
1F
100
AcDbEntity
  8
Layer 1
 62
    22
100
AcDbSpline
210
0.0
220
0.0
230
1.0
 70
    11
 71
     3
 72
    20
 73
    16
 74
     0
 42
0.0000000001
 43
0.0000000001
 40
0.0
 40
0.0
 40
0.0
 40
0.0
 40
0.25
 40
0.25
 40
0.25
 40
0.25
 40
0.5
 40
0.5
 40
0.5
 40
0.5
 40
0.75
 40
0.75
 40
0.75
 40
0.75
 40
1.0
 40
1.0
 40
1.0
 40
1.0
 10
7.6841968503937
 20
-0.3067362204724409
 30
0.0
 10
7.884366141732284
 20
-0.3067362204724409
 30
0.0
 10
8.046696850393701
 20
-0.4690669291338583
 30
0.0
 10
8.046696850393701
 20
-0.6692362204724409
 30
0.0
 10
8.046696850393701
 20
-0.6692362204724409
 30
0.0
 10
8.046696850393701
 20
-0.8694055118110237
 30
0.0
 10
7.884366141732284
 20
-1.031736220472441
 30
0.0
 10
7.6841968503937
 20
-1.031736220472441
 30
0.0
 10
7.6841968503937
 20
-1.031736220472441
 30
0.0
 10
7.484027559055118
 20
-1.031736220472441
 30
0.0
 10
7.321696850393701
 20
-0.8694055118110237
 30
0.0
 10
7.321696850393701
 20
-0.6692362204724409
 30
0.0
 10
7.321696850393701
 20
-0.6692362204724409
 30
0.0
 10
7.321696850393701
 20
-0.4690669291338583
 30
0.0
 10
7.484027559055118
 20
-0.3067362204724409
 30
0.0
 10
7.6841968503937
 20
-0.3067362204724409
 30
0.0
  0
SPLINE
  5
196
330
1F
100
AcDbEntity
  8
Layer 1
 62
    22
100
AcDbSpline
210
0.0
220
0.0
230
1.0
 70
    11
 71
     3
 72
    60
 73
    56
 74
     0
 42
0.0000000001
 43
0.0000000001
 40
0.0
 40
0.0
 40
0.0
 40
0.0
 40
0.0714285714285714
 40
0.0714285714285714
 40
0.0714285714285714
 40
0.0714285714285714
 40
0.1428571428571428
 40
0.1428571428571428
 40
0.1428571428571428
 40
0.1428571428571428
 40
0.2142857142857143
 40
0.2142857142857143
 40
0.2142857142857143
 40
0.2142857142857143
 40
0.2857142857142857
 40
0.2857142857142857
 40
0.2857142857142857
 40
0.2857142857142857
 40
0.3571428571428571
 40
0.3571428571428571
 40
0.3571428571428571
 40
0.3571428571428571
 40
0.4285714285714285
 40
0.4285714285714285
 40
0.4285714285714285
 40
0.4285714285714285
 40
0.4999999999999999
 40
0.4999999999999999
 40
0.4999999999999999
 40
0.4999999999999999
 40
0.5714285714285713
 40
0.5714285714285713
 40
0.5714285714285713
 40
0.5714285714285713
 40
0.6428571428571427
 40
0.6428571428571427
 40
0.6428571428571427
 40
0.6428571428571427
 40
0.7142857142857141
 40
0.7142857142857141
 40
0.7142857142857141
 40
0.7142857142857141
 40
0.7857142857142855
 40
0.7857142857142855
 40
0.7857142857142855
 40
0.7857142857142855
 40
0.8571428571428569
 40
0.8571428571428569
 40
0.8571428571428569
 40
0.8571428571428569
 40
0.9285714285714283
 40
0.9285714285714283
 40
0.9285714285714283
 40
0.9285714285714283
 40
1.0
 40
1.0
 40
1.0
 40
1.0
 10
8.026665354330708
 20
-0.0738543307086614
 30
0.0
 10
7.997480314960629
 20
-0.057007874015748
 30
0.0
 10
7.987027559055118
 20
-0.0201653543307087
 30
0.0
 10
8.002610236220473
 20
0.0093818897637795
 30
0.0
 10
8.002610236220473
 20
0.0093818897637795
 30
0.0
 10
7.905629921259843
 20
0.0551614173228346
 30
0.0
 10
7.797255905511811
 20
0.0807637795275591
 30
0.0
 10
7.682913385826772
 20
0.0807637795275591
 30
0.0
 10
7.682913385826772
 20
0.0807637795275591
 30
0.0
 10
7.289799212598425
 20
0.0807637795275591
 30
0.0
 10
6.967216535433071
 20
-0.2218503937007874
 30
0.0
 10
6.935476377952756
 20
-0.6067874015748032
 30
0.0
 10
6.935476377952756
 20
-0.6067874015748032
 30
0.0
 10
6.968795275590551
 20
-0.6081338582677165
 30
0.0
 10
6.995413385826772
 20
-0.6355787401574803
 30
0.0
 10
6.995413385826772
 20
-0.669232283464567
 30
0.0
 10
6.995413385826772
 20
-0.669232283464567
 30
0.0
 10
6.995413385826772
 20
-0.7028897637795276
 30
0.0
 10
6.968795275590551
 20
-0.7303385826771653
 30
0.0
 10
6.935476377952756
 20
-0.7316850393700788
 30
0.0
 10
6.935476377952756
 20
-0.7316850393700788
 30
0.0
 10
6.967216535433071
 20
-1.116622047244094
 30
0.0
 10
7.289799212598425
 20
-1.419236220472441
 30
0.0
 10
7.682913385826772
 20
-1.419236220472441
 30
0.0
 10
7.682913385826772
 20
-1.419236220472441
 30
0.0
 10
7.797244094488189
 20
-1.419236220472441
 30
0.0
 10
7.905618110236221
 20
-1.393637795275591
 30
0.0
 10
8.002590551181102
 20
-1.34786220472441
 30
0.0
 10
8.002590551181102
 20
-1.34786220472441
 30
0.0
 10
7.987023622047244
 20
-1.318314960629921
 30
0.0
 10
7.997476377952756
 20
-1.28148031496063
 30
0.0
 10
8.026649606299213
 20
-1.264633858267717
 30
0.0
 10
8.026649606299213
 20
-1.264633858267717
 30
0.0
 10
8.055799212598425
 20
-1.247803149606299
 30
0.0
 10
8.092870078740157
 20
-1.257133858267717
 30
0.0
 10
8.110700787401575
 20
-1.285314960629921
 30
0.0
 10
8.110700787401575
 20
-1.285314960629921
 30
0.0
 10
8.252409448818897
 20
-1.186720472440945
 30
0.0
 10
8.358507874015748
 20
-1.040484251968504
 30
0.0
 10
8.405779527559055
 20
-0.8698228346456693
 30
0.0
 10
8.405779527559055
 20
-0.8698228346456693
 30
0.0
 10
8.423464566929134
 20
-0.8059724409448819
 30
0.0
 10
8.432913385826772
 20
-0.7387047244094488
 30
0.0
 10
8.432913385826772
 20
-0.6692362204724409
 30
0.0
 10
8.432913385826772
 20
-0.6692362204724409
 30
0.0
 10
8.432913385826772
 20
-0.6001968503937007
 30
0.0
 10
8.423578740157481
 20
-0.5333346456692913
 30
0.0
 10
8.406106299212599
 20
-0.4698385826771653
 30
0.0
 10
8.406106299212599
 20
-0.4698385826771653
 30
0.0
 10
8.359
 20
-0.2986771653543307
 30
0.0
 10
8.252740157480314
 20
-0.151996062992126
 30
0.0
 10
8.110712598425197
 20
-0.0531732283464567
 30
0.0
 10
8.110712598425197
 20
-0.0531732283464567
 30
0.0
 10
8.092889763779528
 20
-0.0813582677165354
 30
0.0
 10
8.055807086614173
 20
-0.0906811023622047
 30
0.0
 10
8.026665354330708
 20
-0.0738543307086614
 30
0.0
  0
ELLIPSE
  5
197
330
1F
100
AcDbEntity
  8
Layer 1
 62
   250
370
    18
100
AcDbEllipse
 10
7.6841968503937
 20
-0.6692362204724409
 30
0.0
 11
0.0
 21
0.005
 31
0.0
210
0.0
220
0.0
230
1.0
 40
1.0
 41
0.0
 42
6.283185307179586
  0
SPLINE
  5
198
330
1F
100
AcDbEntity
  8
Layer 1
 62
   114
370
     9
100
AcDbSpline
210
0.0
220
0.0
230
1.0
 70
    11
 71
     3
 72
    20
 73
    16
 74
     0
 42
0.0000000001
 43
0.0000000001
 40
0.0
 40
0.0
 40
0.0
 40
0.0
 40
0.25
 40
0.25
 40
0.25
 40
0.25
 40
0.5
 40
0.5
 40
0.5
 40
0.5
 40
0.75
 40
0.75
 40
0.75
 40
0.75
 40
1.0
 40
1.0
 40
1.0
 40
1.0
 10
4.542531496062992
 20
14.02784251968504
 30
0.0
 10
4.901236220472441
 20
14.23494094488189
 30
0.0
 10
5.024181102362204
 20
14.69378346456693
 30
0.0
 10
4.817086614173228
 20
15.05248818897638
 30
0.0
 10
4.817086614173228
 20
15.05248818897638
 30
0.0
 10
4.609984251968504
 20
15.41119291338583
 30
0.0
 10
4.151141732283465
 20
15.53413779527559
 30
0.0
 10
3.792437007874016
 20
15.32704330708661
 30
0.0
 10
3.792437007874016
 20
15.32704330708661
 30
0.0
 10
3.433736220472441
 20
15.11994094488189
 30
0.0
 10
3.310787401574803
 20
14.66109842519685
 30
0.0
 10
3.517885826771654
 20
14.3023937007874
 30
0.0
 10
3.517885826771654
 20
14.3023937007874
 30
0.0
 10
3.724984251968504
 20
13.94369291338583
 30
0.0
 10
4.183826771653544
 20
13.82074409448819
 30
0.0
 10
4.542531496062992
 20
14.02784251968504
 30
0.0
  0
SPLINE
  5
199
330
1F
100
AcDbEntity
  8
Layer 1
 62
   114
370
     9
100
AcDbSpline
210
0.0
220
0.0
230
1.0
 70
    11
 71
     3
 72
    20
 73
    16
 74
     0
 42
0.0000000001
 43
0.0000000001
 40
0.0
 40
0.0
 40
0.0
 40
0.0
 40
0.25
 40
0.25
 40
0.25
 40
0.25
 40
0.5
 40
0.5
 40
0.5
 40
0.5
 40
0.75
 40
0.75
 40
0.75
 40
0.75
 40
1.0
 40
1.0
 40
1.0
 40
1.0
 10
4.167484251968504
 20
13.17744094488189
 30
0.0
 10
4.995771653543307
 20
13.17744094488189
 30
0.0
 10
5.667484251968504
 20
13.84915354330709
 30
0.0
 10
5.667484251968504
 20
14.67744094488189
 30
0.0
 10
5.667484251968504
 20
14.67744094488189
 30
0.0
 10
5.667484251968504
 20
15.50572834645669
 30
0.0
 10
4.995771653543307
 20
16.17744094488189
 30
0.0
 10
4.167484251968504
 20
16.17744094488189
 30
0.0
 10
4.167484251968504
 20
16.17744094488189
 30
0.0
 10
3.339196850393701
 20
16.17744094488189
 30
0.0
 10
2.667484251968504
 20
15.50572834645669
 30
0.0
 10
2.667484251968504
 20
14.67744094488189
 30
0.0
 10
2.667484251968504
 20
14.67744094488189
 30
0.0
 10
2.667484251968504
 20
13.84915354330709
 30
0.0
 10
3.339196850393701
 20
13.17744094488189
 30
0.0
 10
4.167484251968504
 20
13.17744094488189
 30
0.0
  0
SPLINE
  5
19A
330
1F
100
AcDbEntity
  8
Layer 1
 62
   114
370
     9
100
AcDbSpline
210
0.0
220
0.0
230
1.0
 70
    11
 71
     3
 72
    20
 73
    16
 74
     0
 42
0.0000000001
 43
0.0000000001
 40
0.0
 40
0.0
 40
0.0
 40
0.0
 40
0.25
 40
0.25
 40
0.25
 40
0.25
 40
0.5
 40
0.5
 40
0.5
 40
0.5
 40
0.75
 40
0.75
 40
0.75
 40
0.75
 40
1.0
 40
1.0
 40
1.0
 40
1.0
 10
3.130185039370079
 20
15.21456299212598
 30
0.0
 10
3.166905511811024
 20
15.21456299212598
 30
0.0
 10
3.196685039370079
 20
15.24434251968504
 30
0.0
 10
3.196685039370079
 20
15.28106299212598
 30
0.0
 10
3.196685039370079
 20
15.28106299212598
 30
0.0
 10
3.196685039370079
 20
15.31778346456693
 30
0.0
 10
3.166905511811024
 20
15.34756299212598
 30
0.0
 10
3.130185039370079
 20
15.34756299212598
 30
0.0
 10
3.130185039370079
 20
15.34756299212598
 30
0.0
 10
3.093464566929134
 20
15.34756299212598
 30
0.0
 10
3.063685039370079
 20
15.31778346456693
 30
0.0
 10
3.063685039370079
 20
15.28106299212598
 30
0.0
 10
3.063685039370079
 20
15.28106299212598
 30
0.0
 10
3.063685039370079
 20
15.24434251968504
 30
0.0
 10
3.093464566929134
 20
15.21456299212598
 30
0.0
 10
3.130185039370079
 20
15.21456299212598
 30
0.0
  0
SPLINE
  5
19B
330
1F
100
AcDbEntity
  8
Layer 1
 62
   114
370
     9
100
AcDbSpline
210
0.0
220
0.0
230
1.0
 70
    11
 71
     3
 72
    20
 73
    16
 74
     0
 42
0.0000000001
 43
0.0000000001
 40
0.0
 40
0.0
 40
0.0
 40
0.0
 40
0.25
 40
0.25
 40
0.25
 40
0.25
 40
0.5
 40
0.5
 40
0.5
 40
0.5
 40
0.75
 40
0.75
 40
0.75
 40
0.75
 40
1.0
 40
1.0
 40
1.0
 40
1.0
 10
5.205657480314961
 20
15.21307086614173
 30
0.0
 10
5.242377952755906
 20
15.21307086614173
 30
0.0
 10
5.27215748031496
 20
15.24285039370079
 30
0.0
 10
5.27215748031496
 20
15.27957086614173
 30
0.0
 10
5.27215748031496
 20
15.27957086614173
 30
0.0
 10
5.27215748031496
 20
15.31629133858268
 30
0.0
 10
5.242377952755906
 20
15.34607086614173
 30
0.0
 10
5.205657480314961
 20
15.34607086614173
 30
0.0
 10
5.205657480314961
 20
15.34607086614173
 30
0.0
 10
5.168937007874016
 20
15.34607086614173
 30
0.0
 10
5.13915748031496
 20
15.31629133858268
 30
0.0
 10
5.13915748031496
 20
15.27957086614173
 30
0.0
 10
5.13915748031496
 20
15.27957086614173
 30
0.0
 10
5.13915748031496
 20
15.24285039370079
 30
0.0
 10
5.168937007874016
 20
15.21307086614173
 30
0.0
 10
5.205657480314961
 20
15.21307086614173
 30
0.0
  0
SPLINE
  5
19C
330
1F
100
AcDbEntity
  8
Layer 1
 62
   114
370
     9
100
AcDbSpline
210
0.0
220
0.0
230
1.0
 70
    11
 71
     3
 72
    20
 73
    16
 74
     0
 42
0.0000000001
 43
0.0000000001
 40
0.0
 40
0.0
 40
0.0
 40
0.0
 40
0.25
 40
0.25
 40
0.25
 40
0.25
 40
0.5
 40
0.5
 40
0.5
 40
0.5
 40
0.75
 40
0.75
 40
0.75
 40
0.75
 40
1.0
 40
1.0
 40
1.0
 40
1.0
 10
4.167484251968504
 20
13.41093700787401
 30
0.0
 10
4.204204724409449
 20
13.41093700787401
 30
0.0
 10
4.233984251968504
 20
13.44071653543307
 30
0.0
 10
4.233984251968504
 20
13.47743700787402
 30
0.0
 10
4.233984251968504
 20
13.47743700787402
 30
0.0
 10
4.233984251968504
 20
13.51415748031496
 30
0.0
 10
4.204204724409449
 20
13.54393700787402
 30
0.0
 10
4.167484251968504
 20
13.54393700787402
 30
0.0
 10
4.167484251968504
 20
13.54393700787402
 30
0.0
 10
4.130763779527559
 20
13.54393700787402
 30
0.0
 10
4.100984251968504
 20
13.51415748031496
 30
0.0
 10
4.100984251968504
 20
13.47743700787402
 30
0.0
 10
4.100984251968504
 20
13.47743700787402
 30
0.0
 10
4.100984251968504
 20
13.44071653543307
 30
0.0
 10
4.130763779527559
 20
13.41093700787401
 30
0.0
 10
4.167484251968504
 20
13.41093700787401
 30
0.0
  0
TEXT
  5
19D
330
1F
100
AcDbEntity
  8
Layer 1
 62
   250
100
AcDbText
 10
2.160354330708662
 20
12.23936220472441
 30
0.0
 40
0.2400009448818897
  1
   1/8” BIRCH PLYWOOD
 51
-0.0000015352345087
  7
0
100
AcDbText
  0
TEXT
  5
19E
330
1F
100
AcDbEntity
  8
Layer 1
 62
   250
100
AcDbText
 10
2.160354330708662
 20
11.86697244094488
 30
0.0
 40
0.2400009448818897
  1
          
 51
-0.0000015352345087
  7
0
100
AcDbText
  0
TEXT
  5
1A0
330
1F
100
AcDbEntity
  8
Layer 1
 62
   250
100
AcDbText
 10
1.968070866141732
 20
12.66620866141732
 30
0.0
 40
0.2400009448818897
  1
MOTOR MOUNT RETAINER
 51
-0.0000015352345087
  7
19
100
AcDbText
  0
ENDSEC
  0
SECTION
  2
OBJECTS
  0
DICTIONARY
  5
C
330
0
100
AcDbDictionary
281
     1
  3
ACAD_GROUP
350
D
  3
ACAD_LAYOUT
350
1A
  3
ACAD_MLEADERSTYLE
350
1A2
  3
ACAD_MLINESTYLE
350
17
  3
ACAD_PLOTSETTINGS
350
19
  3
ACAD_PLOTSTYLENAME
350
E
  3
ACAD_SCALELIST
350
3B
  3
ACAD_TABLESTYLE
350
1A1
  3
ACAD_VISUALSTYLE
350
2A
  0
DICTIONARY
  5
D
102
{ACAD_REACTORS
330
C
102
}
330
C
100
AcDbDictionary
281
     1
  0
DICTIONARY
  5
1A
102
{ACAD_REACTORS
330
C
102
}
330
C
100
AcDbDictionary
281
     1
  3
Layout1
350
1E
  3
Layout2
350
26
  3
Model
350
22
  0
DICTIONARY
  5
1A2
102
{ACAD_REACTORS
330
C
102
}
330
C
100
AcDbDictionary
281
     1
  0
DICTIONARY
  5
17
102
{ACAD_REACTORS
330
C
102
}
330
C
100
AcDbDictionary
281
     1
  3
Standard
350
18
  0
DICTIONARY
  5
19
102
{ACAD_REACTORS
330
C
102
}
330
C
100
AcDbDictionary
281
     1
  0
ACDBDICTIONARYWDFLT
  5
E
102
{ACAD_REACTORS
330
C
102
}
330
C
100
AcDbDictionary
281
     1
  3
Normal
350
F
100
AcDbDictionaryWithDefault
340
F
  0
DICTIONARY
  5
3B
102
{ACAD_REACTORS
330
C
102
}
330
C
100
AcDbDictionary
281
     1
  3
A0
350
3C
  3
A1
350
3D
  3
A2
350
3E
  3
A3
350
3F
  3
A4
350
40
  3
A5
350
41
  3
A6
350
42
  3
A7
350
43
  3
A8
350
44
  3
A9
350
45
  3
B0
350
46
  3
B1
350
47
  3
B2
350
48
  3
B3
350
49
  3
B4
350
4A
  3
B5
350
4B
  3
B6
350
4C
  3
B7
350
4D
  3
B8
350
4E
  3
B9
350
4F
  3
C0
350
50
  3
C1
350
51
  3
C2
350
52
  3
C3
350
53
  3
C4
350
54
  3
C5
350
55
  3
C6
350
56
  3
C7
350
57
  3
C8
350
58
  3
C9
350
59
  3
D0
350
5A
  3
D1
350
5B
  3
D2
350
5C
  0
DICTIONARY
  5
1A1
102
{ACAD_REACTORS
330
C
102
}
330
C
100
AcDbDictionary
281
     1
  0
DICTIONARY
  5
2A
102
{ACAD_REACTORS
330
C
102
}
330
C
100
AcDbDictionary
281
     1
  3
2dWireframe
350
2F
  3
3D Hidden
350
31
  3
3dWireframe
350
30
  3
Basic
350
32
  3
Brighten
350
36
  3
ColorChange
350
3A
  3
Conceptual
350
34
  3
Dim
350
35
  3
Facepattern
350
39
  3
Flat
350
2B
  3
FlatWithEdges
350
2C
  3
Gouraud
350
2D
  3
GouraudWithEdges
350
2E
  3
Linepattern
350
38
  3
Realistic
350
33
  3
Thicken
350
37
  0
LAYOUT
  5
1E
102
{ACAD_REACTORS
330
1A
102
}
330
1A
100
AcDbPlotSettings
  1

  2
none_device
  4

  6

 40
0.0
 41
0.0
 42
0.0
 43
0.0
 44
0.0
 45
0.0
 46
0.0
 47
0.0
 48
0.0
 49
0.0
140
0.0
141
0.0
142
1.0
143
1.0
 70
   688
 72
     0
 73
     0
 74
     5
  7

 75
    16
 76
     0
 77
     2
 78
   300
147
1.0
148
0.0
149
0.0
100
AcDbLayout
  1
Layout1
 70
     1
 71
     1
 10
0.0
 20
0.0
 11
12.0
 21
9.0
 12
0.0
 22
0.0
 32
0.0
 14
1.000000000000000E+20
 24
1.000000000000000E+20
 34
1.000000000000000E+20
 15
-1.000000000000000E+20
 25
-1.000000000000000E+20
 35
-1.000000000000000E+20
146
0.0
 13
0.0
 23
0.0
 33
0.0
 16
1.0
 26
0.0
 36
0.0
 17
0.0
 27
1.0
 37
0.0
 76
     0
330
1B
  0
LAYOUT
  5
26
102
{ACAD_REACTORS
330
1A
102
}
330
1A
100
AcDbPlotSettings
  1

  2
none_device
  4

  6

 40
0.0
 41
0.0
 42
0.0
 43
0.0
 44
0.0
 45
0.0
 46
0.0
 47
0.0
 48
0.0
 49
0.0
140
0.0
141
0.0
142
1.0
143
1.0
 70
   688
 72
     0
 73
     0
 74
     5
  7

 75
    16
 76
     0
 77
     2
 78
   300
147
1.0
148
0.0
149
0.0
100
AcDbLayout
  1
Layout2
 70
     1
 71
     2
 10
0.0
 20
0.0
 11
0.0
 21
0.0
 12
0.0
 22
0.0
 32
0.0
 14
0.0
 24
0.0
 34
0.0
 15
0.0
 25
0.0
 35
0.0
146
0.0
 13
0.0
 23
0.0
 33
0.0
 16
1.0
 26
0.0
 36
0.0
 17
0.0
 27
1.0
 37
0.0
 76
     0
330
23
  0
LAYOUT
  5
22
102
{ACAD_REACTORS
330
1A
102
}
330
1A
100
AcDbPlotSettings
  1

  2
none_device
  4

  6

 40
0.0
 41
0.0
 42
0.0
 43
0.0
 44
0.0
 45
0.0
 46
0.0
 47
0.0
 48
0.0
 49
0.0
140
0.0
141
0.0
142
1.0
143
1.0
 70
  1712
 72
     0
 73
     0
 74
     0
  7

 75
     0
 76
     0
 77
     2
 78
   300
147
1.0
148
0.0
149
0.0
100
AcDbLayout
  1
Model
 70
     1
 71
     0
 10
0.0
 20
0.0
 11
12.0
 21
9.0
 12
0.0
 22
0.0
 32
0.0
 14
-13.23538976377953
 24
-16.78714960629921
 34
0.0
 15
13.86661417322835
 25
16.22422047244094
 35
0.0
146
0.0
 13
0.0
 23
0.0
 33
0.0
 16
1.0
 26
0.0
 36
0.0
 17
0.0
 27
1.0
 37
0.0
 76
     0
330
1F
331
29
  0
MLINESTYLE
  5
18
102
{ACAD_REACTORS
330
17
102
}
330
17
100
AcDbMlineStyle
  2
Standard
 70
     0
  3

 62
   256
 51
90.0
 52
90.0
 71
     2
 49
0.5
 62
   256
  6
BYLAYER
 49
-0.5
 62
   256
  6
BYLAYER
  0
ACDBPLACEHOLDER
  5
F
102
{ACAD_REACTORS
330
E
102
}
330
E
  0
SCALE
  5
3C
102
{ACAD_REACTORS
330
3B
102
}
330
3B
100
AcDbScale
 70
     0
300
1:1
140
1.0
141
1.0
290
     1
  0
SCALE
  5
3D
102
{ACAD_REACTORS
330
3B
102
}
330
3B
100
AcDbScale
 70
     0
300
1:2
140
1.0
141
2.0
290
     0
  0
SCALE
  5
3E
102
{ACAD_REACTORS
330
3B
102
}
330
3B
100
AcDbScale
 70
     0
300
1:4
140
1.0
141
4.0
290
     0
  0
SCALE
  5
3F
102
{ACAD_REACTORS
330
3B
102
}
330
3B
100
AcDbScale
 70
     0
300
1:5
140
1.0
141
5.0
290
     0
  0
SCALE
  5
40
102
{ACAD_REACTORS
330
3B
102
}
330
3B
100
AcDbScale
 70
     0
300
1:8
140
1.0
141
8.0
290
     0
  0
SCALE
  5
41
102
{ACAD_REACTORS
330
3B
102
}
330
3B
100
AcDbScale
 70
     0
300
1:10
140
1.0
141
10.0
290
     0
  0
SCALE
  5
42
102
{ACAD_REACTORS
330
3B
102
}
330
3B
100
AcDbScale
 70
     0
300
1:16
140
1.0
141
16.0
290
     0
  0
SCALE
  5
43
102
{ACAD_REACTORS
330
3B
102
}
330
3B
100
AcDbScale
 70
     0
300
1:20
140
1.0
141
20.0
290
     0
  0
SCALE
  5
44
102
{ACAD_REACTORS
330
3B
102
}
330
3B
100
AcDbScale
 70
     0
300
1:30
140
1.0
141
30.0
290
     0
  0
SCALE
  5
45
102
{ACAD_REACTORS
330
3B
102
}
330
3B
100
AcDbScale
 70
     0
300
1:40
140
1.0
141
40.0
290
     0
  0
SCALE
  5
46
102
{ACAD_REACTORS
330
3B
102
}
330
3B
100
AcDbScale
 70
     0
300
1:50
140
1.0
141
50.0
290
     0
  0
SCALE
  5
47
102
{ACAD_REACTORS
330
3B
102
}
330
3B
100
AcDbScale
 70
     0
300
1:100
140
1.0
141
100.0
290
     0
  0
SCALE
  5
48
102
{ACAD_REACTORS
330
3B
102
}
330
3B
100
AcDbScale
 70
     0
300
2:1
140
2.0
141
1.0
290
     0
  0
SCALE
  5
49
102
{ACAD_REACTORS
330
3B
102
}
330
3B
100
AcDbScale
 70
     0
300
4:1
140
4.0
141
1.0
290
     0
  0
SCALE
  5
4A
102
{ACAD_REACTORS
330
3B
102
}
330
3B
100
AcDbScale
 70
     0
300
8:1
140
8.0
141
1.0
290
     0
  0
SCALE
  5
4B
102
{ACAD_REACTORS
330
3B
102
}
330
3B
100
AcDbScale
 70
     0
300
10:1
140
10.0
141
1.0
290
     0
  0
SCALE
  5
4C
102
{ACAD_REACTORS
330
3B
102
}
330
3B
100
AcDbScale
 70
     0
300
100:1
140
100.0
141
1.0
290
     0
  0
SCALE
  5
4D
102
{ACAD_REACTORS
330
3B
102
}
330
3B
100
AcDbScale
 70
     0
300
1/128" = 1'-0"
140
0.0078125
141
12.0
290
     0
  0
SCALE
  5
4E
102
{ACAD_REACTORS
330
3B
102
}
330
3B
100
AcDbScale
 70
     0
300
1/64" = 1'-0"
140
0.015625
141
12.0
290
     0
  0
SCALE
  5
4F
102
{ACAD_REACTORS
330
3B
102
}
330
3B
100
AcDbScale
 70
     0
300
1/32" = 1'-0"
140
0.03125
141
12.0
290
     0
  0
SCALE
  5
50
102
{ACAD_REACTORS
330
3B
102
}
330
3B
100
AcDbScale
 70
     0
300
1/16" = 1'-0"
140
0.0625
141
12.0
290
     0
  0
SCALE
  5
51
102
{ACAD_REACTORS
330
3B
102
}
330
3B
100
AcDbScale
 70
     0
300
3/32" = 1'-0"
140
0.09375
141
12.0
290
     0
  0
SCALE
  5
52
102
{ACAD_REACTORS
330
3B
102
}
330
3B
100
AcDbScale
 70
     0
300
1/8" = 1'-0"
140
0.125
141
12.0
290
     0
  0
SCALE
  5
53
102
{ACAD_REACTORS
330
3B
102
}
330
3B
100
AcDbScale
 70
     0
300
3/16" = 1'-0"
140
0.1875
141
12.0
290
     0
  0
SCALE
  5
54
102
{ACAD_REACTORS
330
3B
102
}
330
3B
100
AcDbScale
 70
     0
300
1/4" = 1'-0"
140
0.25
141
12.0
290
     0
  0
SCALE
  5
55
102
{ACAD_REACTORS
330
3B
102
}
330
3B
100
AcDbScale
 70
     0
300
3/8" = 1'-0"
140
0.375
141
12.0
290
     0
  0
SCALE
  5
56
102
{ACAD_REACTORS
330
3B
102
}
330
3B
100
AcDbScale
 70
     0
300
1/2" = 1'-0"
140
0.5
141
12.0
290
     0
  0
SCALE
  5
57
102
{ACAD_REACTORS
330
3B
102
}
330
3B
100
AcDbScale
 70
     0
300
3/4" = 1'-0"
140
0.75
141
12.0
290
     0
  0
SCALE
  5
58
102
{ACAD_REACTORS
330
3B
102
}
330
3B
100
AcDbScale
 70
     0
300
1" = 1'-0"
140
1.0
141
12.0
290
     0
  0
SCALE
  5
59
102
{ACAD_REACTORS
330
3B
102
}
330
3B
100
AcDbScale
 70
     0
300
1-1/2" = 1'-0"
140
1.5
141
12.0
290
     0
  0
SCALE
  5
5A
102
{ACAD_REACTORS
330
3B
102
}
330
3B
100
AcDbScale
 70
     0
300
3" = 1'-0"
140
3.0
141
12.0
290
     0
  0
SCALE
  5
5B
102
{ACAD_REACTORS
330
3B
102
}
330
3B
100
AcDbScale
 70
     0
300
6" = 1'-0"
140
6.0
141
12.0
290
     0
  0
SCALE
  5
5C
102
{ACAD_REACTORS
330
3B
102
}
330
3B
100
AcDbScale
 70
     0
300
1'-0" = 1'-0"
140
12.0
141
12.0
290
     0
  0
VISUALSTYLE
  5
2F
102
{ACAD_REACTORS
330
2A
102
}
330
2A
100
AcDbVisualStyle
  2
2dWireframe
 70
     4
 71
     0
 72
     2
 73
     0
 90
        0
 40
-0.6
 41
-30.0
 62
     5
 63
     7
421
 16777215
 74
     1
 91
        4
 64
     7
 65
   257
 75
     1
175
     1
 42
1.0
 92
        0
 66
   257
 43
1.0
 76
     1
 77
     6
 78
     2
 67
     7
 79
     5
170
     0
171
     0
290
     0
174
     0
 93
        1
 44
0.0
173
     0
291
     0
 45
0.0
  0
VISUALSTYLE
  5
31
102
{ACAD_REACTORS
330
2A
102
}
330
2A
100
AcDbVisualStyle
  2
3D Hidden
 70
     6
 71
     1
 72
     2
 73
     2
 90
        0
 40
-0.6
 41
-30.0
 62
     5
 63
     7
421
 16777215
 74
     2
 91
        2
 64
     7
 65
   257
 75
     2
175
     1
 42
40.0
 92
        0
 66
   257
 43
1.0
 76
     1
 77
     6
 78
     2
 67
     7
 79
     3
170
     0
171
     0
290
     0
174
     0
 93
        1
 44
0.0
173
     0
291
     0
 45
0.0
  0
VISUALSTYLE
  5
30
102
{ACAD_REACTORS
330
2A
102
}
330
2A
100
AcDbVisualStyle
  2
3dWireframe
 70
     5
 71
     0
 72
     2
 73
     0
 90
        0
 40
-0.6
 41
-30.0
 62
     5
 63
     7
421
 16777215
 74
     1
 91
        4
 64
     7
 65
   257
 75
     1
175
     1
 42
1.0
 92
        0
 66
   257
 43
1.0
 76
     1
 77
     6
 78
     2
 67
     7
 79
     5
170
     0
171
     0
290
     0
174
     0
 93
        1
 44
0.0
173
     0
291
     0
 45
0.0
  0
VISUALSTYLE
  5
32
102
{ACAD_REACTORS
330
2A
102
}
330
2A
100
AcDbVisualStyle
  2
Basic
 70
     7
 71
     1
 72
     0
 73
     1
 90
        0
 40
-0.6
 41
-30.0
 62
     5
 63
     7
421
 16777215
 74
     0
 91
        4
 64
     7
 65
   257
 75
     1
175
     1
 42
1.0
 92
        8
 66
     7
 43
1.0
 76
     1
 77
     6
 78
     2
 67
     7
 79
     5
170
     0
171
     0
290
     0
174
     0
 93
        1
 44
0.0
173
     0
291
     1
 45
0.0
  0
VISUALSTYLE
  5
36
102
{ACAD_REACTORS
330
2A
102
}
330
2A
100
AcDbVisualStyle
  2
Brighten
 70
    12
 71
     2
 72
     2
 73
     0
 90
        0
 40
-0.6
 41
-30.0
 62
     5
 63
     7
421
 16777215
 74
     1
 91
        4
 64
     7
 65
   257
 75
     1
175
     1
 42
1.0
 92
        8
 66
     7
 43
1.0
 76
     1
 77
     6
 78
     2
 67
     7
 79
     5
170
     0
171
     0
290
     0
174
     0
 93
        1
 44
50.0
173
     0
291
     1
 45
0.0
  0
VISUALSTYLE
  5
3A
102
{ACAD_REACTORS
330
2A
102
}
330
2A
100
AcDbVisualStyle
  2
ColorChange
 70
    16
 71
     2
 72
     2
 73
     3
 90
        0
 40
-0.6
 41
-30.0
 62
     5
 63
     8
421
  8421504
 74
     1
 91
        4
 64
     7
 65
   257
 75
     1
175
     1
 42
1.0
 92
        8
 66
     8
424
  8421504
 43
1.0
 76
     1
 77
     6
 78
     2
 67
     7
 79
     5
170
     0
171
     0
290
     0
174
     0
 93
        1
 44
0.0
173
     0
291
     1
 45
0.0
  0
VISUALSTYLE
  5
34
102
{ACAD_REACTORS
330
2A
102
}
330
2A
100
AcDbVisualStyle
  2
Conceptual
 70
     9
 71
     3
 72
     2
 73
     0
 90
        0
 40
-0.6
 41
-30.0
 62
     5
 63
     7
421
 16777215
 74
     2
 91
        2
 64
     7
 65
   257
 75
     1
175
     1
 42
40.0
 92
        8
 66
     7
 43
1.0
 76
     1
 77
     6
 78
     2
 67
     7
 79
     3
170
     0
171
     0
290
     0
174
     0
 93
        1
 44
0.0
173
     0
291
     0
 45
0.0
  0
VISUALSTYLE
  5
35
102
{ACAD_REACTORS
330
2A
102
}
330
2A
100
AcDbVisualStyle
  2
Dim
 70
    11
 71
     2
 72
     2
 73
     0
 90
        0
 40
-0.6
 41
-30.0
 62
     5
 63
     7
421
 16777215
 74
     1
 91
        4
 64
     7
 65
   257
 75
     1
175
     1
 42
1.0
 92
        8
 66
     7
 43
1.0
 76
     1
 77
     6
 78
     2
 67
     7
 79
     5
170
     0
171
     0
290
     0
174
     0
 93
        1
 44
-50.0
173
     0
291
     1
 45
0.0
  0
VISUALSTYLE
  5
39
102
{ACAD_REACTORS
330
2A
102
}
330
2A
100
AcDbVisualStyle
  2
Facepattern
 70
    15
 71
     2
 72
     2
 73
     0
 90
        0
 40
-0.6
 41
-30.0
 62
     5
 63
     7
421
 16777215
 74
     1
 91
        4
 64
     7
 65
   257
 75
     1
175
     1
 42
1.0
 92
        8
 66
     7
 43
1.0
 76
     1
 77
     6
 78
     2
 67
     7
 79
     5
170
     0
171
     0
290
     0
174
     0
 93
        1
 44
0.0
173
     0
291
     1
 45
0.0
  0
VISUALSTYLE
  5
2B
102
{ACAD_REACTORS
330
2A
102
}
330
2A
100
AcDbVisualStyle
  2
Flat
 70
     0
 71
     2
 72
     1
 73
     1
 90
        2
 40
-0.6
 41
30.0
 62
     5
 63
     7
421
 16777215
 74
     0
 91
        4
 64
     7
 65
   257
 75
     1
175
     1
 42
1.0
 92
        8
 66
     7
 43
1.0
 76
     1
 77
     6
 78
     2
 67
     7
 79
     5
170
     0
171
     0
290
     0
174
     0
 93
       13
 44
0.0
173
     0
291
     1
 45
0.0
  0
VISUALSTYLE
  5
2C
102
{ACAD_REACTORS
330
2A
102
}
330
2A
100
AcDbVisualStyle
  2
FlatWithEdges
 70
     1
 71
     2
 72
     1
 73
     1
 90
        2
 40
-0.6
 41
30.0
 62
     5
 63
     7
421
 16777215
 74
     1
 91
        4
 64
     7
 65
   257
 75
     1
175
     1
 42
1.0
 92
        0
 66
   257
 43
1.0
 76
     1
 77
     6
 78
     2
 67
     7
 79
     5
170
     0
171
     0
290
     0
174
     0
 93
       13
 44
0.0
173
     0
291
     1
 45
0.0
  0
VISUALSTYLE
  5
2D
102
{ACAD_REACTORS
330
2A
102
}
330
2A
100
AcDbVisualStyle
  2
Gouraud
 70
     2
 71
     2
 72
     2
 73
     1
 90
        2
 40
-0.6
 41
30.0
 62
     5
 63
     7
421
 16777215
 74
     0
 91
        4
 64
     7
 65
   257
 75
     1
175
     1
 42
1.0
 92
        0
 66
     7
 43
1.0
 76
     1
 77
     6
 78
     2
 67
     7
 79
     5
170
     0
171
     0
290
     0
174
     0
 93
       13
 44
0.0
173
     0
291
     1
 45
0.0
  0
VISUALSTYLE
  5
2E
102
{ACAD_REACTORS
330
2A
102
}
330
2A
100
AcDbVisualStyle
  2
GouraudWithEdges
 70
     3
 71
     2
 72
     2
 73
     1
 90
        2
 40
-0.6
 41
30.0
 62
     5
 63
     7
421
 16777215
 74
     1
 91
        4
 64
     7
 65
   257
 75
     1
175
     1
 42
1.0
 92
        0
 66
   257
 43
1.0
 76
     1
 77
     6
 78
     2
 67
     7
 79
     5
170
     0
171
     0
290
     0
174
     0
 93
       13
 44
0.0
173
     0
291
     1
 45
0.0
  0
VISUALSTYLE
  5
38
102
{ACAD_REACTORS
330
2A
102
}
330
2A
100
AcDbVisualStyle
  2
Linepattern
 70
    14
 71
     2
 72
     2
 73
     0
 90
        0
 40
-0.6
 41
-30.0
 62
     5
 63
     7
421
 16777215
 74
     1
 91
        4
 64
     7
 65
   257
 75
     7
175
     7
 42
1.0
 92
        8
 66
     7
 43
1.0
 76
     1
 77
     6
 78
     2
 67
     7
 79
     5
170
     0
171
     0
290
     0
174
     0
 93
        1
 44
0.0
173
     0
291
     1
 45
0.0
  0
VISUALSTYLE
  5
33
102
{ACAD_REACTORS
330
2A
102
}
330
2A
100
AcDbVisualStyle
  2
Realistic
 70
     8
 71
     2
 72
     2
 73
     0
 90
        0
 40
-0.6
 41
-30.0
 62
     5
 63
     7
421
 16777215
 74
     1
 91
        0
 64
     7
 65
   257
 75
     1
175
     1
 42
1.0
 92
        8
 66
     8
424
  7895160
 43
1.0
 76
     1
 77
     6
 78
     2
 67
     7
 79
     5
170
     0
171
     0
290
     0
174
     0
 93
       13
 44
0.0
173
     0
291
     0
 45
0.0
  0
VISUALSTYLE
  5
37
102
{ACAD_REACTORS
330
2A
102
}
330
2A
100
AcDbVisualStyle
  2
Thicken
 70
    13
 71
     2
 72
     2
 73
     0
 90
        0
 40
-0.6
 41
-30.0
 62
     5
 63
     7
421
 16777215
 74
     1
 91
        4
 64
     7
 65
   257
 75
     1
175
     1
 42
1.0
 92
       12
 66
     7
 43
1.0
 76
     1
 77
     6
 78
     2
 67
     7
 79
     5
170
     0
171
     0
290
     0
174
     0
 93
        1
 44
0.0
173
     0
291
     1
 45
0.0
  0
ENDSEC
  0
EOF
