  0
SECTION
  2
HEADER
  9
$ACADVER
  1
AC1012
  9
$DWGCODEPAGE
  3
ansi_932
  9
$INSBASE
 10
0.0
 20
0.0
 30
0.0
  9
$EXTMIN
 10
1.000000000000000E+20
 20
1.000000000000000E+20
 30
1.000000000000000E+20
  9
$EXTMAX
 10
-1.000000000000000E+20
 20
-1.000000000000000E+20
 30
-1.000000000000000E+20
  9
$LIMMIN
 10
0.0
 20
0.0
  9
$LIMMAX
 10
12.0
 20
9.0
  9
$ORTHOMODE
 70
     0
  9
$REGENMODE
 70
     1
  9
$FILLMODE
 70
     1
  9
$QTEXTMODE
 70
     0
  9
$MIRRTEXT
 70
     1
  9
$DRAGMODE
 70
     2
  9
$LTSCALE
 40
1.0
  9
$OSMODE
 70
    37
  9
$ATTMODE
 70
     1
  9
$TEXTSIZE
 40
0.2
  9
$TRACEWID
 40
0.05
  9
$TEXTSTYLE
  7
STANDARD
  9
$CLAYER
  8
0
  9
$CELTYPE
  6
BYLAYER
  9
$CECOLOR
 62
   256
  9
$CELTSCALE
 40
1.0
  9
$DELOBJ
 70
     1
  9
$DISPSILH
 70
     0
  9
$DIMSCALE
 40
1.0
  9
$DIMASZ
 40
0.18
  9
$DIMEXO
 40
0.0625
  9
$DIMDLI
 40
0.38
  9
$DIMRND
 40
0.0
  9
$DIMDLE
 40
0.0
  9
$DIMEXE
 40
0.18
  9
$DIMTP
 40
0.0
  9
$DIMTM
 40
0.0
  9
$DIMTXT
 40
0.18
  9
$DIMCEN
 40
0.09
  9
$DIMTSZ
 40
0.0
  9
$DIMTOL
 70
     0
  9
$DIMLIM
 70
     0
  9
$DIMTIH
 70
     1
  9
$DIMTOH
 70
     1
  9
$DIMSE1
 70
     0
  9
$DIMSE2
 70
     0
  9
$DIMTAD
 70
     0
  9
$DIMZIN
 70
     0
  9
$DIMBLK
  1

  9
$DIMASO
 70
     1
  9
$DIMSHO
 70
     1
  9
$DIMPOST
  1

  9
$DIMAPOST
  1

  9
$DIMALT
 70
     0
  9
$DIMALTD
 70
     2
  9
$DIMALTF
 40
25.4
  9
$DIMLFAC
 40
1.0
  9
$DIMTOFL
 70
     0
  9
$DIMTVP
 40
0.0
  9
$DIMTIX
 70
     0
  9
$DIMSOXD
 70
     0
  9
$DIMSAH
 70
     0
  9
$DIMBLK1
  1

  9
$DIMBLK2
  1

  9
$DIMSTYLE
  2
STANDARD
  9
$DIMCLRD
 70
     0
  9
$DIMCLRE
 70
     0
  9
$DIMCLRT
 70
     0
  9
$DIMTFAC
 40
1.0
  9
$DIMGAP
 40
0.09
  9
$DIMJUST
 70
     0
  9
$DIMSD1
 70
     0
  9
$DIMSD2
 70
     0
  9
$DIMTOLJ
 70
     1
  9
$DIMTZIN
 70
     0
  9
$DIMALTZ
 70
     0
  9
$DIMALTTZ
 70
     0
  9
$DIMFIT
 70
     3
  9
$DIMUPT
 70
     0
  9
$DIMUNIT
 70
     2
  9
$DIMDEC
 70
     4
  9
$DIMTDEC
 70
     4
  9
$DIMALTU
 70
     2
  9
$DIMALTTD
 70
     2
  9
$DIMTXSTY
  7
STANDARD
  9
$DIMAUNIT
 70
     0
  9
$LUNITS
 70
     2
  9
$LUPREC
 70
     4
  9
$SKETCHINC
 40
0.1
  9
$FILLETRAD
 40
0.5
  9
$AUNITS
 70
     0
  9
$AUPREC
 70
     0
  9
$MENU
  1
.
  9
$ELEVATION
 40
0.0
  9
$PELEVATION
 40
0.0
  9
$THICKNESS
 40
0.0
  9
$LIMCHECK
 70
     0
  9
$CHAMFERA
 40
0.5
  9
$CHAMFERB
 40
0.5
  9
$CHAMFERC
 40
1.0
  9
$CHAMFERD
 40
0.0
  9
$SKPOLY
 70
     0
  9
$TDCREATE
 40
2458431.584884259
  9
$TDUPDATE
 40
2458431.584884271
  9
$TDINDWG
 40
0.0000000116
  9
$TDUSRTIMER
 40
0.0000000116
  9
$USRTIMER
 70
     1
  9
$ANGBASE
 50
0.0
  9
$ANGDIR
 70
     0
  9
$PDMODE
 70
     0
  9
$PDSIZE
 40
0.0
  9
$PLINEWID
 40
0.0
  9
$COORDS
 70
     1
  9
$SPLFRAME
 70
     0
  9
$SPLINETYPE
 70
     6
  9
$SPLINESEGS
 70
     8
  9
$ATTDIA
 70
     0
  9
$ATTREQ
 70
     1
  9
$HANDLING
 70
     1
  9
$HANDSEED
  5
73
  9
$SURFTAB1
 70
     6
  9
$SURFTAB2
 70
     6
  9
$SURFTYPE
 70
     6
  9
$SURFU
 70
     6
  9
$SURFV
 70
     6
  9
$UCSNAME
  2

  9
$UCSORG
 10
0.0
 20
0.0
 30
0.0
  9
$UCSXDIR
 10
1.0
 20
0.0
 30
0.0
  9
$UCSYDIR
 10
0.0
 20
1.0
 30
0.0
  9
$PUCSNAME
  2

  9
$PUCSORG
 10
0.0
 20
0.0
 30
0.0
  9
$PUCSXDIR
 10
1.0
 20
0.0
 30
0.0
  9
$PUCSYDIR
 10
0.0
 20
1.0
 30
0.0
  9
$USERI1
 70
     0
  9
$USERI2
 70
     0
  9
$USERI3
 70
     0
  9
$USERI4
 70
     0
  9
$USERI5
 70
     0
  9
$USERR1
 40
0.0
  9
$USERR2
 40
0.0
  9
$USERR3
 40
0.0
  9
$USERR4
 40
0.0
  9
$USERR5
 40
0.0
  9
$WORLDVIEW
 70
     1
  9
$SHADEDGE
 70
     3
  9
$SHADEDIF
 70
    70
  9
$TILEMODE
 70
     1
  9
$MAXACTVP
 70
    64
  9
$PINSBASE
 10
0.0
 20
0.0
 30
0.0
  9
$PLIMCHECK
 70
     0
  9
$PEXTMIN
 10
1.000000000000000E+20
 20
1.000000000000000E+20
 30
1.000000000000000E+20
  9
$PEXTMAX
 10
-1.000000000000000E+20
 20
-1.000000000000000E+20
 30
-1.000000000000000E+20
  9
$PLIMMIN
 10
0.0
 20
0.0
  9
$PLIMMAX
 10
12.0
 20
9.0
  9
$UNITMODE
 70
     0
  9
$VISRETAIN
 70
     1
  9
$PLINEGEN
 70
     0
  9
$PSLTSCALE
 70
     1
  9
$TREEDEPTH
 70
  3020
  9
$PICKSTYLE
 70
     1
  9
$CMLSTYLE
  2
STANDARD
  9
$CMLJUST
 70
     0
  9
$CMLSCALE
 40
1.0
  9
$SAVEIMAGES
 70
     1
  0
ENDSEC
  0
SECTION
  2
CLASSES
  0
CLASS
  1
ACDBDICTIONARYWDFLT
  2
AcDbDictionaryWithDefault
  3
ObjectDBX Classes
 90
    32768
280
     0
281
     0
  0
CLASS
  1
VISUALSTYLE
  2
AcDbVisualStyle
  3
ObjectDBX Classes
 90
     4095
280
     0
281
     0
  0
CLASS
  1
XRECORD
  2
AcDbXrecord
  3
AutoCAD 2000
 90
    32768
280
     0
281
     0
  0
CLASS
  1
LWPOLYLINE
  2
AcDbPolyline
  3
AutoCAD 2000
 90
    32768
280
     0
281
     1
  0
CLASS
  1
HATCH
  2
AcDbHatch
  3
AutoCAD 2000
 90
    32768
280
     0
281
     1
  0
CLASS
  1
ACDBPLACEHOLDER
  2
AcDbPlaceHolder
  3
ObjectDBX Classes
 90
        0
280
     0
281
     0
  0
CLASS
  1
LAYOUT
  2
AcDbLayout
  3
ObjectDBX Classes
 90
        0
280
     0
281
     0
  0
ENDSEC
  0
SECTION
  2
TABLES
  0
TABLE
  2
VPORT
  5
8
330
0
100
AcDbSymbolTable
 70
     1
  0
VPORT
  5
29
330
8
100
AcDbSymbolTableRecord
100
AcDbViewportTableRecord
  2
*ACTIVE
 70
     0
 10
0.0
 20
0.0
 11
1.0
 21
1.0
 12
0.0
 22
0.0
 13
0.0
 23
0.0
 14
0.5
 24
0.5
 15
0.5
 25
0.5
 16
0.0
 26
0.0
 36
1.0
 17
321.9097221417447
 27
-101.5803629303341
 37
0.0
 40
203.1607258606681
 41
3.169015278696308
 42
50.0
 43
0.0
 44
0.0
 50
0.0
 51
0.0
 71
     0
 72
   100
 73
     1
 74
     3
 75
     0
 76
     0
 77
     0
 78
     0
  0
ENDTAB
  0
TABLE
  2
LTYPE
  5
5
330
0
100
AcDbSymbolTable
 70
     1
  0
LTYPE
  5
14
330
5
100
AcDbSymbolTableRecord
100
AcDbLinetypeTableRecord
  2
BYBLOCK
 70
     0
  3

 72
    65
 73
     0
 40
0.0
  0
LTYPE
  5
15
330
5
100
AcDbSymbolTableRecord
100
AcDbLinetypeTableRecord
  2
BYLAYER
 70
     0
  3

 72
    65
 73
     0
 40
0.0
  0
LTYPE
  5
16
330
5
100
AcDbSymbolTableRecord
100
AcDbLinetypeTableRecord
  2
CONTINUOUS
 70
     0
  3
Solid line
 72
    65
 73
     0
 40
0.0
  0
ENDTAB
  0
TABLE
  2
LAYER
  5
2
330
0
100
AcDbSymbolTable
 70
     2
  0
LAYER
  5
10
330
2
100
AcDbSymbolTableRecord
100
AcDbLayerTableRecord
  2
0
 70
     0
 62
     7
  6
CONTINUOUS
  0
LAYER
  5
3B
330
2
100
AcDbSymbolTableRecord
100
AcDbLayerTableRecord
  2
CAPA_1
 70
     0
 62
     7
  6
CONTINUOUS
  0
ENDTAB
  0
TABLE
  2
STYLE
  5
3
330
0
100
AcDbSymbolTable
 70
     1
  0
STYLE
  5
11
330
3
100
AcDbSymbolTableRecord
100
AcDbTextStyleTableRecord
  2
STANDARD
 70
     0
 40
0.0
 41
1.0
 50
0.0
 71
     0
 42
0.2
  3
txt
  4

  0
ENDTAB
  0
TABLE
  2
VIEW
  5
6
330
0
100
AcDbSymbolTable
 70
     0
  0
ENDTAB
  0
TABLE
  2
UCS
  5
7
330
0
100
AcDbSymbolTable
 70
     0
  0
ENDTAB
  0
TABLE
  2
APPID
  5
9
330
0
100
AcDbSymbolTable
 70
     1
  0
APPID
  5
12
330
9
100
AcDbSymbolTableRecord
100
AcDbRegAppTableRecord
  2
ACAD
 70
     0
  0
ENDTAB
  0
TABLE
  2
DIMSTYLE
  5
A
330
0
100
AcDbSymbolTable
 70
     1
  0
DIMSTYLE
105
27
330
A
100
AcDbSymbolTableRecord
100
AcDbDimStyleTableRecord
  2
STANDARD
 70
     0
  3

  4

  5

  6

  7

 40
1.0
 41
0.18
 42
0.0625
 43
0.38
 44
0.18
 45
0.0
 46
0.0
 47
0.0
 48
0.0
140
0.18
141
0.09
142
0.0
143
25.4
144
1.0
145
0.0
146
1.0
147
0.09
 71
     0
 72
     0
 73
     1
 74
     1
 75
     0
 76
     0
 77
     0
 78
     0
170
     0
171
     2
172
     0
173
     0
174
     0
175
     0
176
     0
177
     0
178
     0
270
     2
271
     4
272
     4
273
     2
274
     2
340
11
275
     0
280
     0
281
     0
282
     0
283
     1
284
     0
285
     0
286
     0
287
     3
288
     0
  0
ENDTAB
  0
TABLE
  2
BLOCK_RECORD
  5
1
330
0
100
AcDbSymbolTable
 70
     3
  0
BLOCK_RECORD
  5
1F
330
1
100
AcDbSymbolTableRecord
100
AcDbBlockTableRecord
  2
*MODEL_SPACE
  0
BLOCK_RECORD
  5
1B
330
1
100
AcDbSymbolTableRecord
100
AcDbBlockTableRecord
  2
*PAPER_SPACE
  0
BLOCK_RECORD
  5
4E
330
1
100
AcDbSymbolTableRecord
100
AcDbBlockTableRecord
  2
BLOCK_2
  0
BLOCK_RECORD
  5
60
330
1
100
AcDbSymbolTableRecord
100
AcDbBlockTableRecord
  2
BLOCK_3
  0
ENDTAB
  0
ENDSEC
  0
SECTION
  2
BLOCKS
  0
BLOCK
  5
20
330
1F
100
AcDbEntity
  8
0
100
AcDbBlockBegin
  2
*MODEL_SPACE
 70
     0
 71
     0
 10
0.0
 20
0.0
 30
0.0
  3
*MODEL_SPACE
  1

  0
ENDBLK
  5
21
330
1F
100
AcDbEntity
  8
0
100
AcDbBlockEnd
  0
BLOCK
  5
1C
330
1B
100
AcDbEntity
 67
     1
  8
0
100
AcDbBlockBegin
  2
*PAPER_SPACE
 70
     0
 71
     0
 10
0.0
 20
0.0
 30
0.0
  3
*PAPER_SPACE
  1

  0
ENDBLK
  5
1D
330
1B
100
AcDbEntity
 67
     1
  8
0
100
AcDbBlockEnd
  0
BLOCK
  5
50
330
4E
100
AcDbEntity
  8
0
100
AcDbBlockBegin
  2
BLOCK_2
 70
     0
 71
     0
 10
0.0
 20
0.0
 30
0.0
  3
BLOCK_2
  1

  0
SPLINE
  5
52
330
4E
100
AcDbEntity
  8
CAPA_1
 62
   250
100
AcDbSpline
210
0.0
220
0.0
230
1.0
 70
    11
 71
     3
 72
    17
 73
    13
 74
     0
 42
0.0000000001
 43
0.0000000001
 40
0.0
 40
0.0
 40
0.0
 40
0.0
 40
1.0
 40
1.0
 40
1.0
 40
2.0
 40
2.0
 40
2.0
 40
3.0
 40
3.0
 40
3.0
 40
4.0
 40
4.0
 40
4.0
 40
4.0
 10
574.1296412410161
 20
-151.5485446127205
 30
0.0
 10
576.3386364661583
 20
-151.5485446127205
 30
0.0
 10
578.1297416089398
 20
-153.3393052459533
 30
0.0
 10
578.1297416089398
 20
-155.5486449806441
 30
0.0
 10
578.1297416089398
 20
-157.7579847153348
 30
0.0
 10
576.3386364661583
 20
-159.5487453485676
 30
0.0
 10
574.1296412410161
 20
-159.5487453485676
 30
0.0
 10
571.9206460158739
 20
-159.5487453485676
 30
0.0
 10
570.1298853826411
 20
-157.7579847153348
 30
0.0
 10
570.1298853826411
 20
-155.5486449806441
 30
0.0
 10
570.1298853826411
 20
-153.3393052459533
 30
0.0
 10
571.9206460158739
 20
-151.5485446127205
 30
0.0
 10
574.1296412410161
 20
-151.5485446127205
 30
0.0
  0
SPLINE
  5
53
330
4E
100
AcDbEntity
  8
CAPA_1
 62
   250
100
AcDbSpline
210
0.0
220
0.0
230
1.0
 70
    11
 71
     3
 72
    17
 73
    13
 74
     0
 42
0.0000000001
 43
0.0000000001
 40
0.0
 40
0.0
 40
0.0
 40
0.0
 40
1.0
 40
1.0
 40
1.0
 40
2.0
 40
2.0
 40
2.0
 40
3.0
 40
3.0
 40
3.0
 40
4.0
 40
4.0
 40
4.0
 40
4.0
 10
574.1296412410161
 20
-48.28852537855286
 30
0.0
 10
576.3386364661583
 20
-48.28852537855286
 30
0.0
 10
578.1297416089398
 20
-46.49776474532
 30
0.0
 10
578.1297416089398
 20
-44.28859726540354
 30
0.0
 10
578.1297416089398
 20
-42.07942978548708
 30
0.0
 10
576.3386364661583
 20
-40.28866915225422
 30
0.0
 10
574.1296412410161
 20
-40.28866915225422
 30
0.0
 10
571.9206460158739
 20
-40.28866915225422
 30
0.0
 10
570.1298853826411
 20
-42.07942978548708
 30
0.0
 10
570.1298853826411
 20
-44.28859726540354
 30
0.0
 10
570.1298853826411
 20
-46.49776474532
 30
0.0
 10
571.9206460158739
 20
-48.28852537855286
 30
0.0
 10
574.1296412410161
 20
-48.28852537855286
 30
0.0
  0
ENDBLK
  5
51
330
4E
100
AcDbEntity
  8
0
100
AcDbBlockEnd
  0
BLOCK
  5
62
330
60
100
AcDbEntity
  8
0
100
AcDbBlockBegin
  2
BLOCK_3
 70
     0
 71
     0
 10
0.0
 20
0.0
 30
0.0
  3
BLOCK_3
  1

  0
SPLINE
  5
64
330
60
100
AcDbEntity
  8
CAPA_1
 62
   250
100
AcDbSpline
210
0.0
220
0.0
230
1.0
 70
    11
 71
     3
 72
    17
 73
    13
 74
     0
 42
0.0000000001
 43
0.0000000001
 40
0.0
 40
0.0
 40
0.0
 40
0.0
 40
1.0
 40
1.0
 40
1.0
 40
2.0
 40
2.0
 40
2.0
 40
3.0
 40
3.0
 40
3.0
 40
4.0
 40
4.0
 40
4.0
 40
4.0
 10
502.8685301477203
 20
-151.5485446127205
 30
0.0
 10
505.0775253728625
 20
-151.5485446127205
 30
0.0
 10
506.8686305156439
 20
-153.3393052459533
 30
0.0
 10
506.8686305156439
 20
-155.5486449806441
 30
0.0
 10
506.8686305156439
 20
-157.7579847153348
 30
0.0
 10
505.0775253728625
 20
-159.5487453485676
 30
0.0
 10
502.8685301477203
 20
-159.5487453485676
 30
0.0
 10
500.6595349225781
 20
-159.5487453485676
 30
0.0
 10
498.8687742893453
 20
-157.7579847153348
 30
0.0
 10
498.8687742893453
 20
-155.5486449806441
 30
0.0
 10
498.8687742893453
 20
-153.3393052459533
 30
0.0
 10
500.6595349225781
 20
-151.5485446127205
 30
0.0
 10
502.8685301477203
 20
-151.5485446127205
 30
0.0
  0
SPLINE
  5
65
330
60
100
AcDbEntity
  8
CAPA_1
 62
   250
100
AcDbSpline
210
0.0
220
0.0
230
1.0
 70
    11
 71
     3
 72
    17
 73
    13
 74
     0
 42
0.0000000001
 43
0.0000000001
 40
0.0
 40
0.0
 40
0.0
 40
0.0
 40
1.0
 40
1.0
 40
1.0
 40
2.0
 40
2.0
 40
2.0
 40
3.0
 40
3.0
 40
3.0
 40
4.0
 40
4.0
 40
4.0
 40
4.0
 10
502.8685301477203
 20
-48.28852537855286
 30
0.0
 10
505.0775253728625
 20
-48.28852537855286
 30
0.0
 10
506.8686305156439
 20
-46.49776474532
 30
0.0
 10
506.8686305156439
 20
-44.28859726540354
 30
0.0
 10
506.8686305156439
 20
-42.07942978548708
 30
0.0
 10
505.0775253728625
 20
-40.28866915225422
 30
0.0
 10
502.8685301477203
 20
-40.28866915225422
 30
0.0
 10
500.6595349225781
 20
-40.28866915225422
 30
0.0
 10
498.8687742893453
 20
-42.07942978548708
 30
0.0
 10
498.8687742893453
 20
-44.28859726540354
 30
0.0
 10
498.8687742893453
 20
-46.49776474532
 30
0.0
 10
500.6595349225781
 20
-48.28852537855286
 30
0.0
 10
502.8685301477203
 20
-48.28852537855286
 30
0.0
  0
ENDBLK
  5
63
330
60
100
AcDbEntity
  8
0
100
AcDbBlockEnd
  0
ENDSEC
  0
SECTION
  2
ENTITIES
  0
POLYLINE
  5
3C
330
1F
100
AcDbEntity
  8
CAPA_1
 62
   250
100
AcDb2dPolyline
 66
     1
 10
0.0
 20
0.0
 30
0.0
  0
VERTEX
  5
3D
330
3C
100
AcDbEntity
  8
CAPA_1
 62
   250
100
AcDbVertex
100
AcDb2dVertex
 10
324.8149711644559
 20
-174.6720255097174
 30
0.0
  0
VERTEX
  5
3E
330
3C
100
AcDbEntity
  8
CAPA_1
 62
   250
100
AcDbVertex
100
AcDb2dVertex
 10
24.84086099639395
 20
-174.6720255097174
 30
0.0
  0
VERTEX
  5
3F
330
3C
100
AcDbEntity
  8
CAPA_1
 62
   250
100
AcDbVertex
100
AcDb2dVertex
 10
24.84086099639395
 20
-24.81209444909211
 30
0.0
  0
VERTEX
  5
40
330
3C
100
AcDbEntity
  8
CAPA_1
 62
   250
100
AcDbVertex
100
AcDb2dVertex
 10
324.8149711644559
 20
-24.81209444909211
 30
0.0
  0
VERTEX
  5
41
330
3C
100
AcDbEntity
  8
CAPA_1
 62
   250
100
AcDbVertex
100
AcDb2dVertex
 10
324.8149711644559
 20
-174.6720255097174
 30
0.0
  0
SEQEND
  5
42
330
3C
100
AcDbEntity
  8
CAPA_1
  0
SPLINE
  5
43
330
1F
100
AcDbEntity
  8
CAPA_1
 62
   250
100
AcDbSpline
210
0.0
220
0.0
230
1.0
 70
    11
 71
     3
 72
    17
 73
    13
 74
     0
 42
0.0000000001
 43
0.0000000001
 40
0.0
 40
0.0
 40
0.0
 40
0.0
 40
1.0
 40
1.0
 40
1.0
 40
2.0
 40
2.0
 40
2.0
 40
3.0
 40
3.0
 40
3.0
 40
4.0
 40
4.0
 40
4.0
 40
4.0
 10
52.39094508238837
 20
-29.57459444790149
 30
0.0
 10
52.39094508238837
 20
-31.22410616623911
 30
0.0
 10
51.4282131490353
 20
-32.56131997883883
 30
0.0
 10
50.24086099004395
 20
-32.56131997883883
 30
0.0
 10
49.05350883105259
 20
-32.56131997883883
 30
0.0
 10
48.09077689769952
 20
-31.22410616623911
 30
0.0
 10
48.09077689769952
 20
-29.57459444790149
 30
0.0
 10
48.09077689769952
 20
-27.92508272956387
 30
0.0
 10
49.05350883105259
 20
-26.58786891696414
 30
0.0
 10
50.24086099004395
 20
-26.58786891696414
 30
0.0
 10
51.4282131490353
 20
-26.58786891696414
 30
0.0
 10
52.39094508238837
 20
-27.92508272956387
 30
0.0
 10
52.39094508238837
 20
-29.57459444790149
 30
0.0
  0
SPLINE
  5
44
330
1F
100
AcDbEntity
  8
CAPA_1
 62
   250
100
AcDbSpline
210
0.0
220
0.0
230
1.0
 70
    11
 71
     3
 72
    17
 73
    13
 74
     0
 42
0.0000000001
 43
0.0000000001
 40
0.0
 40
0.0
 40
0.0
 40
0.0
 40
1.0
 40
1.0
 40
1.0
 40
2.0
 40
2.0
 40
2.0
 40
3.0
 40
3.0
 40
3.0
 40
4.0
 40
4.0
 40
4.0
 40
4.0
 10
300.0409450204758
 20
-29.57459444790149
 30
0.0
 10
300.0409450204758
 20
-31.22410616623911
 30
0.0
 10
299.0782130871228
 20
-32.56131997883883
 30
0.0
 10
297.8908609281314
 20
-32.56131997883883
 30
0.0
 10
296.7035087691401
 20
-32.56131997883883
 30
0.0
 10
295.740776835787
 20
-31.22410616623911
 30
0.0
 10
295.740776835787
 20
-29.57459444790149
 30
0.0
 10
295.740776835787
 20
-27.92508272956387
 30
0.0
 10
296.7035087691401
 20
-26.58786891696414
 30
0.0
 10
297.8908609281314
 20
-26.58786891696414
 30
0.0
 10
299.0782130871228
 20
-26.58786891696414
 30
0.0
 10
300.0409450204758
 20
-27.92508272956387
 30
0.0
 10
300.0409450204758
 20
-29.57459444790149
 30
0.0
  0
SPLINE
  5
45
330
1F
100
AcDbEntity
  8
CAPA_1
 62
   250
100
AcDbSpline
210
0.0
220
0.0
230
1.0
 70
    11
 71
     3
 72
    17
 73
    13
 74
     0
 42
0.0000000001
 43
0.0000000001
 40
0.0
 40
0.0
 40
0.0
 40
0.0
 40
1.0
 40
1.0
 40
1.0
 40
2.0
 40
2.0
 40
2.0
 40
3.0
 40
3.0
 40
3.0
 40
4.0
 40
4.0
 40
4.0
 40
4.0
 10
300.0409450204758
 20
-169.909525510908
 30
0.0
 10
300.0409450204758
 20
-168.2600137925704
 30
0.0
 10
299.0782130871228
 20
-166.9226277251964
 30
0.0
 10
297.8908609281314
 20
-166.9226277251964
 30
0.0
 10
296.7035087691401
 20
-166.9226277251964
 30
0.0
 10
295.740776835787
 20
-168.2600137925704
 30
0.0
 10
295.740776835787
 20
-169.909525510908
 30
0.0
 10
295.740776835787
 20
-171.5590372292456
 30
0.0
 10
296.7035087691401
 20
-172.8964232966196
 30
0.0
 10
297.8908609281314
 20
-172.8964232966196
 30
0.0
 10
299.0782130871228
 20
-172.8964232966196
 30
0.0
 10
300.0409450204758
 20
-171.5590372292456
 30
0.0
 10
300.0409450204758
 20
-169.909525510908
 30
0.0
  0
SPLINE
  5
46
330
1F
100
AcDbEntity
  8
CAPA_1
 62
   250
100
AcDbSpline
210
0.0
220
0.0
230
1.0
 70
    11
 71
     3
 72
    17
 73
    13
 74
     0
 42
0.0000000001
 43
0.0000000001
 40
0.0
 40
0.0
 40
0.0
 40
0.0
 40
1.0
 40
1.0
 40
1.0
 40
2.0
 40
2.0
 40
2.0
 40
3.0
 40
3.0
 40
3.0
 40
4.0
 40
4.0
 40
4.0
 40
4.0
 10
52.39094508238837
 20
-169.909525510908
 30
0.0
 10
52.39094508238837
 20
-168.2600137925704
 30
0.0
 10
51.4282131490353
 20
-166.9226277251964
 30
0.0
 10
50.24086099004395
 20
-166.9226277251964
 30
0.0
 10
49.05350883105259
 20
-166.9226277251964
 30
0.0
 10
48.09077689769952
 20
-168.2600137925704
 30
0.0
 10
48.09077689769952
 20
-169.909525510908
 30
0.0
 10
48.09077689769952
 20
-171.5590372292456
 30
0.0
 10
49.05350883105259
 20
-172.8964232966196
 30
0.0
 10
50.24086099004395
 20
-172.8964232966196
 30
0.0
 10
51.4282131490353
 20
-172.8964232966196
 30
0.0
 10
52.39094508238837
 20
-171.5590372292456
 30
0.0
 10
52.39094508238837
 20
-169.909525510908
 30
0.0
  0
POLYLINE
  5
47
330
1F
100
AcDbEntity
  8
CAPA_1
 62
   250
100
AcDb2dPolyline
 66
     1
 10
0.0
 20
0.0
 30
0.0
  0
VERTEX
  5
48
330
47
100
AcDbEntity
  8
CAPA_1
 62
   250
100
AcDbVertex
100
AcDb2dVertex
 10
480.7437824318973
 20
-24.81209444909211
 30
0.0
  0
VERTEX
  5
49
330
47
100
AcDbEntity
  8
CAPA_1
 62
   250
100
AcDbVertex
100
AcDb2dVertex
 10
480.7437824318973
 20
-174.6720255097174
 30
0.0
  0
VERTEX
  5
4A
330
47
100
AcDbEntity
  8
CAPA_1
 62
   250
100
AcDbVertex
100
AcDb2dVertex
 10
327.0739202741343
 20
-174.6720255097174
 30
0.0
  0
VERTEX
  5
4B
330
47
100
AcDbEntity
  8
CAPA_1
 62
   250
100
AcDbVertex
100
AcDb2dVertex
 10
327.0739202741343
 20
-24.81209444909211
 30
0.0
  0
VERTEX
  5
4C
330
47
100
AcDbEntity
  8
CAPA_1
 62
   250
100
AcDbVertex
100
AcDb2dVertex
 10
480.7437824318973
 20
-24.81209444909211
 30
0.0
  0
SEQEND
  5
4D
330
47
100
AcDbEntity
  8
CAPA_1
  0
INSERT
  5
4F
330
1F
100
AcDbEntity
  8
CAPA_1
100
AcDbBlockReference
  2
BLOCK_2
 10
0.0
 20
0.0
 30
0.0
  0
POLYLINE
  5
54
330
1F
100
AcDbEntity
  8
CAPA_1
 62
   250
100
AcDb2dPolyline
 66
     1
 10
0.0
 20
0.0
 30
0.0
  0
VERTEX
  5
55
330
54
100
AcDbEntity
  8
CAPA_1
 62
   250
100
AcDbVertex
100
AcDb2dVertex
 10
554.3441133596777
 20
-174.7988050235746
 30
0.0
  0
VERTEX
  5
56
330
54
100
AcDbEntity
  8
CAPA_1
 62
   250
100
AcDbVertex
100
AcDb2dVertex
 10
554.3441133596777
 20
-24.68514268046066
 30
0.0
  0
VERTEX
  5
57
330
54
100
AcDbEntity
  8
CAPA_1
 62
   250
100
AcDbVertex
100
AcDb2dVertex
 10
623.7879365845043
 20
-24.68514268046066
 30
0.0
  0
VERTEX
  5
58
330
54
100
AcDbEntity
  8
CAPA_1
 62
   250
100
AcDbVertex
100
AcDb2dVertex
 10
623.7879365845043
 20
-174.7988050235746
 30
0.0
  0
VERTEX
  5
59
330
54
100
AcDbEntity
  8
CAPA_1
 62
   250
100
AcDbVertex
100
AcDb2dVertex
 10
554.3441133596777
 20
-174.7988050235746
 30
0.0
  0
SEQEND
  5
5A
330
54
100
AcDbEntity
  8
CAPA_1
  0
SPLINE
  5
5B
330
1F
100
AcDbEntity
  8
CAPA_1
 62
   250
100
AcDbSpline
210
0.0
220
0.0
230
1.0
 70
    11
 71
     3
 72
    17
 73
    13
 74
     0
 42
0.0000000001
 43
0.0000000001
 40
0.0
 40
0.0
 40
0.0
 40
0.0
 40
1.0
 40
1.0
 40
1.0
 40
2.0
 40
2.0
 40
2.0
 40
3.0
 40
3.0
 40
3.0
 40
4.0
 40
4.0
 40
4.0
 40
4.0
 10
585.9890379394402
 20
-119.2996947943938
 30
0.0
 10
574.5850828641661
 20
-119.2996947943938
 30
0.0
 10
565.3405136390468
 20
-110.5436401090828
 30
0.0
 10
565.3405136390468
 20
-99.74205997940476
 30
0.0
 10
565.3405136390468
 20
-88.94065210450094
 30
0.0
 10
574.5850828641661
 20
-80.18425290964143
 30
0.0
 10
585.9890379394402
 20
-80.18425290964143
 30
0.0
 10
597.3926485051657
 20
-80.18425290964143
 30
0.0
 10
606.6372177302851
 20
-88.94065210450094
 30
0.0
 10
606.6372177302851
 20
-99.74205997940476
 30
0.0
 10
606.6372177302851
 20
-110.5436401090828
 30
0.0
 10
597.3926485051657
 20
-119.2996947943938
 30
0.0
 10
585.9890379394402
 20
-119.2996947943938
 30
0.0
  0
SPLINE
  5
5C
330
1F
100
AcDbEntity
  8
CAPA_1
 62
   250
100
AcDbSpline
210
0.0
220
0.0
230
1.0
 70
    11
 71
     3
 72
    17
 73
    13
 74
     0
 42
0.0000000001
 43
0.0000000001
 40
0.0
 40
0.0
 40
0.0
 40
0.0
 40
1.0
 40
1.0
 40
1.0
 40
2.0
 40
2.0
 40
2.0
 40
3.0
 40
3.0
 40
3.0
 40
4.0
 40
4.0
 40
4.0
 40
4.0
 10
610.7951034714331
 20
-126.5392184470978
 30
0.0
 10
608.8699841142754
 20
-126.5392184470978
 30
0.0
 10
607.3090113499088
 20
-125.0605834648286
 30
0.0
 10
607.3090113499088
 20
-123.2370944244858
 30
0.0
 10
607.3090113499088
 20
-121.4136053841431
 30
0.0
 10
608.8699841142754
 20
-119.9349704018739
 30
0.0
 10
610.7951034714331
 20
-119.9349704018739
 30
0.0
 10
612.7202228285907
 20
-119.9349704018739
 30
0.0
 10
614.2808510834088
 20
-121.4136053841431
 30
0.0
 10
614.2808510834088
 20
-123.2370944244858
 30
0.0
 10
614.2808510834088
 20
-125.0605834648286
 30
0.0
 10
612.7202228285907
 20
-126.5392184470978
 30
0.0
 10
610.7951034714331
 20
-126.5392184470978
 30
0.0
  0
SPLINE
  5
5D
330
1F
100
AcDbEntity
  8
CAPA_1
 62
   250
100
AcDbSpline
210
0.0
220
0.0
230
1.0
 70
    11
 71
     3
 72
    17
 73
    13
 74
     0
 42
0.0000000001
 43
0.0000000001
 40
0.0
 40
0.0
 40
0.0
 40
0.0
 40
1.0
 40
1.0
 40
1.0
 40
2.0
 40
2.0
 40
2.0
 40
3.0
 40
3.0
 40
3.0
 40
4.0
 40
4.0
 40
4.0
 40
4.0
 10
561.8544215175225
 20
-126.5392184470978
 30
0.0
 10
559.9289576508163
 20
-126.5392184470978
 30
0.0
 10
558.3683293959981
 20
-125.0605834648286
 30
0.0
 10
558.3683293959981
 20
-123.2370944244858
 30
0.0
 10
558.3683293959981
 20
-121.4136053841431
 30
0.0
 10
559.9289576508163
 20
-119.9349704018739
 30
0.0
 10
561.8544215175225
 20
-119.9349704018739
 30
0.0
 10
563.77954087468
 20
-119.9349704018739
 30
0.0
 10
565.3405136390468
 20
-121.4136053841431
 30
0.0
 10
565.3405136390468
 20
-123.2370944244858
 30
0.0
 10
565.3405136390468
 20
-125.0605834648286
 30
0.0
 10
563.77954087468
 20
-126.5392184470978
 30
0.0
 10
561.8544215175225
 20
-126.5392184470978
 30
0.0
  0
SPLINE
  5
5E
330
1F
100
AcDbEntity
  8
CAPA_1
 62
   250
100
AcDbSpline
210
0.0
220
0.0
230
1.0
 70
    11
 71
     3
 72
    17
 73
    13
 74
     0
 42
0.0000000001
 43
0.0000000001
 40
0.0
 40
0.0
 40
0.0
 40
0.0
 40
1.0
 40
1.0
 40
1.0
 40
2.0
 40
2.0
 40
2.0
 40
3.0
 40
3.0
 40
3.0
 40
4.0
 40
4.0
 40
4.0
 40
4.0
 10
610.7951034714331
 20
-79.54897730216136
 30
0.0
 10
608.8699841142754
 20
-79.54897730216136
 30
0.0
 10
607.3090113499088
 20
-78.07068682944065
 30
0.0
 10
607.3090113499088
 20
-76.24702553432365
 30
0.0
 10
607.3090113499088
 20
-74.42336423920665
 30
0.0
 10
608.8699841142754
 20
-72.94507376648595
 30
0.0
 10
610.7951034714331
 20
-72.94507376648595
 30
0.0
 10
612.7202228285907
 20
-72.94507376648595
 30
0.0
 10
614.2808510834088
 20
-74.42336423920665
 30
0.0
 10
614.2808510834088
 20
-76.24702553432365
 30
0.0
 10
614.2808510834088
 20
-78.07068682944065
 30
0.0
 10
612.7202228285907
 20
-79.54897730216136
 30
0.0
 10
610.7951034714331
 20
-79.54897730216136
 30
0.0
  0
SPLINE
  5
5F
330
1F
100
AcDbEntity
  8
CAPA_1
 62
   250
100
AcDbSpline
210
0.0
220
0.0
230
1.0
 70
    11
 71
     3
 72
    17
 73
    13
 74
     0
 42
0.0000000001
 43
0.0000000001
 40
0.0
 40
0.0
 40
0.0
 40
0.0
 40
1.0
 40
1.0
 40
1.0
 40
2.0
 40
2.0
 40
2.0
 40
3.0
 40
3.0
 40
3.0
 40
4.0
 40
4.0
 40
4.0
 40
4.0
 10
561.1822833883502
 20
-79.54897730216136
 30
0.0
 10
559.2571640311926
 20
-79.54897730216136
 30
0.0
 10
557.6965357763744
 20
-78.07068682944065
 30
0.0
 10
557.6965357763744
 20
-76.24702553432365
 30
0.0
 10
557.6965357763744
 20
-74.42336423920665
 30
0.0
 10
559.2571640311926
 20
-72.94507376648595
 30
0.0
 10
561.1822833883502
 20
-72.94507376648595
 30
0.0
 10
563.1077472550563
 20
-72.94507376648595
 30
0.0
 10
564.6687200194231
 20
-74.42336423920665
 30
0.0
 10
564.6687200194231
 20
-76.24702553432365
 30
0.0
 10
564.6687200194231
 20
-78.07068682944065
 30
0.0
 10
563.1077472550563
 20
-79.54897730216136
 30
0.0
 10
561.1822833883502
 20
-79.54897730216136
 30
0.0
  0
INSERT
  5
61
330
1F
100
AcDbEntity
  8
CAPA_1
100
AcDbBlockReference
  2
BLOCK_3
 10
0.0
 20
0.0
 30
0.0
  0
POLYLINE
  5
66
330
1F
100
AcDbEntity
  8
CAPA_1
 62
   250
100
AcDb2dPolyline
 66
     1
 10
0.0
 20
0.0
 30
0.0
  0
VERTEX
  5
67
330
66
100
AcDbEntity
  8
CAPA_1
 62
   250
100
AcDbVertex
100
AcDb2dVertex
 10
483.083002266382
 20
-174.7988050235746
 30
0.0
  0
VERTEX
  5
68
330
66
100
AcDbEntity
  8
CAPA_1
 62
   250
100
AcDbVertex
100
AcDb2dVertex
 10
483.083002266382
 20
-24.68514268046066
 30
0.0
  0
VERTEX
  5
69
330
66
100
AcDbEntity
  8
CAPA_1
 62
   250
100
AcDbVertex
100
AcDb2dVertex
 10
552.5268254912085
 20
-24.68514268046066
 30
0.0
  0
VERTEX
  5
6A
330
66
100
AcDbEntity
  8
CAPA_1
 62
   250
100
AcDbVertex
100
AcDb2dVertex
 10
552.5268254912085
 20
-174.7988050235746
 30
0.0
  0
VERTEX
  5
6B
330
66
100
AcDbEntity
  8
CAPA_1
 62
   250
100
AcDbVertex
100
AcDb2dVertex
 10
483.083002266382
 20
-174.7988050235746
 30
0.0
  0
SEQEND
  5
6C
330
66
100
AcDbEntity
  8
CAPA_1
  0
SPLINE
  5
6D
330
1F
100
AcDbEntity
  8
CAPA_1
 62
   250
100
AcDbSpline
210
0.0
220
0.0
230
1.0
 70
    11
 71
     3
 72
    17
 73
    13
 74
     0
 42
0.0000000001
 43
0.0000000001
 40
0.0
 40
0.0
 40
0.0
 40
0.0
 40
1.0
 40
1.0
 40
1.0
 40
2.0
 40
2.0
 40
2.0
 40
3.0
 40
3.0
 40
3.0
 40
4.0
 40
4.0
 40
4.0
 40
4.0
 10
514.7279268461443
 20
-119.2996947943938
 30
0.0
 10
503.3239717708703
 20
-119.2996947943938
 30
0.0
 10
494.079402545751
 20
-110.5436401090828
 30
0.0
 10
494.079402545751
 20
-99.74205997940476
 30
0.0
 10
494.079402545751
 20
-88.94065210450094
 30
0.0
 10
503.3239717708703
 20
-80.18425290964143
 30
0.0
 10
514.7279268461443
 20
-80.18425290964143
 30
0.0
 10
526.1315374118699
 20
-80.18425290964143
 30
0.0
 10
535.3761066369892
 20
-88.94065210450094
 30
0.0
 10
535.3761066369892
 20
-99.74205997940476
 30
0.0
 10
535.3761066369892
 20
-110.5436401090828
 30
0.0
 10
526.1315374118699
 20
-119.2996947943938
 30
0.0
 10
514.7279268461443
 20
-119.2996947943938
 30
0.0
  0
SPLINE
  5
6E
330
1F
100
AcDbEntity
  8
CAPA_1
 62
   250
100
AcDbSpline
210
0.0
220
0.0
230
1.0
 70
    11
 71
     3
 72
    17
 73
    13
 74
     0
 42
0.0000000001
 43
0.0000000001
 40
0.0
 40
0.0
 40
0.0
 40
0.0
 40
1.0
 40
1.0
 40
1.0
 40
2.0
 40
2.0
 40
2.0
 40
3.0
 40
3.0
 40
3.0
 40
4.0
 40
4.0
 40
4.0
 40
4.0
 10
539.5339923781373
 20
-126.5392184470978
 30
0.0
 10
537.6088730209797
 20
-126.5392184470978
 30
0.0
 10
536.0479002566129
 20
-125.0605834648286
 30
0.0
 10
536.0479002566129
 20
-123.2370944244858
 30
0.0
 10
536.0479002566129
 20
-121.4136053841431
 30
0.0
 10
537.6088730209797
 20
-119.9349704018739
 30
0.0
 10
539.5339923781373
 20
-119.9349704018739
 30
0.0
 10
541.4591117352949
 20
-119.9349704018739
 30
0.0
 10
543.0197399901131
 20
-121.4136053841431
 30
0.0
 10
543.0197399901131
 20
-123.2370944244858
 30
0.0
 10
543.0197399901131
 20
-125.0605834648286
 30
0.0
 10
541.4591117352949
 20
-126.5392184470978
 30
0.0
 10
539.5339923781373
 20
-126.5392184470978
 30
0.0
  0
SPLINE
  5
6F
330
1F
100
AcDbEntity
  8
CAPA_1
 62
   250
100
AcDbSpline
210
0.0
220
0.0
230
1.0
 70
    11
 71
     3
 72
    17
 73
    13
 74
     0
 42
0.0000000001
 43
0.0000000001
 40
0.0
 40
0.0
 40
0.0
 40
0.0
 40
1.0
 40
1.0
 40
1.0
 40
2.0
 40
2.0
 40
2.0
 40
3.0
 40
3.0
 40
3.0
 40
4.0
 40
4.0
 40
4.0
 40
4.0
 10
490.5933104242266
 20
-126.5392184470978
 30
0.0
 10
488.6678465575205
 20
-126.5392184470978
 30
0.0
 10
487.1072183027023
 20
-125.0605834648286
 30
0.0
 10
487.1072183027023
 20
-123.2370944244858
 30
0.0
 10
487.1072183027023
 20
-121.4136053841431
 30
0.0
 10
488.6678465575205
 20
-119.9349704018739
 30
0.0
 10
490.5933104242266
 20
-119.9349704018739
 30
0.0
 10
492.5184297813842
 20
-119.9349704018739
 30
0.0
 10
494.079402545751
 20
-121.4136053841431
 30
0.0
 10
494.079402545751
 20
-123.2370944244858
 30
0.0
 10
494.079402545751
 20
-125.0605834648286
 30
0.0
 10
492.5184297813842
 20
-126.5392184470978
 30
0.0
 10
490.5933104242266
 20
-126.5392184470978
 30
0.0
  0
SPLINE
  5
70
330
1F
100
AcDbEntity
  8
CAPA_1
 62
   250
100
AcDbSpline
210
0.0
220
0.0
230
1.0
 70
    11
 71
     3
 72
    17
 73
    13
 74
     0
 42
0.0000000001
 43
0.0000000001
 40
0.0
 40
0.0
 40
0.0
 40
0.0
 40
1.0
 40
1.0
 40
1.0
 40
2.0
 40
2.0
 40
2.0
 40
3.0
 40
3.0
 40
3.0
 40
4.0
 40
4.0
 40
4.0
 40
4.0
 10
539.5339923781373
 20
-79.54897730216136
 30
0.0
 10
537.6088730209797
 20
-79.54897730216136
 30
0.0
 10
536.0479002566129
 20
-78.07068682944065
 30
0.0
 10
536.0479002566129
 20
-76.24702553432365
 30
0.0
 10
536.0479002566129
 20
-74.42336423920665
 30
0.0
 10
537.6088730209797
 20
-72.94507376648595
 30
0.0
 10
539.5339923781373
 20
-72.94507376648595
 30
0.0
 10
541.4591117352949
 20
-72.94507376648595
 30
0.0
 10
543.0197399901131
 20
-74.42336423920665
 30
0.0
 10
543.0197399901131
 20
-76.24702553432365
 30
0.0
 10
543.0197399901131
 20
-78.07068682944065
 30
0.0
 10
541.4591117352949
 20
-79.54897730216136
 30
0.0
 10
539.5339923781373
 20
-79.54897730216136
 30
0.0
  0
SPLINE
  5
71
330
1F
100
AcDbEntity
  8
CAPA_1
 62
   250
100
AcDbSpline
210
0.0
220
0.0
230
1.0
 70
    11
 71
     3
 72
    17
 73
    13
 74
     0
 42
0.0000000001
 43
0.0000000001
 40
0.0
 40
0.0
 40
0.0
 40
0.0
 40
1.0
 40
1.0
 40
1.0
 40
2.0
 40
2.0
 40
2.0
 40
3.0
 40
3.0
 40
3.0
 40
4.0
 40
4.0
 40
4.0
 40
4.0
 10
489.9211722950544
 20
-79.54897730216136
 30
0.0
 10
487.9960529378968
 20
-79.54897730216136
 30
0.0
 10
486.4354246830786
 20
-78.07068682944065
 30
0.0
 10
486.4354246830786
 20
-76.24702553432365
 30
0.0
 10
486.4354246830786
 20
-74.42336423920665
 30
0.0
 10
487.9960529378968
 20
-72.94507376648595
 30
0.0
 10
489.9211722950544
 20
-72.94507376648595
 30
0.0
 10
491.8466361617605
 20
-72.94507376648595
 30
0.0
 10
493.4076089261272
 20
-74.42336423920665
 30
0.0
 10
493.4076089261272
 20
-76.24702553432365
 30
0.0
 10
493.4076089261272
 20
-78.07068682944065
 30
0.0
 10
491.8466361617605
 20
-79.54897730216136
 30
0.0
 10
489.9211722950544
 20
-79.54897730216136
 30
0.0
  0
ENDSEC
  0
SECTION
  2
OBJECTS
  0
DICTIONARY
  5
C
330
0
100
AcDbDictionary
  3
ACAD_GROUP
350
D
  3
ACAD_LAYOUT
350
1A
  3
ACAD_MLINESTYLE
350
17
  3
ACAD_PLOTSETTINGS
350
19
  3
ACAD_TABLESTYLE
350
72
  3
ACAD_VISUALSTYLE
350
2A
1001
ACAD
1000
TREAT_AS_HARD
1070
     0
  0
DICTIONARY
  5
D
102
{ACAD_REACTORS
330
C
102
}
330
C
100
AcDbDictionary
1001
ACAD
1000
TREAT_AS_HARD
1070
     0
  0
DICTIONARY
  5
1A
102
{ACAD_REACTORS
330
C
102
}
330
C
100
AcDbDictionary
1001
ACAD
1000
TREAT_AS_HARD
1070
     0
  0
DICTIONARY
  5
17
102
{ACAD_REACTORS
330
C
102
}
330
C
100
AcDbDictionary
  3
STANDARD
350
18
1001
ACAD
1000
TREAT_AS_HARD
1070
     0
  0
DICTIONARY
  5
19
102
{ACAD_REACTORS
330
C
102
}
330
C
100
AcDbDictionary
1001
ACAD
1000
TREAT_AS_HARD
1070
     0
  0
DICTIONARY
  5
72
102
{ACAD_REACTORS
330
C
102
}
330
C
100
AcDbDictionary
1001
ACAD
1000
TREAT_AS_HARD
1070
     0
  0
DICTIONARY
  5
2A
102
{ACAD_REACTORS
330
C
102
}
330
C
100
AcDbDictionary
  3
2DWIREFRAME
350
2F
  3
3DWIREFRAME
350
30
  3
3D_HIDDEN
350
31
  3
BASIC
350
32
  3
BRIGHTEN
350
36
  3
COLORCHANGE
350
3A
  3
CONCEPTUAL
350
34
  3
DIM
350
35
  3
FACEPATTERN
350
39
  3
FLAT
350
2B
  3
FLATWITHEDGES
350
2C
  3
GOURAUD
350
2D
  3
GOURAUDWITHEDGES
350
2E
  3
LINEPATTERN
350
38
  3
REALISTIC
350
33
  3
THICKEN
350
37
1001
ACAD
1000
TREAT_AS_HARD
1070
     0
  0
MLINESTYLE
  5
18
102
{ACAD_REACTORS
330
17
102
}
330
17
100
AcDbMlineStyle
  2
Standard
 70
     0
  3

 62
   256
 51
90.0
 52
90.0
 71
     2
 49
0.5
 62
   256
  6
BYLAYER
 49
-0.5
 62
   256
  6
BYLAYER
  0
VISUALSTYLE
  5
2F
102
{ACAD_REACTORS
330
2A
102
}
330
2A
100
AcDbVisualStyle
  2
2dWireframe
 70
     4
 71
     0
 72
     2
 73
     0
 90
        0
 40
-0.6
 41
-30.0
 62
     5
 63
     7
 74
     1
 91
        4
 64
     7
 65
   257
 75
     1
175
     1
 42
1.0
 92
        0
 66
   257
 43
1.0
 76
     1
 77
     6
 78
     2
 67
     7
 79
     5
170
     0
171
     0
290
     0
174
     0
 93
        1
 44
0.0
173
     0
291
     0
 45
0.0
1001
ACAD
1000
AcDbSavedByObjectVersion
1070
     0
  0
VISUALSTYLE
  5
30
102
{ACAD_REACTORS
330
2A
102
}
330
2A
100
AcDbVisualStyle
  2
3dWireframe
 70
     5
 71
     0
 72
     2
 73
     0
 90
        0
 40
-0.6
 41
-30.0
 62
     5
 63
     7
 74
     1
 91
        4
 64
     7
 65
   257
 75
     1
175
     1
 42
1.0
 92
        0
 66
   257
 43
1.0
 76
     1
 77
     6
 78
     2
 67
     7
 79
     5
170
     0
171
     0
290
     0
174
     0
 93
        1
 44
0.0
173
     0
291
     0
 45
0.0
1001
ACAD
1000
AcDbSavedByObjectVersion
1070
     0
  0
VISUALSTYLE
  5
31
102
{ACAD_REACTORS
330
2A
102
}
330
2A
100
AcDbVisualStyle
  2
3D Hidden
 70
     6
 71
     1
 72
     2
 73
     2
 90
        0
 40
-0.6
 41
-30.0
 62
     5
 63
     7
 74
     2
 91
        2
 64
     7
 65
   257
 75
     2
175
     1
 42
40.0
 92
        0
 66
   257
 43
1.0
 76
     1
 77
     6
 78
     2
 67
     7
 79
     3
170
     0
171
     0
290
     0
174
     0
 93
        1
 44
0.0
173
     0
291
     0
 45
0.0
1001
ACAD
1000
AcDbSavedByObjectVersion
1070
     0
  0
VISUALSTYLE
  5
32
102
{ACAD_REACTORS
330
2A
102
}
330
2A
100
AcDbVisualStyle
  2
Basic
 70
     7
 71
     1
 72
     0
 73
     1
 90
        0
 40
-0.6
 41
-30.0
 62
     5
 63
     7
 74
     0
 91
        4
 64
     7
 65
   257
 75
     1
175
     1
 42
1.0
 92
        8
 66
     7
 43
1.0
 76
     1
 77
     6
 78
     2
 67
     7
 79
     5
170
     0
171
     0
290
     0
174
     0
 93
        1
 44
0.0
173
     0
291
     1
 45
0.0
1001
ACAD
1000
AcDbSavedByObjectVersion
1070
     0
  0
VISUALSTYLE
  5
36
102
{ACAD_REACTORS
330
2A
102
}
330
2A
100
AcDbVisualStyle
  2
Brighten
 70
    12
 71
     2
 72
     2
 73
     0
 90
        0
 40
-0.6
 41
-30.0
 62
     5
 63
     7
 74
     1
 91
        4
 64
     7
 65
   257
 75
     1
175
     1
 42
1.0
 92
        8
 66
     7
 43
1.0
 76
     1
 77
     6
 78
     2
 67
     7
 79
     5
170
     0
171
     0
290
     0
174
     0
 93
        1
 44
50.0
173
     0
291
     1
 45
0.0
1001
ACAD
1000
AcDbSavedByObjectVersion
1070
     0
  0
VISUALSTYLE
  5
3A
102
{ACAD_REACTORS
330
2A
102
}
330
2A
100
AcDbVisualStyle
  2
ColorChange
 70
    16
 71
     2
 72
     2
 73
     3
 90
        0
 40
-0.6
 41
-30.0
 62
     5
 63
     8
 74
     1
 91
        4
 64
     7
 65
   257
 75
     1
175
     1
 42
1.0
 92
        8
 66
     8
 43
1.0
 76
     1
 77
     6
 78
     2
 67
     7
 79
     5
170
     0
171
     0
290
     0
174
     0
 93
        1
 44
0.0
173
     0
291
     1
 45
0.0
1001
ACAD
1000
AcDbSavedByObjectVersion
1070
     0
  0
VISUALSTYLE
  5
34
102
{ACAD_REACTORS
330
2A
102
}
330
2A
100
AcDbVisualStyle
  2
Conceptual
 70
     9
 71
     3
 72
     2
 73
     0
 90
        0
 40
-0.6
 41
-30.0
 62
     5
 63
     7
 74
     2
 91
        2
 64
     7
 65
   257
 75
     1
175
     1
 42
40.0
 92
        8
 66
     7
 43
1.0
 76
     1
 77
     6
 78
     2
 67
     7
 79
     3
170
     0
171
     0
290
     0
174
     0
 93
        1
 44
0.0
173
     0
291
     0
 45
0.0
1001
ACAD
1000
AcDbSavedByObjectVersion
1070
     0
  0
VISUALSTYLE
  5
35
102
{ACAD_REACTORS
330
2A
102
}
330
2A
100
AcDbVisualStyle
  2
Dim
 70
    11
 71
     2
 72
     2
 73
     0
 90
        0
 40
-0.6
 41
-30.0
 62
     5
 63
     7
 74
     1
 91
        4
 64
     7
 65
   257
 75
     1
175
     1
 42
1.0
 92
        8
 66
     7
 43
1.0
 76
     1
 77
     6
 78
     2
 67
     7
 79
     5
170
     0
171
     0
290
     0
174
     0
 93
        1
 44
-50.0
173
     0
291
     1
 45
0.0
1001
ACAD
1000
AcDbSavedByObjectVersion
1070
     0
  0
VISUALSTYLE
  5
39
102
{ACAD_REACTORS
330
2A
102
}
330
2A
100
AcDbVisualStyle
  2
Facepattern
 70
    15
 71
     2
 72
     2
 73
     0
 90
        0
 40
-0.6
 41
-30.0
 62
     5
 63
     7
 74
     1
 91
        4
 64
     7
 65
   257
 75
     1
175
     1
 42
1.0
 92
        8
 66
     7
 43
1.0
 76
     1
 77
     6
 78
     2
 67
     7
 79
     5
170
     0
171
     0
290
     0
174
     0
 93
        1
 44
0.0
173
     0
291
     1
 45
0.0
1001
ACAD
1000
AcDbSavedByObjectVersion
1070
     0
  0
VISUALSTYLE
  5
2B
102
{ACAD_REACTORS
330
2A
102
}
330
2A
100
AcDbVisualStyle
  2
Flat
 70
     0
 71
     2
 72
     1
 73
     1
 90
        2
 40
-0.6
 41
30.0
 62
     5
 63
     7
 74
     0
 91
        4
 64
     7
 65
   257
 75
     1
175
     1
 42
1.0
 92
        8
 66
     7
 43
1.0
 76
     1
 77
     6
 78
     2
 67
     7
 79
     5
170
     0
171
     0
290
     0
174
     0
 93
       13
 44
0.0
173
     0
291
     1
 45
0.0
1001
ACAD
1000
AcDbSavedByObjectVersion
1070
     0
  0
VISUALSTYLE
  5
2C
102
{ACAD_REACTORS
330
2A
102
}
330
2A
100
AcDbVisualStyle
  2
FlatWithEdges
 70
     1
 71
     2
 72
     1
 73
     1
 90
        2
 40
-0.6
 41
30.0
 62
     5
 63
     7
 74
     1
 91
        4
 64
     7
 65
   257
 75
     1
175
     1
 42
1.0
 92
        0
 66
   257
 43
1.0
 76
     1
 77
     6
 78
     2
 67
     7
 79
     5
170
     0
171
     0
290
     0
174
     0
 93
       13
 44
0.0
173
     0
291
     1
 45
0.0
1001
ACAD
1000
AcDbSavedByObjectVersion
1070
     0
  0
VISUALSTYLE
  5
2D
102
{ACAD_REACTORS
330
2A
102
}
330
2A
100
AcDbVisualStyle
  2
Gouraud
 70
     2
 71
     2
 72
     2
 73
     1
 90
        2
 40
-0.6
 41
30.0
 62
     5
 63
     7
 74
     0
 91
        4
 64
     7
 65
   257
 75
     1
175
     1
 42
1.0
 92
        0
 66
     7
 43
1.0
 76
     1
 77
     6
 78
     2
 67
     7
 79
     5
170
     0
171
     0
290
     0
174
     0
 93
       13
 44
0.0
173
     0
291
     1
 45
0.0
1001
ACAD
1000
AcDbSavedByObjectVersion
1070
     0
  0
VISUALSTYLE
  5
2E
102
{ACAD_REACTORS
330
2A
102
}
330
2A
100
AcDbVisualStyle
  2
GouraudWithEdges
 70
     3
 71
     2
 72
     2
 73
     1
 90
        2
 40
-0.6
 41
30.0
 62
     5
 63
     7
 74
     1
 91
        4
 64
     7
 65
   257
 75
     1
175
     1
 42
1.0
 92
        0
 66
   257
 43
1.0
 76
     1
 77
     6
 78
     2
 67
     7
 79
     5
170
     0
171
     0
290
     0
174
     0
 93
       13
 44
0.0
173
     0
291
     1
 45
0.0
1001
ACAD
1000
AcDbSavedByObjectVersion
1070
     0
  0
VISUALSTYLE
  5
38
102
{ACAD_REACTORS
330
2A
102
}
330
2A
100
AcDbVisualStyle
  2
Linepattern
 70
    14
 71
     2
 72
     2
 73
     0
 90
        0
 40
-0.6
 41
-30.0
 62
     5
 63
     7
 74
     1
 91
        4
 64
     7
 65
   257
 75
     7
175
     7
 42
1.0
 92
        8
 66
     7
 43
1.0
 76
     1
 77
     6
 78
     2
 67
     7
 79
     5
170
     0
171
     0
290
     0
174
     0
 93
        1
 44
0.0
173
     0
291
     1
 45
0.0
1001
ACAD
1000
AcDbSavedByObjectVersion
1070
     0
  0
VISUALSTYLE
  5
33
102
{ACAD_REACTORS
330
2A
102
}
330
2A
100
AcDbVisualStyle
  2
Realistic
 70
     8
 71
     2
 72
     2
 73
     0
 90
        0
 40
-0.6
 41
-30.0
 62
     5
 63
     7
 74
     1
 91
        0
 64
     7
 65
   257
 75
     1
175
     1
 42
1.0
 92
        8
 66
     8
 43
1.0
 76
     1
 77
     6
 78
     2
 67
     7
 79
     5
170
     0
171
     0
290
     0
174
     0
 93
       13
 44
0.0
173
     0
291
     0
 45
0.0
1001
ACAD
1000
AcDbSavedByObjectVersion
1070
     0
  0
VISUALSTYLE
  5
37
102
{ACAD_REACTORS
330
2A
102
}
330
2A
100
AcDbVisualStyle
  2
Thicken
 70
    13
 71
     2
 72
     2
 73
     0
 90
        0
 40
-0.6
 41
-30.0
 62
     5
 63
     7
 74
     1
 91
        4
 64
     7
 65
   257
 75
     1
175
     1
 42
1.0
 92
       12
 66
     7
 43
1.0
 76
     1
 77
     6
 78
     2
 67
     7
 79
     5
170
     0
171
     0
290
     0
174
     0
 93
        1
 44
0.0
173
     0
291
     1
 45
0.0
1001
ACAD
1000
AcDbSavedByObjectVersion
1070
     0
  0
ENDSEC
  0
EOF
