  0
SECTION
  2
HEADER
  9
$ACADVER
  1
AC1014
  9
$HANDSEED
  5
FFFF
  9
$MEASUREMENT
 70
     1
  0
ENDSEC
  0
SECTION
  2
TABLES
  0
TABLE
  2
VPORT
  5
8
330
0
100
AcDbSymbolTable
 70
     4
  0
VPORT
  5
2E
330
8
100
AcDbSymbolTableRecord
100
AcDbViewportTableRecord
  2
*ACTIVE
 70
     0
 10
0.0
 20
0.0
 11
1.0
 21
1.0
 12
210.0
 22
148.5
 13
0.0
 23
0.0
 14
10.0
 24
10.0
 15
10.0
 25
10.0
 16
0.0
 26
0.0
 36
1.0
 17
0.0
 27
0.0
 37
0.0
 40
341.0
 41
1.24
 42
50.0
 43
0.0
 44
0.0
 50
0.0
 51
0.0
 71
     0
 72
   100
 73
     1
 74
     3
 75
     0
 76
     0
 77
     0
 78
     0
  0
ENDTAB
  0
TABLE
  2
LTYPE
  5
5
330
0
100
AcDbSymbolTable
 70
     1
  0
LTYPE
  5
14
330
5
100
AcDbSymbolTableRecord
100
AcDbLinetypeTableRecord
  2
BYBLOCK
 70
     0
  3

 72
    65
 73
     0
 40
0.0
  0
LTYPE
  5
15
330
5
100
AcDbSymbolTableRecord
100
AcDbLinetypeTableRecord
  2
BYLAYER
 70
     0
  3

 72
    65
 73
     0
 40
0.0
  0
LTYPE
  5
16
330
5
100
AcDbSymbolTableRecord
100
AcDbLinetypeTableRecord
  2
CONTINUOUS
 70
     0
  3
Solid line
 72
    65
 73
     0
 40
0.0
  0
ENDTAB
  0
TABLE
  2
LAYER
  5
2
100
AcDbSymbolTable
 70
2
  0
LAYER
  5
50
100
AcDbSymbolTableRecord
100
AcDbLayerTableRecord
  2
0
 70
0
  6
CONTINUOUS
  0
LAYER
  5
51
100
AcDbSymbolTableRecord
100
AcDbLayerTableRecord
  2
Calque_1
 70
0
  6
CONTINUOUS
  0
ENDTAB
  0
TABLE
  2
STYLE
  5
3
330
0
100
AcDbSymbolTable
 70
     1
  0
STYLE
  5
11
330
3
100
AcDbSymbolTableRecord
100
AcDbTextStyleTableRecord
  2
STANDARD
 70
     0
 40
0.0
 41
1.0
 50
0.0
 71
     0
 42
2.5
  3
txt
  4

  0
ENDTAB
  0
TABLE
  2
VIEW
  5
6
330
0
100
AcDbSymbolTable
 70
     0
  0
ENDTAB
  0
TABLE
  2
UCS
  5
7
330
0
100
AcDbSymbolTable
 70
     0
  0
ENDTAB
  0
TABLE
  2
APPID
  5
9
330
0
100
AcDbSymbolTable
 70
     2
  0
APPID
  5
12
330
9
100
AcDbSymbolTableRecord
100
AcDbRegAppTableRecord
  2
ACAD
 70
     0
  0
ENDTAB
  0
TABLE
  2
DIMSTYLE
  5
A
330
0
100
AcDbSymbolTable
 70
     1
  0
DIMSTYLE
105
27
330
A
100
AcDbSymbolTableRecord
100
AcDbDimStyleTableRecord
  2
ISO-25
 70
     0
  3

  4

  5

  6

  7

 40
1.0
 41
2.5
 42
0.625
 43
3.75
 44
1.25
 45
0.0
 46
0.0
 47
0.0
 48
0.0
140
2.5
141
2.5
142
0.0
143
0.03937007874016
144
1.0
145
0.0
146
1.0
147
0.625
 71
     0
 72
     0
 73
     0
 74
     0
 75
     0
 76
     0
 77
     1
 78
     8
170
     0
171
     3
172
     1
173
     0
174
     0
175
     0
176
     0
177
     0
178
     0
270
     2
271
     2
272
     2
273
     2
274
     3
340
11
275
     0
280
     0
281
     0
282
     0
283
     0
284
     8
285
     0
286
     0
287
     3
288
     0
  0
ENDTAB
  0
TABLE
  2
BLOCK_RECORD
  5
1
330
0
100
AcDbSymbolTable
 70
     1
  0
BLOCK_RECORD
  5
1F
330
1
100
AcDbSymbolTableRecord
100
AcDbBlockTableRecord
  2
*MODEL_SPACE
  0
BLOCK_RECORD
  5
1B
330
1
100
AcDbSymbolTableRecord
100
AcDbBlockTableRecord
  2
*PAPER_SPACE
  0
ENDTAB
  0
ENDSEC
  0
SECTION
  2
BLOCKS
  0
BLOCK
  5
20
330
1F
100
AcDbEntity
  8
0
100
AcDbBlockBegin
  2
*MODEL_SPACE
 70
     0
 10
0.0
 20
0.0
 30
0.0
  3
*MODEL_SPACE
  1

  0
ENDBLK
  5
21
330
1F
100
AcDbEntity
  8
0
100
AcDbBlockEnd
  0
BLOCK
  5
1C
330
1B
100
AcDbEntity
 67
     1
  8
0
100
AcDbBlockBegin
  2
*PAPER_SPACE
  1

  0
ENDBLK
  5
1D
330
1B
100
AcDbEntity
 67
     1
  8
0
100
AcDbBlockEnd
  0
ENDSEC
  0
SECTION
  2
ENTITIES
  0
LWPOLYLINE
  5
100
100
AcDbEntity
  8
Calque_1
 62
7
100
AcDbPolyline
 90
12
 70
1
 10
167.665250
 20
362.226758
 30
0.0
 10
167.665250
 20
359.226764
 30
0.0
 10
179.165242
 20
359.226764
 30
0.0
 10
179.165242
 20
362.226758
 30
0.0
 10
167.665250
 20
362.226758
 30
0.0
 10
167.665250
 20
362.226758
 30
0.0
 10
167.665250
 20
362.226758
 30
0.0
 10
167.665250
 20
362.226758
 30
0.0
 10
167.665250
 20
362.226758
 30
0.0
 10
167.665250
 20
362.226758
 30
0.0
 10
167.665250
 20
362.226758
 30
0.0
 10
167.665250
 20
362.226758
 30
0.0
  0
SPLINE
  5
101
100
AcDbEntity
  8
Calque_1
 62
7
100
AcDbSpline
 70
8
 71
3
 72
8
 73
4
 74
0
 40
0
 40
0
 40
0
 40
0
 40
1
 40
1
 40
1
 40
1
 10
183.412996
 20
346.359093
 30
0.0
 10
183.416778
 20
349.755643
 30
0.0
 10
181.606932
 20
352.895809
 30
0.0
 10
178.666067
 20
354.595179
 30
0.0
  0
SPLINE
  5
102
100
AcDbEntity
  8
Calque_1
 62
7
100
AcDbSpline
 70
8
 71
3
 72
8
 73
4
 74
0
 40
0
 40
0
 40
0
 40
0
 40
1
 40
1
 40
1
 40
1
 10
178.666067
 20
354.595179
 30
0.0
 10
175.725198
 20
356.294549
 30
0.0
 10
172.100804
 20
356.294549
 30
0.0
 10
169.159939
 20
354.595179
 30
0.0
  0
SPLINE
  5
103
100
AcDbEntity
  8
Calque_1
 62
7
100
AcDbSpline
 70
8
 71
3
 72
8
 73
4
 74
0
 40
0
 40
0
 40
0
 40
0
 40
1
 40
1
 40
1
 40
1
 10
169.159939
 20
354.595179
 30
0.0
 10
166.219070
 20
352.895809
 30
0.0
 10
164.409213
 20
349.755643
 30
0.0
 10
164.413006
 20
346.359093
 30
0.0
  0
SPLINE
  5
104
100
AcDbEntity
  8
Calque_1
 62
7
100
AcDbSpline
 70
8
 71
3
 72
8
 73
4
 74
0
 40
0
 40
0
 40
0
 40
0
 40
1
 40
1
 40
1
 40
1
 10
164.413006
 20
346.359093
 30
0.0
 10
164.418848
 20
341.116536
 30
0.0
 10
168.670438
 20
336.869704
 30
0.0
 10
173.913001
 20
336.869704
 30
0.0
  0
SPLINE
  5
105
100
AcDbEntity
  8
Calque_1
 62
7
100
AcDbSpline
 70
8
 71
3
 72
8
 73
4
 74
0
 40
0
 40
0
 40
0
 40
0
 40
1
 40
1
 40
1
 40
1
 10
173.913001
 20
336.869704
 30
0.0
 10
179.155564
 20
336.869704
 30
0.0
 10
183.407140
 20
341.116536
 30
0.0
 10
183.412996
 20
346.359093
 30
0.0
  0
LWPOLYLINE
  5
106
100
AcDbEntity
  8
Calque_1
 62
7
100
AcDbPolyline
 90
12
 70
1
 10
158.065236
 20
352.726763
 30
0.0
 10
158.065236
 20
340.026763
 30
0.0
 10
161.065258
 20
340.026763
 30
0.0
 10
161.065258
 20
352.726763
 30
0.0
 10
158.065236
 20
352.726763
 30
0.0
 10
158.065236
 20
352.726763
 30
0.0
 10
158.065236
 20
352.726763
 30
0.0
 10
158.065236
 20
352.726763
 30
0.0
 10
158.065236
 20
352.726763
 30
0.0
 10
158.065236
 20
352.726763
 30
0.0
 10
158.065236
 20
352.726763
 30
0.0
 10
158.065236
 20
352.726763
 30
0.0
  0
LWPOLYLINE
  5
107
100
AcDbEntity
  8
Calque_1
 62
7
100
AcDbPolyline
 90
12
 70
1
 10
167.665250
 20
333.526759
 30
0.0
 10
167.665250
 20
330.526768
 30
0.0
 10
179.165242
 20
330.526768
 30
0.0
 10
179.165242
 20
333.526759
 30
0.0
 10
167.665250
 20
333.526759
 30
0.0
 10
167.665250
 20
333.526759
 30
0.0
 10
167.665250
 20
333.526759
 30
0.0
 10
167.665250
 20
333.526759
 30
0.0
 10
167.665250
 20
333.526759
 30
0.0
 10
167.665250
 20
333.526759
 30
0.0
 10
167.665250
 20
333.526759
 30
0.0
 10
167.665250
 20
333.526759
 30
0.0
  0
LWPOLYLINE
  5
108
100
AcDbEntity
  8
Calque_1
 62
7
100
AcDbPolyline
 90
12
 70
1
 10
186.765232
 20
352.726763
 30
0.0
 10
186.765232
 20
340.026763
 30
0.0
 10
189.765254
 20
340.026763
 30
0.0
 10
189.765254
 20
352.726763
 30
0.0
 10
186.765232
 20
352.726763
 30
0.0
 10
186.765232
 20
352.726763
 30
0.0
 10
186.765232
 20
352.726763
 30
0.0
 10
186.765232
 20
352.726763
 30
0.0
 10
186.765232
 20
352.726763
 30
0.0
 10
186.765232
 20
352.726763
 30
0.0
 10
186.765232
 20
352.726763
 30
0.0
 10
186.765232
 20
352.726763
 30
0.0
  0
LWPOLYLINE
  5
109
100
AcDbEntity
  8
Calque_1
 62
7
100
AcDbPolyline
 90
28
 70
1
 10
153.665250
 20
333.526759
 30
0.0
 10
141.978428
 20
333.526759
 30
0.0
 10
141.978428
 20
359.226764
 30
0.0
 10
153.665250
 20
359.226764
 30
0.0
 10
153.665250
 20
362.226758
 30
0.0
 10
141.978428
 20
362.226758
 30
0.0
 10
141.978428
 20
370.298170
 30
0.0
 10
204.678444
 20
370.298170
 30
0.0
 10
204.678444
 20
362.226758
 30
0.0
 10
193.165242
 20
362.226758
 30
0.0
 10
193.165242
 20
359.226764
 30
0.0
 10
204.678444
 20
359.226764
 30
0.0
 10
204.678444
 20
333.526759
 30
0.0
 10
193.165242
 20
333.526759
 30
0.0
 10
193.165242
 20
330.526768
 30
0.0
 10
204.678444
 20
330.526768
 30
0.0
 10
204.678444
 20
322.598187
 30
0.0
 10
141.978428
 20
322.598187
 30
0.0
 10
141.978428
 20
330.526768
 30
0.0
 10
153.665250
 20
330.526768
 30
0.0
 10
153.665250
 20
333.526759
 30
0.0
 10
153.665250
 20
333.526759
 30
0.0
 10
153.665250
 20
333.526759
 30
0.0
 10
153.665250
 20
333.526759
 30
0.0
 10
153.665250
 20
333.526759
 30
0.0
 10
153.665250
 20
333.526759
 30
0.0
 10
153.665250
 20
333.526759
 30
0.0
 10
153.665250
 20
333.526759
 30
0.0
  0
LWPOLYLINE
  5
10a
100
AcDbEntity
  8
Calque_1
 62
7
100
AcDbPolyline
 90
8
 70
1
 10
183.412996
 20
346.359093
 30
0.0
 10
183.412996
 20
346.359093
 30
0.0
 10
183.412996
 20
346.359093
 30
0.0
 10
183.412996
 20
346.359093
 30
0.0
 10
183.412996
 20
346.359093
 30
0.0
 10
183.412996
 20
346.359093
 30
0.0
 10
183.412996
 20
346.359093
 30
0.0
 10
183.412996
 20
346.359093
 30
0.0
  0
LWPOLYLINE
  5
10b
100
AcDbEntity
  8
Calque_1
 62
7
100
AcDbPolyline
 90
12
 70
1
 10
429.687736
 20
260.115933
 30
0.0
 10
432.687758
 20
260.115933
 30
0.0
 10
432.687758
 20
271.115939
 30
0.0
 10
429.687736
 20
271.115939
 30
0.0
 10
429.687736
 20
260.115933
 30
0.0
 10
429.687736
 20
260.115933
 30
0.0
 10
429.687736
 20
260.115933
 30
0.0
 10
429.687736
 20
260.115933
 30
0.0
 10
429.687736
 20
260.115933
 30
0.0
 10
429.687736
 20
260.115933
 30
0.0
 10
429.687736
 20
260.115933
 30
0.0
 10
429.687736
 20
260.115933
 30
0.0
  0
LWPOLYLINE
  5
10c
100
AcDbEntity
  8
Calque_1
 62
7
100
AcDbPolyline
 90
36
 70
1
 10
419.687756
 20
233.175931
 30
0.0
 10
427.687740
 20
233.175931
 30
0.0
 10
427.687740
 20
297.175932
 30
0.0
 10
419.687756
 20
297.175932
 30
0.0
 10
419.687756
 20
316.175933
 30
0.0
 10
429.687736
 20
316.175933
 30
0.0
 10
429.687736
 20
317.925934
 30
0.0
 10
424.687746
 20
317.925934
 30
0.0
 10
424.687746
 20
322.925929
 30
0.0
 10
437.687748
 20
322.925929
 30
0.0
 10
437.687748
 20
317.925934
 30
0.0
 10
432.687758
 20
317.925934
 30
0.0
 10
432.687758
 20
316.175933
 30
0.0
 10
444.687734
 20
316.175933
 30
0.0
 10
444.687734
 20
297.175932
 30
0.0
 10
436.687750
 20
297.175932
 30
0.0
 10
436.687750
 20
233.175931
 30
0.0
 10
444.687734
 20
233.175931
 30
0.0
 10
444.687734
 20
214.175944
 30
0.0
 10
432.687758
 20
214.175944
 30
0.0
 10
432.687758
 20
212.425938
 30
0.0
 10
437.687748
 20
212.425938
 30
0.0
 10
437.687748
 20
207.425919
 30
0.0
 10
424.687746
 20
207.425919
 30
0.0
 10
424.687746
 20
212.425938
 30
0.0
 10
429.687736
 20
212.425938
 30
0.0
 10
429.687736
 20
214.175944
 30
0.0
 10
419.687756
 20
214.175944
 30
0.0
 10
419.687756
 20
233.175931
 30
0.0
 10
419.687756
 20
233.175931
 30
0.0
 10
419.687756
 20
233.175931
 30
0.0
 10
419.687756
 20
233.175931
 30
0.0
 10
419.687756
 20
233.175931
 30
0.0
 10
419.687756
 20
233.175931
 30
0.0
 10
419.687756
 20
233.175931
 30
0.0
 10
419.687756
 20
233.175931
 30
0.0
  0
LWPOLYLINE
  5
10d
100
AcDbEntity
  8
Calque_1
 62
7
100
AcDbPolyline
 90
12
 70
1
 10
438.687746
 20
308.175932
 30
0.0
 10
424.687746
 20
308.175932
 30
0.0
 10
424.687746
 20
305.175930
 30
0.0
 10
438.687746
 20
305.175930
 30
0.0
 10
438.687746
 20
308.175932
 30
0.0
 10
438.687746
 20
308.175932
 30
0.0
 10
438.687746
 20
308.175932
 30
0.0
 10
438.687746
 20
308.175932
 30
0.0
 10
438.687746
 20
308.175932
 30
0.0
 10
438.687746
 20
308.175932
 30
0.0
 10
438.687746
 20
308.175932
 30
0.0
 10
438.687746
 20
308.175932
 30
0.0
  0
LWPOLYLINE
  5
10e
100
AcDbEntity
  8
Calque_1
 62
7
100
AcDbPolyline
 90
12
 70
1
 10
438.687746
 20
225.175922
 30
0.0
 10
424.687746
 20
225.175922
 30
0.0
 10
424.687746
 20
222.175928
 30
0.0
 10
438.687746
 20
222.175928
 30
0.0
 10
438.687746
 20
225.175922
 30
0.0
 10
438.687746
 20
225.175922
 30
0.0
 10
438.687746
 20
225.175922
 30
0.0
 10
438.687746
 20
225.175922
 30
0.0
 10
438.687746
 20
225.175922
 30
0.0
 10
438.687746
 20
225.175922
 30
0.0
 10
438.687746
 20
225.175922
 30
0.0
 10
438.687746
 20
225.175922
 30
0.0
  0
LWPOLYLINE
  5
10f
100
AcDbEntity
  8
Calque_1
 62
7
100
AcDbPolyline
 90
12
 70
1
 10
462.248927
 20
333.296757
 30
0.0
 10
465.248950
 20
333.296757
 30
0.0
 10
465.248950
 20
344.296763
 30
0.0
 10
462.248927
 20
344.296763
 30
0.0
 10
462.248927
 20
333.296757
 30
0.0
 10
462.248927
 20
333.296757
 30
0.0
 10
462.248927
 20
333.296757
 30
0.0
 10
462.248927
 20
333.296757
 30
0.0
 10
462.248927
 20
333.296757
 30
0.0
 10
462.248927
 20
333.296757
 30
0.0
 10
462.248927
 20
333.296757
 30
0.0
 10
462.248927
 20
333.296757
 30
0.0
  0
LWPOLYLINE
  5
110
100
AcDbEntity
  8
Calque_1
 62
7
100
AcDbPolyline
 90
36
 70
1
 10
452.248947
 20
306.356758
 30
0.0
 10
460.248931
 20
306.356758
 30
0.0
 10
460.248931
 20
370.356757
 30
0.0
 10
452.248947
 20
370.356757
 30
0.0
 10
452.248947
 20
389.356755
 30
0.0
 10
462.248927
 20
389.356755
 30
0.0
 10
462.248927
 20
391.106759
 30
0.0
 10
457.248937
 20
391.106759
 30
0.0
 10
457.248937
 20
396.106754
 30
0.0
 10
470.248940
 20
396.106754
 30
0.0
 10
470.248940
 20
391.106759
 30
0.0
 10
465.248950
 20
391.106759
 30
0.0
 10
465.248950
 20
389.356755
 30
0.0
 10
477.248926
 20
389.356755
 30
0.0
 10
477.248926
 20
370.356757
 30
0.0
 10
469.248942
 20
370.356757
 30
0.0
 10
469.248942
 20
306.356758
 30
0.0
 10
477.248926
 20
306.356758
 30
0.0
 10
477.248926
 20
287.356757
 30
0.0
 10
465.248950
 20
287.356757
 30
0.0
 10
465.248950
 20
285.606750
 30
0.0
 10
470.248940
 20
285.606750
 30
0.0
 10
470.248940
 20
280.606735
 30
0.0
 10
457.248937
 20
280.606735
 30
0.0
 10
457.248937
 20
285.606750
 30
0.0
 10
462.248927
 20
285.606750
 30
0.0
 10
462.248927
 20
287.356757
 30
0.0
 10
452.248947
 20
287.356757
 30
0.0
 10
452.248947
 20
306.356758
 30
0.0
 10
452.248947
 20
306.356758
 30
0.0
 10
452.248947
 20
306.356758
 30
0.0
 10
452.248947
 20
306.356758
 30
0.0
 10
452.248947
 20
306.356758
 30
0.0
 10
452.248947
 20
306.356758
 30
0.0
 10
452.248947
 20
306.356758
 30
0.0
 10
452.248947
 20
306.356758
 30
0.0
  0
LWPOLYLINE
  5
111
100
AcDbEntity
  8
Calque_1
 62
7
100
AcDbPolyline
 90
12
 70
1
 10
471.248938
 20
381.356757
 30
0.0
 10
457.248937
 20
381.356757
 30
0.0
 10
457.248937
 20
378.356755
 30
0.0
 10
471.248938
 20
378.356755
 30
0.0
 10
471.248938
 20
381.356757
 30
0.0
 10
471.248938
 20
381.356757
 30
0.0
 10
471.248938
 20
381.356757
 30
0.0
 10
471.248938
 20
381.356757
 30
0.0
 10
471.248938
 20
381.356757
 30
0.0
 10
471.248938
 20
381.356757
 30
0.0
 10
471.248938
 20
381.356757
 30
0.0
 10
471.248938
 20
381.356757
 30
0.0
  0
LWPOLYLINE
  5
112
100
AcDbEntity
  8
Calque_1
 62
7
100
AcDbPolyline
 90
12
 70
1
 10
471.248938
 20
298.356732
 30
0.0
 10
457.248937
 20
298.356732
 30
0.0
 10
457.248937
 20
295.356741
 30
0.0
 10
471.248938
 20
295.356741
 30
0.0
 10
471.248938
 20
298.356732
 30
0.0
 10
471.248938
 20
298.356732
 30
0.0
 10
471.248938
 20
298.356732
 30
0.0
 10
471.248938
 20
298.356732
 30
0.0
 10
471.248938
 20
298.356732
 30
0.0
 10
471.248938
 20
298.356732
 30
0.0
 10
471.248938
 20
298.356732
 30
0.0
 10
471.248938
 20
298.356732
 30
0.0
  0
LWPOLYLINE
  5
113
100
AcDbEntity
  8
Calque_1
 62
7
100
AcDbPolyline
 90
12
 70
1
 10
116.125199
 20
307.413802
 30
0.0
 10
113.125205
 20
307.413802
 30
0.0
 10
113.125205
 20
297.713796
 30
0.0
 10
116.125199
 20
297.713796
 30
0.0
 10
116.125199
 20
307.413802
 30
0.0
 10
116.125199
 20
307.413802
 30
0.0
 10
116.125199
 20
307.413802
 30
0.0
 10
116.125199
 20
307.413802
 30
0.0
 10
116.125199
 20
307.413802
 30
0.0
 10
116.125199
 20
307.413802
 30
0.0
 10
116.125199
 20
307.413802
 30
0.0
 10
116.125199
 20
307.413802
 30
0.0
  0
LWPOLYLINE
  5
114
100
AcDbEntity
  8
Calque_1
 62
7
100
AcDbPolyline
 90
36
 70
1
 10
113.125205
 20
343.993809
 30
0.0
 10
113.125205
 20
345.743812
 30
0.0
 10
108.125215
 20
345.743812
 30
0.0
 10
108.125215
 20
350.743802
 30
0.0
 10
121.125217
 20
350.743802
 30
0.0
 10
121.125217
 20
345.743812
 30
0.0
 10
116.125199
 20
345.743812
 30
0.0
 10
116.125199
 20
343.993809
 30
0.0
 10
122.125215
 20
343.993809
 30
0.0
 10
122.125215
 20
339.482884
 30
0.0
 10
124.125211
 20
339.482884
 30
0.0
 10
124.125211
 20
336.482890
 30
0.0
 10
122.125215
 20
336.482890
 30
0.0
 10
122.125215
 20
268.501851
 30
0.0
 10
124.125211
 20
268.501851
 30
0.0
 10
124.125211
 20
265.501854
 30
0.0
 10
122.125215
 20
265.501854
 30
0.0
 10
122.125215
 20
260.993808
 30
0.0
 10
116.125199
 20
260.993808
 30
0.0
 10
116.125199
 20
259.243805
 30
0.0
 10
121.125217
 20
259.243805
 30
0.0
 10
121.125217
 20
254.243815
 30
0.0
 10
108.125215
 20
254.243815
 30
0.0
 10
108.125215
 20
259.243805
 30
0.0
 10
113.125205
 20
259.243805
 30
0.0
 10
113.125205
 20
260.993808
 30
0.0
 10
108.125215
 20
260.993808
 30
0.0
 10
108.125215
 20
343.993809
 30
0.0
 10
113.125205
 20
343.993809
 30
0.0
 10
113.125205
 20
343.993809
 30
0.0
 10
113.125205
 20
343.993809
 30
0.0
 10
113.125205
 20
343.993809
 30
0.0
 10
113.125205
 20
343.993809
 30
0.0
 10
113.125205
 20
343.993809
 30
0.0
 10
113.125205
 20
343.993809
 30
0.0
 10
113.125205
 20
343.993809
 30
0.0
  0
LWPOLYLINE
  5
115
100
AcDbEntity
  8
Calque_1
 62
7
100
AcDbPolyline
 90
12
 70
1
 10
307.322841
 20
354.026258
 30
0.0
 10
304.322847
 20
354.026258
 30
0.0
 10
304.322847
 20
344.326252
 30
0.0
 10
307.322841
 20
344.326252
 30
0.0
 10
307.322841
 20
354.026258
 30
0.0
 10
307.322841
 20
354.026258
 30
0.0
 10
307.322841
 20
354.026258
 30
0.0
 10
307.322841
 20
354.026258
 30
0.0
 10
307.322841
 20
354.026258
 30
0.0
 10
307.322841
 20
354.026258
 30
0.0
 10
307.322841
 20
354.026258
 30
0.0
 10
307.322841
 20
354.026258
 30
0.0
  0
LWPOLYLINE
  5
116
100
AcDbEntity
  8
Calque_1
 62
7
100
AcDbPolyline
 90
36
 70
1
 10
304.322847
 20
390.606269
 30
0.0
 10
304.322847
 20
392.356272
 30
0.0
 10
299.322857
 20
392.356272
 30
0.0
 10
299.322857
 20
397.356262
 30
0.0
 10
312.322859
 20
397.356262
 30
0.0
 10
312.322859
 20
392.356272
 30
0.0
 10
307.322841
 20
392.356272
 30
0.0
 10
307.322841
 20
390.606269
 30
0.0
 10
313.322857
 20
390.606269
 30
0.0
 10
313.322857
 20
386.095342
 30
0.0
 10
315.322853
 20
386.095342
 30
0.0
 10
315.322853
 20
383.095348
 30
0.0
 10
313.322857
 20
383.095348
 30
0.0
 10
313.322857
 20
315.114303
 30
0.0
 10
315.322853
 20
315.114303
 30
0.0
 10
315.322853
 20
312.114312
 30
0.0
 10
313.322857
 20
312.114312
 30
0.0
 10
313.322857
 20
307.606264
 30
0.0
 10
307.322841
 20
307.606264
 30
0.0
 10
307.322841
 20
305.856257
 30
0.0
 10
312.322859
 20
305.856257
 30
0.0
 10
312.322859
 20
300.856267
 30
0.0
 10
299.322857
 20
300.856267
 30
0.0
 10
299.322857
 20
305.856257
 30
0.0
 10
304.322847
 20
305.856257
 30
0.0
 10
304.322847
 20
307.606264
 30
0.0
 10
299.322857
 20
307.606264
 30
0.0
 10
299.322857
 20
390.606269
 30
0.0
 10
304.322847
 20
390.606269
 30
0.0
 10
304.322847
 20
390.606269
 30
0.0
 10
304.322847
 20
390.606269
 30
0.0
 10
304.322847
 20
390.606269
 30
0.0
 10
304.322847
 20
390.606269
 30
0.0
 10
304.322847
 20
390.606269
 30
0.0
 10
304.322847
 20
390.606269
 30
0.0
 10
304.322847
 20
390.606269
 30
0.0
  0
LWPOLYLINE
  5
117
100
AcDbEntity
  8
Calque_1
 62
7
100
AcDbPolyline
 90
44
 70
1
 10
226.101930
 20
266.960771
 30
0.0
 10
226.101930
 20
262.960773
 30
0.0
 10
238.101931
 20
262.960773
 30
0.0
 10
238.101931
 20
266.960771
 30
0.0
 10
255.101925
 20
266.960771
 30
0.0
 10
255.101925
 20
261.960769
 30
0.0
 10
258.101919
 20
261.960769
 30
0.0
 10
258.101919
 20
266.960771
 30
0.0
 10
264.101936
 20
266.960771
 30
0.0
 10
264.101936
 20
253.960763
 30
0.0
 10
258.101919
 20
253.960763
 30
0.0
 10
258.101919
 20
258.960770
 30
0.0
 10
255.101925
 20
258.960770
 30
0.0
 10
255.101925
 20
253.960763
 30
0.0
 10
218.668535
 20
253.960763
 30
0.0
 10
218.668535
 20
251.960767
 30
0.0
 10
215.668513
 20
251.960767
 30
0.0
 10
215.668513
 20
253.960763
 30
0.0
 10
196.024887
 20
253.960763
 30
0.0
 10
196.024887
 20
251.960767
 30
0.0
 10
193.024893
 20
251.960767
 30
0.0
 10
193.024893
 20
253.960763
 30
0.0
 10
156.601942
 20
253.960763
 30
0.0
 10
156.601942
 20
258.960770
 30
0.0
 10
153.601948
 20
258.960770
 30
0.0
 10
153.601948
 20
253.960763
 30
0.0
 10
147.601960
 20
253.960763
 30
0.0
 10
147.601960
 20
266.960771
 30
0.0
 10
153.601948
 20
266.960771
 30
0.0
 10
153.601948
 20
261.960769
 30
0.0
 10
156.601942
 20
261.960769
 30
0.0
 10
156.601942
 20
266.960771
 30
0.0
 10
174.601962
 20
266.960771
 30
0.0
 10
174.601962
 20
262.960773
 30
0.0
 10
186.601966
 20
262.960773
 30
0.0
 10
186.601966
 20
266.960771
 30
0.0
 10
226.101930
 20
266.960771
 30
0.0
 10
226.101930
 20
266.960771
 30
0.0
 10
226.101930
 20
266.960771
 30
0.0
 10
226.101930
 20
266.960771
 30
0.0
 10
226.101930
 20
266.960771
 30
0.0
 10
226.101930
 20
266.960771
 30
0.0
 10
226.101930
 20
266.960771
 30
0.0
 10
226.101930
 20
266.960771
 30
0.0
  0
LWPOLYLINE
  5
118
100
AcDbEntity
  8
Calque_1
 62
7
100
AcDbPolyline
 90
44
 70
1
 10
56.120950
 20
314.244998
 30
0.0
 10
60.120951
 20
314.244998
 30
0.0
 10
60.120951
 20
326.245003
 30
0.0
 10
56.120950
 20
326.245003
 30
0.0
 10
56.120950
 20
343.244997
 30
0.0
 10
61.120951
 20
343.244997
 30
0.0
 10
61.120951
 20
346.244991
 30
0.0
 10
56.120950
 20
346.244991
 30
0.0
 10
56.120950
 20
352.245004
 30
0.0
 10
69.120952
 20
352.245004
 30
0.0
 10
69.120952
 20
346.244991
 30
0.0
 10
64.120951
 20
346.244991
 30
0.0
 10
64.120951
 20
343.244997
 30
0.0
 10
69.120952
 20
343.244997
 30
0.0
 10
69.120952
 20
306.811603
 30
0.0
 10
71.120951
 20
306.811603
 30
0.0
 10
71.120951
 20
303.811581
 30
0.0
 10
69.120952
 20
303.811581
 30
0.0
 10
69.120952
 20
284.167967
 30
0.0
 10
71.120951
 20
284.167967
 30
0.0
 10
71.120951
 20
281.167973
 30
0.0
 10
69.120952
 20
281.167973
 30
0.0
 10
69.120952
 20
244.745022
 30
0.0
 10
64.120951
 20
244.745022
 30
0.0
 10
64.120951
 20
241.745028
 30
0.0
 10
69.120952
 20
241.745028
 30
0.0
 10
69.120952
 20
235.745040
 30
0.0
 10
56.120950
 20
235.745040
 30
0.0
 10
56.120950
 20
241.745028
 30
0.0
 10
61.120951
 20
241.745028
 30
0.0
 10
61.120951
 20
244.745022
 30
0.0
 10
56.120950
 20
244.745022
 30
0.0
 10
56.120950
 20
262.745039
 30
0.0
 10
60.120951
 20
262.745039
 30
0.0
 10
60.120951
 20
274.745046
 30
0.0
 10
56.120950
 20
274.745046
 30
0.0
 10
56.120950
 20
314.244998
 30
0.0
 10
56.120950
 20
314.244998
 30
0.0
 10
56.120950
 20
314.244998
 30
0.0
 10
56.120950
 20
314.244998
 30
0.0
 10
56.120950
 20
314.244998
 30
0.0
 10
56.120950
 20
314.244998
 30
0.0
 10
56.120950
 20
314.244998
 30
0.0
 10
56.120950
 20
314.244998
 30
0.0
  0
LWPOLYLINE
  5
119
100
AcDbEntity
  8
Calque_1
 62
7
100
AcDbPolyline
 90
12
 70
1
 10
363.122859
 20
335.449918
 30
0.0
 10
350.122857
 20
335.449918
 30
0.0
 10
350.122857
 20
332.449924
 30
0.0
 10
363.122859
 20
332.449924
 30
0.0
 10
363.122859
 20
335.449918
 30
0.0
 10
363.122859
 20
335.449918
 30
0.0
 10
363.122859
 20
335.449918
 30
0.0
 10
363.122859
 20
335.449918
 30
0.0
 10
363.122859
 20
335.449918
 30
0.0
 10
363.122859
 20
335.449918
 30
0.0
 10
363.122859
 20
335.449918
 30
0.0
 10
363.122859
 20
335.449918
 30
0.0
  0
LWPOLYLINE
  5
11a
100
AcDbEntity
  8
Calque_1
 62
7
100
AcDbPolyline
 90
12
 70
1
 10
363.122859
 20
364.149911
 30
0.0
 10
350.122857
 20
364.149911
 30
0.0
 10
350.122857
 20
361.149917
 30
0.0
 10
363.122859
 20
361.149917
 30
0.0
 10
363.122859
 20
364.149911
 30
0.0
 10
363.122859
 20
364.149911
 30
0.0
 10
363.122859
 20
364.149911
 30
0.0
 10
363.122859
 20
364.149911
 30
0.0
 10
363.122859
 20
364.149911
 30
0.0
 10
363.122859
 20
364.149911
 30
0.0
 10
363.122859
 20
364.149911
 30
0.0
 10
363.122859
 20
364.149911
 30
0.0
  0
LWPOLYLINE
  5
11b
100
AcDbEntity
  8
Calque_1
 62
7
100
AcDbPolyline
 90
44
 70
1
 10
363.122859
 20
391.049922
 30
0.0
 10
358.122841
 20
391.049922
 30
0.0
 10
358.122841
 20
388.049928
 30
0.0
 10
363.122859
 20
388.049928
 30
0.0
 10
363.122859
 20
370.049936
 30
0.0
 10
371.122843
 20
370.049936
 30
0.0
 10
371.122843
 20
355.049909
 30
0.0
 10
363.122859
 20
355.049909
 30
0.0
 10
363.122859
 20
341.549922
 30
0.0
 10
371.122843
 20
341.549922
 30
0.0
 10
371.122843
 20
326.549924
 30
0.0
 10
363.122859
 20
326.549924
 30
0.0
 10
363.122859
 20
308.549922
 30
0.0
 10
358.122841
 20
308.549922
 30
0.0
 10
358.122841
 20
305.549899
 30
0.0
 10
363.122859
 20
305.549899
 30
0.0
 10
363.122859
 20
299.549911
 30
0.0
 10
350.122857
 20
299.549911
 30
0.0
 10
350.122857
 20
305.549899
 30
0.0
 10
355.122847
 20
305.549899
 30
0.0
 10
355.122847
 20
308.549922
 30
0.0
 10
350.122857
 20
308.549922
 30
0.0
 10
350.122857
 20
326.549924
 30
0.0
 10
345.122839
 20
326.549924
 30
0.0
 10
345.122839
 20
341.549922
 30
0.0
 10
350.122857
 20
341.549922
 30
0.0
 10
350.122857
 20
355.049909
 30
0.0
 10
345.122839
 20
355.049909
 30
0.0
 10
345.122839
 20
370.049936
 30
0.0
 10
350.122857
 20
370.049936
 30
0.0
 10
350.122857
 20
388.049928
 30
0.0
 10
355.122847
 20
388.049928
 30
0.0
 10
355.122847
 20
391.049922
 30
0.0
 10
350.122857
 20
391.049922
 30
0.0
 10
350.122857
 20
397.049910
 30
0.0
 10
363.122859
 20
397.049910
 30
0.0
 10
363.122859
 20
391.049922
 30
0.0
 10
363.122859
 20
391.049922
 30
0.0
 10
363.122859
 20
391.049922
 30
0.0
 10
363.122859
 20
391.049922
 30
0.0
 10
363.122859
 20
391.049922
 30
0.0
 10
363.122859
 20
391.049922
 30
0.0
 10
363.122859
 20
391.049922
 30
0.0
 10
363.122859
 20
391.049922
 30
0.0
  0
LWPOLYLINE
  5
11c
100
AcDbEntity
  8
Calque_1
 62
7
100
AcDbPolyline
 90
12
 70
1
 10
333.287934
 20
336.336917
 30
0.0
 10
320.287932
 20
336.336917
 30
0.0
 10
320.287932
 20
333.336923
 30
0.0
 10
333.287934
 20
333.336923
 30
0.0
 10
333.287934
 20
336.336917
 30
0.0
 10
333.287934
 20
336.336917
 30
0.0
 10
333.287934
 20
336.336917
 30
0.0
 10
333.287934
 20
336.336917
 30
0.0
 10
333.287934
 20
336.336917
 30
0.0
 10
333.287934
 20
336.336917
 30
0.0
 10
333.287934
 20
336.336917
 30
0.0
 10
333.287934
 20
336.336917
 30
0.0
  0
LWPOLYLINE
  5
11d
100
AcDbEntity
  8
Calque_1
 62
7
100
AcDbPolyline
 90
12
 70
1
 10
333.287934
 20
365.036896
 30
0.0
 10
320.287932
 20
365.036896
 30
0.0
 10
320.287932
 20
362.036902
 30
0.0
 10
333.287934
 20
362.036902
 30
0.0
 10
333.287934
 20
365.036896
 30
0.0
 10
333.287934
 20
365.036896
 30
0.0
 10
333.287934
 20
365.036896
 30
0.0
 10
333.287934
 20
365.036896
 30
0.0
 10
333.287934
 20
365.036896
 30
0.0
 10
333.287934
 20
365.036896
 30
0.0
 10
333.287934
 20
365.036896
 30
0.0
 10
333.287934
 20
365.036896
 30
0.0
  0
LWPOLYLINE
  5
11e
100
AcDbEntity
  8
Calque_1
 62
7
100
AcDbPolyline
 90
44
 70
1
 10
333.287934
 20
391.936907
 30
0.0
 10
328.287944
 20
391.936907
 30
0.0
 10
328.287944
 20
388.936913
 30
0.0
 10
333.287934
 20
388.936913
 30
0.0
 10
333.287934
 20
370.936924
 30
0.0
 10
341.287918
 20
370.936924
 30
0.0
 10
341.287918
 20
355.936894
 30
0.0
 10
333.287934
 20
355.936894
 30
0.0
 10
333.287934
 20
342.436921
 30
0.0
 10
341.287918
 20
342.436921
 30
0.0
 10
341.287918
 20
327.436923
 30
0.0
 10
333.287934
 20
327.436923
 30
0.0
 10
333.287934
 20
309.436932
 30
0.0
 10
328.287944
 20
309.436932
 30
0.0
 10
328.287944
 20
306.436910
 30
0.0
 10
333.287934
 20
306.436910
 30
0.0
 10
333.287934
 20
300.436922
 30
0.0
 10
320.287932
 20
300.436922
 30
0.0
 10
320.287932
 20
306.436910
 30
0.0
 10
325.287922
 20
306.436910
 30
0.0
 10
325.287922
 20
309.436932
 30
0.0
 10
320.287932
 20
309.436932
 30
0.0
 10
320.287932
 20
327.436923
 30
0.0
 10
315.287942
 20
327.436923
 30
0.0
 10
315.287942
 20
342.436921
 30
0.0
 10
320.287932
 20
342.436921
 30
0.0
 10
320.287932
 20
355.936894
 30
0.0
 10
315.287942
 20
355.936894
 30
0.0
 10
315.287942
 20
370.936924
 30
0.0
 10
320.287932
 20
370.936924
 30
0.0
 10
320.287932
 20
388.936913
 30
0.0
 10
325.287922
 20
388.936913
 30
0.0
 10
325.287922
 20
391.936907
 30
0.0
 10
320.287932
 20
391.936907
 30
0.0
 10
320.287932
 20
397.936895
 30
0.0
 10
333.287934
 20
397.936895
 30
0.0
 10
333.287934
 20
391.936907
 30
0.0
 10
333.287934
 20
391.936907
 30
0.0
 10
333.287934
 20
391.936907
 30
0.0
 10
333.287934
 20
391.936907
 30
0.0
 10
333.287934
 20
391.936907
 30
0.0
 10
333.287934
 20
391.936907
 30
0.0
 10
333.287934
 20
391.936907
 30
0.0
 10
333.287934
 20
391.936907
 30
0.0
  0
LWPOLYLINE
  5
11f
100
AcDbEntity
  8
Calque_1
 62
7
100
AcDbPolyline
 90
12
 70
1
 10
196.674929
 20
304.034069
 30
0.0
 10
196.674929
 20
319.034067
 30
0.0
 10
193.674935
 20
319.034067
 30
0.0
 10
193.674935
 20
304.034069
 30
0.0
 10
196.674929
 20
304.034069
 30
0.0
 10
196.674929
 20
304.034069
 30
0.0
 10
196.674929
 20
304.034069
 30
0.0
 10
196.674929
 20
304.034069
 30
0.0
 10
196.674929
 20
304.034069
 30
0.0
 10
196.674929
 20
304.034069
 30
0.0
 10
196.674929
 20
304.034069
 30
0.0
 10
196.674929
 20
304.034069
 30
0.0
  0
LWPOLYLINE
  5
120
100
AcDbEntity
  8
Calque_1
 62
7
100
AcDbPolyline
 90
12
 70
1
 10
200.074945
 20
313.134067
 30
0.0
 10
200.074945
 20
310.134073
 30
0.0
 10
212.074921
 20
310.134073
 30
0.0
 10
212.074921
 20
313.134067
 30
0.0
 10
200.074945
 20
313.134067
 30
0.0
 10
200.074945
 20
313.134067
 30
0.0
 10
200.074945
 20
313.134067
 30
0.0
 10
200.074945
 20
313.134067
 30
0.0
 10
200.074945
 20
313.134067
 30
0.0
 10
200.074945
 20
313.134067
 30
0.0
 10
200.074945
 20
313.134067
 30
0.0
 10
200.074945
 20
313.134067
 30
0.0
  0
LWPOLYLINE
  5
121
100
AcDbEntity
  8
Calque_1
 62
7
100
AcDbPolyline
 90
12
 70
1
 10
196.674929
 20
275.534080
 30
0.0
 10
196.674929
 20
290.534082
 30
0.0
 10
193.674935
 20
290.534082
 30
0.0
 10
193.674935
 20
275.534080
 30
0.0
 10
196.674929
 20
275.534080
 30
0.0
 10
196.674929
 20
275.534080
 30
0.0
 10
196.674929
 20
275.534080
 30
0.0
 10
196.674929
 20
275.534080
 30
0.0
 10
196.674929
 20
275.534080
 30
0.0
 10
196.674929
 20
275.534080
 30
0.0
 10
196.674929
 20
275.534080
 30
0.0
 10
196.674929
 20
275.534080
 30
0.0
  0
LWPOLYLINE
  5
122
100
AcDbEntity
  8
Calque_1
 62
7
100
AcDbPolyline
 90
12
 70
1
 10
167.974933
 20
304.034069
 30
0.0
 10
167.974933
 20
319.034067
 30
0.0
 10
164.974939
 20
319.034067
 30
0.0
 10
164.974939
 20
304.034069
 30
0.0
 10
167.974933
 20
304.034069
 30
0.0
 10
167.974933
 20
304.034069
 30
0.0
 10
167.974933
 20
304.034069
 30
0.0
 10
167.974933
 20
304.034069
 30
0.0
 10
167.974933
 20
304.034069
 30
0.0
 10
167.974933
 20
304.034069
 30
0.0
 10
167.974933
 20
304.034069
 30
0.0
 10
167.974933
 20
304.034069
 30
0.0
  0
LWPOLYLINE
  5
123
100
AcDbEntity
  8
Calque_1
 62
7
100
AcDbPolyline
 90
12
 70
1
 10
200.074945
 20
284.434071
 30
0.0
 10
200.074945
 20
281.434077
 30
0.0
 10
212.074921
 20
281.434077
 30
0.0
 10
212.074921
 20
284.434071
 30
0.0
 10
200.074945
 20
284.434071
 30
0.0
 10
200.074945
 20
284.434071
 30
0.0
 10
200.074945
 20
284.434071
 30
0.0
 10
200.074945
 20
284.434071
 30
0.0
 10
200.074945
 20
284.434071
 30
0.0
 10
200.074945
 20
284.434071
 30
0.0
 10
200.074945
 20
284.434071
 30
0.0
 10
200.074945
 20
284.434071
 30
0.0
  0
LWPOLYLINE
  5
124
100
AcDbEntity
  8
Calque_1
 62
7
100
AcDbPolyline
 90
12
 70
1
 10
144.885430
 20
321.200825
 30
0.0
 10
215.885429
 20
321.200825
 30
0.0
 10
215.885429
 20
273.500810
 30
0.0
 10
144.885430
 20
273.500810
 30
0.0
 10
144.885430
 20
321.200825
 30
0.0
 10
144.885430
 20
321.200825
 30
0.0
 10
144.885430
 20
321.200825
 30
0.0
 10
144.885430
 20
321.200825
 30
0.0
 10
144.885430
 20
321.200825
 30
0.0
 10
144.885430
 20
321.200825
 30
0.0
 10
144.885430
 20
321.200825
 30
0.0
 10
144.885430
 20
321.200825
 30
0.0
  0
LWPOLYLINE
  5
125
100
AcDbEntity
  8
Calque_1
 62
7
100
AcDbPolyline
 90
12
 70
1
 10
160.574925
 20
281.434077
 30
0.0
 10
160.574925
 20
284.434071
 30
0.0
 10
148.574921
 20
284.434071
 30
0.0
 10
148.574921
 20
281.434077
 30
0.0
 10
160.574925
 20
281.434077
 30
0.0
 10
160.574925
 20
281.434077
 30
0.0
 10
160.574925
 20
281.434077
 30
0.0
 10
160.574925
 20
281.434077
 30
0.0
 10
160.574925
 20
281.434077
 30
0.0
 10
160.574925
 20
281.434077
 30
0.0
 10
160.574925
 20
281.434077
 30
0.0
 10
160.574925
 20
281.434077
 30
0.0
  0
LWPOLYLINE
  5
126
100
AcDbEntity
  8
Calque_1
 62
7
100
AcDbPolyline
 90
12
 70
1
 10
160.574925
 20
310.134073
 30
0.0
 10
160.574925
 20
313.134067
 30
0.0
 10
148.574921
 20
313.134067
 30
0.0
 10
148.574921
 20
310.134073
 30
0.0
 10
160.574925
 20
310.134073
 30
0.0
 10
160.574925
 20
310.134073
 30
0.0
 10
160.574925
 20
310.134073
 30
0.0
 10
160.574925
 20
310.134073
 30
0.0
 10
160.574925
 20
310.134073
 30
0.0
 10
160.574925
 20
310.134073
 30
0.0
 10
160.574925
 20
310.134073
 30
0.0
 10
160.574925
 20
310.134073
 30
0.0
  0
LWPOLYLINE
  5
127
100
AcDbEntity
  8
Calque_1
 62
7
100
AcDbPolyline
 90
12
 70
1
 10
164.974939
 20
290.534082
 30
0.0
 10
164.974939
 20
275.534080
 30
0.0
 10
167.974933
 20
275.534080
 30
0.0
 10
167.974933
 20
290.534082
 30
0.0
 10
164.974939
 20
290.534082
 30
0.0
 10
164.974939
 20
290.534082
 30
0.0
 10
164.974939
 20
290.534082
 30
0.0
 10
164.974939
 20
290.534082
 30
0.0
 10
164.974939
 20
290.534082
 30
0.0
 10
164.974939
 20
290.534082
 30
0.0
 10
164.974939
 20
290.534082
 30
0.0
 10
164.974939
 20
290.534082
 30
0.0
  0
LWPOLYLINE
  5
128
100
AcDbEntity
  8
Calque_1
 62
7
100
AcDbPolyline
 90
12
 70
1
 10
371.086888
 20
259.093346
 30
0.0
 10
374.086882
 20
259.093346
 30
0.0
 10
374.086882
 20
270.093353
 30
0.0
 10
371.086888
 20
270.093353
 30
0.0
 10
371.086888
 20
259.093346
 30
0.0
 10
371.086888
 20
259.093346
 30
0.0
 10
371.086888
 20
259.093346
 30
0.0
 10
371.086888
 20
259.093346
 30
0.0
 10
371.086888
 20
259.093346
 30
0.0
 10
371.086888
 20
259.093346
 30
0.0
 10
371.086888
 20
259.093346
 30
0.0
 10
371.086888
 20
259.093346
 30
0.0
  0
LWPOLYLINE
  5
129
100
AcDbEntity
  8
Calque_1
 62
7
100
AcDbPolyline
 90
12
 70
1
 10
379.086872
 20
307.153333
 30
0.0
 10
369.086892
 20
307.153333
 30
0.0
 10
369.086892
 20
304.153342
 30
0.0
 10
379.086872
 20
304.153342
 30
0.0
 10
379.086872
 20
307.153333
 30
0.0
 10
379.086872
 20
307.153333
 30
0.0
 10
379.086872
 20
307.153333
 30
0.0
 10
379.086872
 20
307.153333
 30
0.0
 10
379.086872
 20
307.153333
 30
0.0
 10
379.086872
 20
307.153333
 30
0.0
 10
379.086872
 20
307.153333
 30
0.0
 10
379.086872
 20
307.153333
 30
0.0
  0
LWPOLYLINE
  5
12a
100
AcDbEntity
  8
Calque_1
 62
7
100
AcDbPolyline
 90
12
 70
1
 10
379.086872
 20
224.153332
 30
0.0
 10
369.086892
 20
224.153332
 30
0.0
 10
369.086892
 20
221.153338
 30
0.0
 10
379.086872
 20
221.153338
 30
0.0
 10
379.086872
 20
224.153332
 30
0.0
 10
379.086872
 20
224.153332
 30
0.0
 10
379.086872
 20
224.153332
 30
0.0
 10
379.086872
 20
224.153332
 30
0.0
 10
379.086872
 20
224.153332
 30
0.0
 10
379.086872
 20
224.153332
 30
0.0
 10
379.086872
 20
224.153332
 30
0.0
 10
379.086872
 20
224.153332
 30
0.0
  0
LWPOLYLINE
  5
12b
100
AcDbEntity
  8
Calque_1
 62
7
100
AcDbPolyline
 90
24
 70
1
 10
367.086868
 20
206.403332
 30
0.0
 10
367.086868
 20
321.903342
 30
0.0
 10
379.086872
 20
321.903342
 30
0.0
 10
379.086872
 20
316.903352
 30
0.0
 10
374.086882
 20
316.903352
 30
0.0
 10
374.086882
 20
315.153345
 30
0.0
 10
384.086918
 20
315.153345
 30
0.0
 10
384.086918
 20
296.153330
 30
0.0
 10
376.086878
 20
296.153330
 30
0.0
 10
376.086878
 20
232.153344
 30
0.0
 10
384.086918
 20
232.153344
 30
0.0
 10
384.086918
 20
213.153354
 30
0.0
 10
374.086882
 20
213.153354
 30
0.0
 10
374.086882
 20
211.403351
 30
0.0
 10
379.086872
 20
211.403351
 30
0.0
 10
379.086872
 20
206.403332
 30
0.0
 10
367.086868
 20
206.403332
 30
0.0
 10
367.086868
 20
206.403332
 30
0.0
 10
367.086868
 20
206.403332
 30
0.0
 10
367.086868
 20
206.403332
 30
0.0
 10
367.086868
 20
206.403332
 30
0.0
 10
367.086868
 20
206.403332
 30
0.0
 10
367.086868
 20
206.403332
 30
0.0
 10
367.086868
 20
206.403332
 30
0.0
  0
LWPOLYLINE
  5
12c
100
AcDbEntity
  8
Calque_1
 62
7
100
AcDbPolyline
 90
12
 70
1
 10
391.677708
 20
260.019856
 30
0.0
 10
394.677702
 20
260.019856
 30
0.0
 10
394.677702
 20
271.019862
 30
0.0
 10
391.677708
 20
271.019862
 30
0.0
 10
391.677708
 20
260.019856
 30
0.0
 10
391.677708
 20
260.019856
 30
0.0
 10
391.677708
 20
260.019856
 30
0.0
 10
391.677708
 20
260.019856
 30
0.0
 10
391.677708
 20
260.019856
 30
0.0
 10
391.677708
 20
260.019856
 30
0.0
 10
391.677708
 20
260.019856
 30
0.0
 10
391.677708
 20
260.019856
 30
0.0
  0
LWPOLYLINE
  5
12d
100
AcDbEntity
  8
Calque_1
 62
7
100
AcDbPolyline
 90
12
 70
1
 10
399.677692
 20
308.079845
 30
0.0
 10
389.677712
 20
308.079845
 30
0.0
 10
389.677712
 20
305.079851
 30
0.0
 10
399.677692
 20
305.079851
 30
0.0
 10
399.677692
 20
308.079845
 30
0.0
 10
399.677692
 20
308.079845
 30
0.0
 10
399.677692
 20
308.079845
 30
0.0
 10
399.677692
 20
308.079845
 30
0.0
 10
399.677692
 20
308.079845
 30
0.0
 10
399.677692
 20
308.079845
 30
0.0
 10
399.677692
 20
308.079845
 30
0.0
 10
399.677692
 20
308.079845
 30
0.0
  0
LWPOLYLINE
  5
12e
100
AcDbEntity
  8
Calque_1
 62
7
100
AcDbPolyline
 90
12
 70
1
 10
399.677692
 20
225.079839
 30
0.0
 10
389.677712
 20
225.079839
 30
0.0
 10
389.677712
 20
222.079845
 30
0.0
 10
399.677692
 20
222.079845
 30
0.0
 10
399.677692
 20
225.079839
 30
0.0
 10
399.677692
 20
225.079839
 30
0.0
 10
399.677692
 20
225.079839
 30
0.0
 10
399.677692
 20
225.079839
 30
0.0
 10
399.677692
 20
225.079839
 30
0.0
 10
399.677692
 20
225.079839
 30
0.0
 10
399.677692
 20
225.079839
 30
0.0
 10
399.677692
 20
225.079839
 30
0.0
  0
LWPOLYLINE
  5
12f
100
AcDbEntity
  8
Calque_1
 62
7
100
AcDbPolyline
 90
24
 70
1
 10
387.677688
 20
207.329842
 30
0.0
 10
387.677688
 20
322.829851
 30
0.0
 10
399.677692
 20
322.829851
 30
0.0
 10
399.677692
 20
317.829861
 30
0.0
 10
394.677702
 20
317.829861
 30
0.0
 10
394.677702
 20
316.079857
 30
0.0
 10
404.677711
 20
316.079857
 30
0.0
 10
404.677711
 20
297.079839
 30
0.0
 10
396.677698
 20
297.079839
 30
0.0
 10
396.677698
 20
233.079854
 30
0.0
 10
404.677711
 20
233.079854
 30
0.0
 10
404.677711
 20
214.079861
 30
0.0
 10
394.677702
 20
214.079861
 30
0.0
 10
394.677702
 20
212.329861
 30
0.0
 10
399.677692
 20
212.329861
 30
0.0
 10
399.677692
 20
207.329842
 30
0.0
 10
387.677688
 20
207.329842
 30
0.0
 10
387.677688
 20
207.329842
 30
0.0
 10
387.677688
 20
207.329842
 30
0.0
 10
387.677688
 20
207.329842
 30
0.0
 10
387.677688
 20
207.329842
 30
0.0
 10
387.677688
 20
207.329842
 30
0.0
 10
387.677688
 20
207.329842
 30
0.0
 10
387.677688
 20
207.329842
 30
0.0
  0
LWPOLYLINE
  5
130
100
AcDbEntity
  8
Calque_1
 62
7
100
AcDbPolyline
 90
12
 70
1
 10
11.755732
 20
321.665637
 30
0.0
 10
8.755738
 20
321.665637
 30
0.0
 10
8.755738
 20
311.965631
 30
0.0
 10
11.755732
 20
311.965631
 30
0.0
 10
11.755732
 20
321.665637
 30
0.0
 10
11.755732
 20
321.665637
 30
0.0
 10
11.755732
 20
321.665637
 30
0.0
 10
11.755732
 20
321.665637
 30
0.0
 10
11.755732
 20
321.665637
 30
0.0
 10
11.755732
 20
321.665637
 30
0.0
 10
11.755732
 20
321.665637
 30
0.0
 10
11.755732
 20
321.665637
 30
0.0
  0
LWPOLYLINE
  5
131
100
AcDbEntity
  8
Calque_1
 62
7
100
AcDbPolyline
 90
28
 70
1
 10
6.755742
 20
353.724430
 30
0.0
 10
6.755742
 20
364.995629
 30
0.0
 10
16.755751
 20
364.995629
 30
0.0
 10
16.755751
 20
359.995631
 30
0.0
 10
11.755732
 20
359.995631
 30
0.0
 10
11.755732
 20
358.245633
 30
0.0
 10
16.755751
 20
358.245633
 30
0.0
 10
16.755751
 20
275.245643
 30
0.0
 10
11.755732
 20
275.245643
 30
0.0
 10
11.755732
 20
273.495640
 30
0.0
 10
16.755751
 20
273.495640
 30
0.0
 10
16.755751
 20
268.495622
 30
0.0
 10
6.755742
 20
268.495622
 30
0.0
 10
6.755742
 20
279.750841
 30
0.0
 10
5.755744
 20
279.750841
 30
0.0
 10
5.755744
 20
282.750863
 30
0.0
 10
6.755742
 20
282.750863
 30
0.0
 10
6.755742
 20
350.724428
 30
0.0
 10
5.755744
 20
350.724428
 30
0.0
 10
5.755744
 20
353.724430
 30
0.0
 10
6.755742
 20
353.724430
 30
0.0
 10
6.755742
 20
353.724430
 30
0.0
 10
6.755742
 20
353.724430
 30
0.0
 10
6.755742
 20
353.724430
 30
0.0
 10
6.755742
 20
353.724430
 30
0.0
 10
6.755742
 20
353.724430
 30
0.0
 10
6.755742
 20
353.724430
 30
0.0
 10
6.755742
 20
353.724430
 30
0.0
  0
LWPOLYLINE
  5
132
100
AcDbEntity
  8
Calque_1
 62
7
100
AcDbPolyline
 90
12
 70
1
 10
28.678767
 20
322.345734
 30
0.0
 10
25.678773
 20
322.345734
 30
0.0
 10
25.678773
 20
312.645728
 30
0.0
 10
28.678767
 20
312.645728
 30
0.0
 10
28.678767
 20
322.345734
 30
0.0
 10
28.678767
 20
322.345734
 30
0.0
 10
28.678767
 20
322.345734
 30
0.0
 10
28.678767
 20
322.345734
 30
0.0
 10
28.678767
 20
322.345734
 30
0.0
 10
28.678767
 20
322.345734
 30
0.0
 10
28.678767
 20
322.345734
 30
0.0
 10
28.678767
 20
322.345734
 30
0.0
  0
LWPOLYLINE
  5
133
100
AcDbEntity
  8
Calque_1
 62
7
100
AcDbPolyline
 90
28
 70
1
 10
23.678777
 20
354.404521
 30
0.0
 10
23.678777
 20
365.675723
 30
0.0
 10
33.678786
 20
365.675723
 30
0.0
 10
33.678786
 20
360.675727
 30
0.0
 10
28.678767
 20
360.675727
 30
0.0
 10
28.678767
 20
358.925724
 30
0.0
 10
33.678786
 20
358.925724
 30
0.0
 10
33.678786
 20
275.925738
 30
0.0
 10
28.678767
 20
275.925738
 30
0.0
 10
28.678767
 20
274.175732
 30
0.0
 10
33.678786
 20
274.175732
 30
0.0
 10
33.678786
 20
269.175715
 30
0.0
 10
23.678777
 20
269.175715
 30
0.0
 10
23.678777
 20
280.430936
 30
0.0
 10
22.678779
 20
280.430936
 30
0.0
 10
22.678779
 20
283.430956
 30
0.0
 10
23.678777
 20
283.430956
 30
0.0
 10
23.678777
 20
351.404524
 30
0.0
 10
22.678779
 20
351.404524
 30
0.0
 10
22.678779
 20
354.404521
 30
0.0
 10
23.678777
 20
354.404521
 30
0.0
 10
23.678777
 20
354.404521
 30
0.0
 10
23.678777
 20
354.404521
 30
0.0
 10
23.678777
 20
354.404521
 30
0.0
 10
23.678777
 20
354.404521
 30
0.0
 10
23.678777
 20
354.404521
 30
0.0
 10
23.678777
 20
354.404521
 30
0.0
 10
23.678777
 20
354.404521
 30
0.0
  0
LWPOLYLINE
  5
134
100
AcDbEntity
  8
Calque_1
 62
7
100
AcDbPolyline
 90
44
 70
1
 10
212.233970
 20
359.205420
 30
0.0
 10
215.233964
 20
359.205420
 30
0.0
 10
215.233964
 20
357.205424
 30
0.0
 10
226.280114
 20
357.205424
 30
0.0
 10
226.280114
 20
376.205414
 30
0.0
 10
246.280130
 20
376.205414
 30
0.0
 10
246.280130
 20
396.205431
 30
0.0
 10
257.280108
 20
396.205431
 30
0.0
 10
257.280108
 20
376.205414
 30
0.0
 10
277.280124
 20
376.205414
 30
0.0
 10
277.280124
 20
357.205424
 30
0.0
 10
289.205106
 20
357.205424
 30
0.0
 10
289.205106
 20
359.205420
 30
0.0
 10
292.205128
 20
359.205420
 30
0.0
 10
292.205128
 20
357.205424
 30
0.0
 10
297.280104
 20
357.205424
 30
0.0
 10
297.280104
 20
347.505421
 30
0.0
 10
292.208260
 20
347.505421
 30
0.0
 10
292.208260
 20
345.505425
 30
0.0
 10
289.208266
 20
345.505425
 30
0.0
 10
289.208266
 20
347.505421
 30
0.0
 10
277.280124
 20
347.505421
 30
0.0
 10
277.280124
 20
328.505428
 30
0.0
 10
257.280108
 20
328.505428
 30
0.0
 10
257.280108
 20
308.505412
 30
0.0
 10
246.280130
 20
308.505412
 30
0.0
 10
246.280130
 20
328.505428
 30
0.0
 10
226.280114
 20
328.505428
 30
0.0
 10
226.280114
 20
347.505421
 30
0.0
 10
215.224876
 20
347.505421
 30
0.0
 10
215.224876
 20
345.505425
 30
0.0
 10
212.224882
 20
345.505425
 30
0.0
 10
212.224882
 20
347.505421
 30
0.0
 10
206.280125
 20
347.505421
 30
0.0
 10
206.280125
 20
357.205424
 30
0.0
 10
212.233970
 20
357.205424
 30
0.0
 10
212.233970
 20
359.205420
 30
0.0
 10
212.233970
 20
359.205420
 30
0.0
 10
212.233970
 20
359.205420
 30
0.0
 10
212.233970
 20
359.205420
 30
0.0
 10
212.233970
 20
359.205420
 30
0.0
 10
212.233970
 20
359.205420
 30
0.0
 10
212.233970
 20
359.205420
 30
0.0
 10
212.233970
 20
359.205420
 30
0.0
  0
LWPOLYLINE
  5
135
100
AcDbEntity
  8
Calque_1
 62
7
100
AcDbPolyline
 90
12
 70
1
 10
271.070107
 20
331.285432
 30
0.0
 10
271.070107
 20
344.585437
 30
0.0
 10
268.070113
 20
344.585437
 30
0.0
 10
268.070113
 20
331.285432
 30
0.0
 10
271.070107
 20
331.285432
 30
0.0
 10
271.070107
 20
331.285432
 30
0.0
 10
271.070107
 20
331.285432
 30
0.0
 10
271.070107
 20
331.285432
 30
0.0
 10
271.070107
 20
331.285432
 30
0.0
 10
271.070107
 20
331.285432
 30
0.0
 10
271.070107
 20
331.285432
 30
0.0
 10
271.070107
 20
331.285432
 30
0.0
  0
LWPOLYLINE
  5
136
100
AcDbEntity
  8
Calque_1
 62
7
100
AcDbPolyline
 90
12
 70
1
 10
271.070107
 20
359.985426
 30
0.0
 10
271.070107
 20
373.285433
 30
0.0
 10
268.070113
 20
373.285433
 30
0.0
 10
268.070113
 20
359.985426
 30
0.0
 10
271.070107
 20
359.985426
 30
0.0
 10
271.070107
 20
359.985426
 30
0.0
 10
271.070107
 20
359.985426
 30
0.0
 10
271.070107
 20
359.985426
 30
0.0
 10
271.070107
 20
359.985426
 30
0.0
 10
271.070107
 20
359.985426
 30
0.0
 10
271.070107
 20
359.985426
 30
0.0
 10
271.070107
 20
359.985426
 30
0.0
  0
LWPOLYLINE
  5
137
100
AcDbEntity
  8
Calque_1
 62
7
100
AcDbPolyline
 90
12
 70
1
 10
236.370122
 20
331.285432
 30
0.0
 10
236.370122
 20
344.585437
 30
0.0
 10
233.370128
 20
344.585437
 30
0.0
 10
233.370128
 20
331.285432
 30
0.0
 10
236.370122
 20
331.285432
 30
0.0
 10
236.370122
 20
331.285432
 30
0.0
 10
236.370122
 20
331.285432
 30
0.0
 10
236.370122
 20
331.285432
 30
0.0
 10
236.370122
 20
331.285432
 30
0.0
 10
236.370122
 20
331.285432
 30
0.0
 10
236.370122
 20
331.285432
 30
0.0
 10
236.370122
 20
331.285432
 30
0.0
  0
LWPOLYLINE
  5
138
100
AcDbEntity
  8
Calque_1
 62
7
100
AcDbPolyline
 90
12
 70
1
 10
236.370122
 20
359.985426
 30
0.0
 10
236.370122
 20
373.285433
 30
0.0
 10
233.370128
 20
373.285433
 30
0.0
 10
233.370128
 20
359.985426
 30
0.0
 10
236.370122
 20
359.985426
 30
0.0
 10
236.370122
 20
359.985426
 30
0.0
 10
236.370122
 20
359.985426
 30
0.0
 10
236.370122
 20
359.985426
 30
0.0
 10
236.370122
 20
359.985426
 30
0.0
 10
236.370122
 20
359.985426
 30
0.0
 10
236.370122
 20
359.985426
 30
0.0
 10
236.370122
 20
359.985426
 30
0.0
  0
LWPOLYLINE
  5
139
100
AcDbEntity
  8
Calque_1
 62
7
100
AcDbPolyline
 90
20
 70
1
 10
210.041264
 20
386.128658
 30
0.0
 10
210.041264
 20
383.128658
 30
0.0
 10
223.041266
 20
383.128658
 30
0.0
 10
223.041266
 20
377.978659
 30
0.0
 10
148.041275
 20
377.978659
 30
0.0
 10
148.041275
 20
372.978655
 30
0.0
 10
143.041257
 20
372.978655
 30
0.0
 10
143.041257
 20
396.278659
 30
0.0
 10
148.041275
 20
396.278659
 30
0.0
 10
148.041275
 20
391.278655
 30
0.0
 10
223.041266
 20
391.278655
 30
0.0
 10
223.041266
 20
386.128658
 30
0.0
 10
210.041264
 20
386.128658
 30
0.0
 10
210.041264
 20
386.128658
 30
0.0
 10
210.041264
 20
386.128658
 30
0.0
 10
210.041264
 20
386.128658
 30
0.0
 10
210.041264
 20
386.128658
 30
0.0
 10
210.041264
 20
386.128658
 30
0.0
 10
210.041264
 20
386.128658
 30
0.0
 10
210.041264
 20
386.128658
 30
0.0
  0
LWPOLYLINE
  5
13a
100
AcDbEntity
  8
Calque_1
 62
7
100
AcDbPolyline
 90
20
 70
1
 10
207.550568
 20
245.300884
 30
0.0
 10
207.550568
 20
242.300864
 30
0.0
 10
220.550571
 20
242.300864
 30
0.0
 10
220.550571
 20
237.150870
 30
0.0
 10
145.550580
 20
237.150870
 30
0.0
 10
145.550580
 20
232.150880
 30
0.0
 10
140.550564
 20
232.150880
 30
0.0
 10
140.550564
 20
255.450868
 30
0.0
 10
145.550580
 20
255.450868
 30
0.0
 10
145.550580
 20
250.450878
 30
0.0
 10
220.550571
 20
250.450878
 30
0.0
 10
220.550571
 20
245.300887
 30
0.0
 10
207.550568
 20
245.300887
 30
0.0
 10
207.550568
 20
245.300887
 30
0.0
 10
207.550568
 20
245.300887
 30
0.0
 10
207.550568
 20
245.300884
 30
0.0
 10
207.550568
 20
245.300884
 30
0.0
 10
207.550568
 20
245.300884
 30
0.0
 10
207.550568
 20
245.300884
 30
0.0
 10
207.550568
 20
245.300884
 30
0.0
  0
LWPOLYLINE
  5
13b
100
AcDbEntity
  8
Calque_1
 62
7
100
AcDbPolyline
 90
20
 70
1
 10
350.646012
 20
229.518729
 30
0.0
 10
347.645990
 20
229.518729
 30
0.0
 10
347.645990
 20
216.518727
 30
0.0
 10
342.495999
 20
216.518727
 30
0.0
 10
342.495999
 20
291.518718
 30
0.0
 10
337.496009
 20
291.518718
 30
0.0
 10
337.496009
 20
296.518736
 30
0.0
 10
360.795993
 20
296.518736
 30
0.0
 10
360.795993
 20
291.518718
 30
0.0
 10
355.796003
 20
291.518718
 30
0.0
 10
355.796003
 20
216.518727
 30
0.0
 10
350.646012
 20
216.518727
 30
0.0
 10
350.646012
 20
229.518729
 30
0.0
 10
350.646012
 20
229.518729
 30
0.0
 10
350.646012
 20
229.518729
 30
0.0
 10
350.646012
 20
229.518729
 30
0.0
 10
350.646012
 20
229.518729
 30
0.0
 10
350.646012
 20
229.518729
 30
0.0
 10
350.646012
 20
229.518729
 30
0.0
 10
350.646012
 20
229.518729
 30
0.0
  0
LWPOLYLINE
  5
13c
100
AcDbEntity
  8
Calque_1
 62
7
100
AcDbPolyline
 90
20
 70
1
 10
261.381336
 20
242.099761
 30
0.0
 10
261.381336
 20
245.099784
 30
0.0
 10
248.381334
 20
245.099784
 30
0.0
 10
248.381334
 20
250.249775
 30
0.0
 10
323.381314
 20
250.249775
 30
0.0
 10
323.381314
 20
255.249765
 30
0.0
 10
328.381332
 20
255.249765
 30
0.0
 10
328.381332
 20
231.949780
 30
0.0
 10
323.381314
 20
231.949780
 30
0.0
 10
323.381314
 20
236.949770
 30
0.0
 10
248.381334
 20
236.949770
 30
0.0
 10
248.381334
 20
242.099761
 30
0.0
 10
261.381336
 20
242.099761
 30
0.0
 10
261.381336
 20
242.099761
 30
0.0
 10
261.381336
 20
242.099761
 30
0.0
 10
261.381336
 20
242.099761
 30
0.0
 10
261.381336
 20
242.099761
 30
0.0
 10
261.381336
 20
242.099761
 30
0.0
 10
261.381336
 20
242.099761
 30
0.0
 10
261.381336
 20
242.099761
 30
0.0
  0
LWPOLYLINE
  5
13d
100
AcDbEntity
  8
Calque_1
 62
7
100
AcDbPolyline
 90
42
 70
1
 10
447.639835
 20
372.054476
 30
0.0
 10
447.639835
 20
353.054474
 30
0.0
 10
449.574581
 20
353.054474
 30
0.0
 10
449.574581
 20
355.054476
 30
0.0
 10
452.574575
 20
355.054476
 30
0.0
 10
452.574575
 20
353.054474
 30
0.0
 10
458.639841
 20
353.054474
 30
0.0
 10
458.639841
 20
343.354474
 30
0.0
 10
452.574547
 20
343.354474
 30
0.0
 10
452.574547
 20
341.354475
 30
0.0
 10
449.574553
 20
341.354475
 30
0.0
 10
449.574553
 20
343.354474
 30
0.0
 10
447.639835
 20
343.354474
 30
0.0
 10
447.639835
 20
324.354475
 30
0.0
 10
417.639839
 20
324.354475
 30
0.0
 10
417.639839
 20
304.354475
 30
0.0
 10
406.639832
 20
304.354475
 30
0.0
 10
406.639832
 20
324.354475
 30
0.0
 10
376.639836
 20
324.354475
 30
0.0
 10
376.639836
 20
343.354474
 30
0.0
 10
375.592255
 20
343.354474
 30
0.0
 10
375.592255
 20
341.354475
 30
0.0
 10
372.592261
 20
341.354475
 30
0.0
 10
372.592261
 20
343.354474
 30
0.0
 10
366.639856
 20
343.354474
 30
0.0
 10
366.639856
 20
353.054474
 30
0.0
 10
372.591245
 20
353.054474
 30
0.0
 10
372.591245
 20
355.054476
 30
0.0
 10
375.591239
 20
355.054476
 30
0.0
 10
375.591239
 20
353.054474
 30
0.0
 10
376.639836
 20
353.054474
 30
0.0
 10
376.639836
 20
372.054476
 30
0.0
 10
406.639832
 20
372.054476
 30
0.0
 10
406.639832
 20
392.054475
 30
0.0
 10
417.639839
 20
392.054475
 30
0.0
 10
417.639839
 20
372.054476
 30
0.0
 10
447.639835
 20
372.054476
 30
0.0
 10
447.639835
 20
372.054476
 30
0.0
 10
447.639835
 20
372.054476
 30
0.0
 10
447.639835
 20
372.054476
 30
0.0
 10
447.639835
 20
372.054476
 30
0.0
 10
447.639835
 20
372.054476
 30
0.0
  0
LWPOLYLINE
  5
13e
100
AcDbEntity
  8
Calque_1
 62
7
100
AcDbPolyline
 90
10
 70
1
 10
396.329860
 20
335.284476
 30
0.0
 10
380.329835
 20
335.284476
 30
0.0
 10
380.329835
 20
332.284474
 30
0.0
 10
396.329860
 20
332.284474
 30
0.0
 10
396.329860
 20
335.284476
 30
0.0
 10
396.329860
 20
335.284476
 30
0.0
 10
396.329860
 20
335.284476
 30
0.0
 10
396.329860
 20
335.284476
 30
0.0
 10
396.329860
 20
335.284476
 30
0.0
 10
396.329860
 20
335.284476
 30
0.0
  0
SPLINE
  5
13f
100
AcDbEntity
  8
Calque_1
 62
7
100
AcDbSpline
 70
8
 71
3
 72
8
 73
4
 74
0
 40
0
 40
0
 40
0
 40
0
 40
1
 40
1
 40
1
 40
1
 10
430.056742
 20
348.105820
 30
0.0
 10
430.060635
 20
354.368203
 30
0.0
 10
426.721930
 20
360.156550
 30
0.0
 10
421.299195
 20
363.288866
 30
0.0
  0
SPLINE
  5
140
100
AcDbEntity
  8
Calque_1
 62
7
100
AcDbSpline
 70
8
 71
3
 72
8
 73
4
 74
0
 40
0
 40
0
 40
0
 40
0
 40
1
 40
1
 40
1
 40
1
 10
421.299195
 20
363.288866
 30
0.0
 10
415.876460
 20
366.421182
 30
0.0
 10
409.194251
 20
366.421182
 30
0.0
 10
403.771517
 20
363.288866
 30
0.0
  0
SPLINE
  5
141
100
AcDbEntity
  8
Calque_1
 62
7
100
AcDbSpline
 70
8
 71
3
 72
8
 73
4
 74
0
 40
0
 40
0
 40
0
 40
0
 40
1
 40
1
 40
1
 40
1
 10
403.771517
 20
363.288866
 30
0.0
 10
398.348782
 20
360.156550
 30
0.0
 10
395.010077
 20
354.368203
 30
0.0
 10
395.013970
 20
348.105820
 30
0.0
  0
SPLINE
  5
142
100
AcDbEntity
  8
Calque_1
 62
7
100
AcDbSpline
 70
8
 71
3
 72
8
 73
4
 74
0
 40
0
 40
0
 40
0
 40
0
 40
1
 40
1
 40
1
 40
1
 10
395.013970
 20
348.105820
 30
0.0
 10
395.019984
 20
338.433280
 30
0.0
 10
402.862814
 20
330.595325
 30
0.0
 10
412.535356
 20
330.595325
 30
0.0
  0
SPLINE
  5
143
100
AcDbEntity
  8
Calque_1
 62
7
100
AcDbSpline
 70
8
 71
3
 72
8
 73
4
 74
0
 40
0
 40
0
 40
0
 40
0
 40
1
 40
1
 40
1
 40
1
 10
412.535356
 20
330.595325
 30
0.0
 10
422.207898
 20
330.595325
 30
0.0
 10
430.050728
 20
338.433280
 30
0.0
 10
430.056742
 20
348.105820
 30
0.0
  0
LWPOLYLINE
  5
144
100
AcDbEntity
  8
Calque_1
 62
7
100
AcDbPolyline
 90
10
 70
1
 10
396.329860
 20
363.984475
 30
0.0
 10
380.329835
 20
363.984475
 30
0.0
 10
380.329835
 20
360.984475
 30
0.0
 10
396.329860
 20
360.984475
 30
0.0
 10
396.329860
 20
363.984475
 30
0.0
 10
396.329860
 20
363.984475
 30
0.0
 10
396.329860
 20
363.984475
 30
0.0
 10
396.329860
 20
363.984475
 30
0.0
 10
396.329860
 20
363.984475
 30
0.0
 10
396.329860
 20
363.984475
 30
0.0
  0
LWPOLYLINE
  5
145
100
AcDbEntity
  8
Calque_1
 62
7
100
AcDbPolyline
 90
10
 70
1
 10
427.829839
 20
332.284474
 30
0.0
 10
443.829835
 20
332.284474
 30
0.0
 10
443.829835
 20
335.284476
 30
0.0
 10
427.829839
 20
335.284476
 30
0.0
 10
427.829839
 20
332.284474
 30
0.0
 10
427.829839
 20
332.284474
 30
0.0
 10
427.829839
 20
332.284474
 30
0.0
 10
427.829839
 20
332.284474
 30
0.0
 10
427.829839
 20
332.284474
 30
0.0
 10
427.829839
 20
332.284474
 30
0.0
  0
LWPOLYLINE
  5
146
100
AcDbEntity
  8
Calque_1
 62
7
100
AcDbPolyline
 90
10
 70
1
 10
427.829839
 20
360.984475
 30
0.0
 10
443.829835
 20
360.984475
 30
0.0
 10
443.829835
 20
363.984475
 30
0.0
 10
427.829839
 20
363.984475
 30
0.0
 10
427.829839
 20
360.984475
 30
0.0
 10
427.829839
 20
360.984475
 30
0.0
 10
427.829839
 20
360.984475
 30
0.0
 10
427.829839
 20
360.984475
 30
0.0
 10
427.829839
 20
360.984475
 30
0.0
 10
427.829839
 20
360.984475
 30
0.0
  0
LWPOLYLINE
  5
147
100
AcDbEntity
  8
Calque_1
 62
7
100
AcDbPolyline
 90
6
 70
1
 10
430.056742
 20
348.105820
 30
0.0
 10
430.056742
 20
348.105820
 30
0.0
 10
430.056742
 20
348.105820
 30
0.0
 10
430.056742
 20
348.105820
 30
0.0
 10
430.056742
 20
348.105820
 30
0.0
 10
430.056742
 20
348.105820
 30
0.0
  0
LWPOLYLINE
  5
148
100
AcDbEntity
  8
Calque_1
 62
7
100
AcDbPolyline
 90
12
 70
0
 10
463.248389
 20
347.770611
 30
0.0
 10
464.157907
 20
347.770611
 30
0.0
 10
464.157907
 20
350.909783
 30
0.0
 10
463.168464
 20
350.711344
 30
0.0
 10
463.168464
 20
351.218463
 30
0.0
 10
464.152375
 20
351.416899
 30
0.0
 10
464.709115
 20
351.416899
 30
0.0
 10
464.709115
 20
347.770611
 30
0.0
 10
465.618604
 20
347.770611
 30
0.0
 10
465.618604
 20
347.302080
 30
0.0
 10
463.248389
 20
347.302080
 30
0.0
 10
463.248389
 20
347.770611
 30
0.0
  0
LWPOLYLINE
  5
149
100
AcDbEntity
  8
Calque_1
 62
7
100
AcDbPolyline
 90
12
 70
0
 10
430.886221
 20
286.346609
 30
0.0
 10
431.795738
 20
286.346609
 30
0.0
 10
431.795738
 20
289.485781
 30
0.0
 10
430.806296
 20
289.287342
 30
0.0
 10
430.806296
 20
289.794462
 30
0.0
 10
431.790207
 20
289.992898
 30
0.0
 10
432.346947
 20
289.992898
 30
0.0
 10
432.346947
 20
286.346609
 30
0.0
 10
433.256436
 20
286.346609
 30
0.0
 10
433.256436
 20
285.878078
 30
0.0
 10
430.886221
 20
285.878078
 30
0.0
 10
430.886221
 20
286.346609
 30
0.0
  0
LWPOLYLINE
  5
14a
100
AcDbEntity
  8
Calque_1
 62
7
100
AcDbPolyline
 90
12
 70
0
 10
113.889426
 20
327.992782
 30
0.0
 10
114.798929
 20
327.992782
 30
0.0
 10
114.798929
 20
331.131954
 30
0.0
 10
113.809498
 20
330.933515
 30
0.0
 10
113.809498
 20
331.440635
 30
0.0
 10
114.793418
 20
331.639071
 30
0.0
 10
115.350146
 20
331.639071
 30
0.0
 10
115.350146
 20
327.992782
 30
0.0
 10
116.259650
 20
327.992782
 30
0.0
 10
116.259650
 20
327.524251
 30
0.0
 10
113.889426
 20
327.524251
 30
0.0
 10
113.889426
 20
327.992782
 30
0.0
  0
LWPOLYLINE
  5
14b
100
AcDbEntity
  8
Calque_1
 62
7
100
AcDbPolyline
 90
12
 70
0
 10
304.900753
 20
377.047100
 30
0.0
 10
305.810271
 20
377.047100
 30
0.0
 10
305.810271
 20
380.186271
 30
0.0
 10
304.820828
 20
379.987833
 30
0.0
 10
304.820828
 20
380.494952
 30
0.0
 10
305.804739
 20
380.693388
 30
0.0
 10
306.361479
 20
380.693388
 30
0.0
 10
306.361479
 20
377.047100
 30
0.0
 10
307.270968
 20
377.047100
 30
0.0
 10
307.270968
 20
376.578568
 30
0.0
 10
304.900753
 20
376.578568
 30
0.0
 10
304.900753
 20
377.047100
 30
0.0
  0
LWPOLYLINE
  5
14c
100
AcDbEntity
  8
Calque_1
 62
7
100
AcDbPolyline
 90
12
 70
0
 10
438.086500
 20
347.306296
 30
0.0
 10
438.996018
 20
347.306296
 30
0.0
 10
438.996018
 20
350.445468
 30
0.0
 10
438.006575
 20
350.247029
 30
0.0
 10
438.006575
 20
350.754148
 30
0.0
 10
438.990486
 20
350.952585
 30
0.0
 10
439.547226
 20
350.952585
 30
0.0
 10
439.547226
 20
347.306296
 30
0.0
 10
440.456715
 20
347.306296
 30
0.0
 10
440.456715
 20
346.837765
 30
0.0
 10
438.086500
 20
346.837765
 30
0.0
 10
438.086500
 20
347.306296
 30
0.0
  0
SPLINE
  5
14d
100
AcDbEntity
  8
Calque_1
 62
7
100
AcDbSpline
 70
8
 71
3
 72
8
 73
4
 74
0
 40
0
 40
0
 40
0
 40
0
 40
1
 40
1
 40
1
 40
1
 10
80.879083
 20
330.793621
 30
0.0
 10
80.592450
 20
330.793618
 30
0.0
 10
80.376558
 20
330.652140
 30
0.0
 10
80.231406
 20
330.369187
 30
0.0
  0
SPLINE
  5
14e
100
AcDbEntity
  8
Calque_1
 62
7
100
AcDbSpline
 70
8
 71
3
 72
8
 73
4
 74
0
 40
0
 40
0
 40
0
 40
0
 40
1
 40
1
 40
1
 40
1
 10
80.231406
 20
330.369187
 30
0.0
 10
80.088091
 20
330.088062
 30
0.0
 10
80.016432
 20
329.664545
 30
0.0
 10
80.016432
 20
329.098633
 30
0.0
  0
SPLINE
  5
14f
100
AcDbEntity
  8
Calque_1
 62
7
100
AcDbSpline
 70
8
 71
3
 72
8
 73
4
 74
0
 40
0
 40
0
 40
0
 40
0
 40
1
 40
1
 40
1
 40
1
 10
80.016432
 20
329.098633
 30
0.0
 10
80.016432
 20
328.534556
 30
0.0
 10
80.088091
 20
328.111039
 30
0.0
 10
80.231406
 20
327.828083
 30
0.0
  0
SPLINE
  5
150
100
AcDbEntity
  8
Calque_1
 62
7
100
AcDbSpline
 70
8
 71
3
 72
8
 73
4
 74
0
 40
0
 40
0
 40
0
 40
0
 40
1
 40
1
 40
1
 40
1
 10
80.231406
 20
327.828083
 30
0.0
 10
80.376558
 20
327.546964
 30
0.0
 10
80.592450
 20
327.406404
 30
0.0
 10
80.879083
 20
327.406404
 30
0.0
  0
SPLINE
  5
151
100
AcDbEntity
  8
Calque_1
 62
7
100
AcDbSpline
 70
8
 71
3
 72
8
 73
4
 74
0
 40
0
 40
0
 40
0
 40
0
 40
1
 40
1
 40
1
 40
1
 10
80.879083
 20
327.406404
 30
0.0
 10
81.167551
 20
327.406404
 30
0.0
 10
81.383445
 20
327.546964
 30
0.0
 10
81.526764
 20
327.828083
 30
0.0
  0
SPLINE
  5
152
100
AcDbEntity
  8
Calque_1
 62
7
100
AcDbSpline
 70
8
 71
3
 72
8
 73
4
 74
0
 40
0
 40
0
 40
0
 40
0
 40
1
 40
1
 40
1
 40
1
 10
81.526764
 20
327.828083
 30
0.0
 10
81.671913
 20
328.111039
 30
0.0
 10
81.744490
 20
328.534556
 30
0.0
 10
81.744492
 20
329.098633
 30
0.0
  0
SPLINE
  5
153
100
AcDbEntity
  8
Calque_1
 62
7
100
AcDbSpline
 70
8
 71
3
 72
8
 73
4
 74
0
 40
0
 40
0
 40
0
 40
0
 40
1
 40
1
 40
1
 40
1
 10
81.744492
 20
329.098633
 30
0.0
 10
81.744490
 20
329.664545
 30
0.0
 10
81.671913
 20
330.088062
 30
0.0
 10
81.526764
 20
330.369187
 30
0.0
  0
SPLINE
  5
154
100
AcDbEntity
  8
Calque_1
 62
7
100
AcDbSpline
 70
8
 71
3
 72
8
 73
4
 74
0
 40
0
 40
0
 40
0
 40
0
 40
1
 40
1
 40
1
 40
1
 10
81.526764
 20
330.369187
 30
0.0
 10
81.383445
 20
330.652140
 30
0.0
 10
81.167551
 20
330.793618
 30
0.0
 10
80.879083
 20
330.793621
 30
0.0
  0
SPLINE
  5
155
100
AcDbEntity
  8
Calque_1
 62
7
100
AcDbSpline
 70
8
 71
3
 72
8
 73
4
 74
0
 40
0
 40
0
 40
0
 40
0
 40
1
 40
1
 40
1
 40
1
 10
80.879083
 20
331.234593
 30
0.0
 10
81.340265
 20
331.234590
 30
0.0
 10
81.692123
 20
331.051769
 30
0.0
 10
81.934662
 20
330.686133
 30
0.0
  0
SPLINE
  5
156
100
AcDbEntity
  8
Calque_1
 62
7
100
AcDbSpline
 70
8
 71
3
 72
8
 73
4
 74
0
 40
0
 40
0
 40
0
 40
0
 40
1
 40
1
 40
1
 40
1
 10
81.934662
 20
330.686133
 30
0.0
 10
82.179030
 20
330.322329
 30
0.0
 10
82.301218
 20
329.793163
 30
0.0
 10
82.301221
 20
329.098633
 30
0.0
  0
SPLINE
  5
157
100
AcDbEntity
  8
Calque_1
 62
7
100
AcDbSpline
 70
8
 71
3
 72
8
 73
4
 74
0
 40
0
 40
0
 40
0
 40
0
 40
1
 40
1
 40
1
 40
1
 10
82.301221
 20
329.098633
 30
0.0
 10
82.301218
 20
328.405939
 30
0.0
 10
82.179030
 20
327.876772
 30
0.0
 10
81.934662
 20
327.511133
 30
0.0
  0
SPLINE
  5
158
100
AcDbEntity
  8
Calque_1
 62
7
100
AcDbSpline
 70
8
 71
3
 72
8
 73
4
 74
0
 40
0
 40
0
 40
0
 40
0
 40
1
 40
1
 40
1
 40
1
 10
81.934662
 20
327.511133
 30
0.0
 10
81.692123
 20
327.147332
 30
0.0
 10
81.340265
 20
326.965431
 30
0.0
 10
80.879083
 20
326.965431
 30
0.0
  0
SPLINE
  5
159
100
AcDbEntity
  8
Calque_1
 62
7
100
AcDbSpline
 70
8
 71
3
 72
8
 73
4
 74
0
 40
0
 40
0
 40
0
 40
0
 40
1
 40
1
 40
1
 40
1
 10
80.879083
 20
326.965431
 30
0.0
 10
80.417898
 20
326.965431
 30
0.0
 10
80.065123
 20
327.147332
 30
0.0
 10
79.820750
 20
327.511133
 30
0.0
  0
SPLINE
  5
15a
100
AcDbEntity
  8
Calque_1
 62
7
100
AcDbSpline
 70
8
 71
3
 72
8
 73
4
 74
0
 40
0
 40
0
 40
0
 40
0
 40
1
 40
1
 40
1
 40
1
 10
79.820750
 20
327.511133
 30
0.0
 10
79.578217
 20
327.876772
 30
0.0
 10
79.456949
 20
328.405939
 30
0.0
 10
79.456949
 20
329.098633
 30
0.0
  0
SPLINE
  5
15b
100
AcDbEntity
  8
Calque_1
 62
7
100
AcDbSpline
 70
8
 71
3
 72
8
 73
4
 74
0
 40
0
 40
0
 40
0
 40
0
 40
1
 40
1
 40
1
 40
1
 10
79.456949
 20
329.098633
 30
0.0
 10
79.456949
 20
329.793163
 30
0.0
 10
79.578217
 20
330.322329
 30
0.0
 10
79.820750
 20
330.686133
 30
0.0
  0
SPLINE
  5
15c
100
AcDbEntity
  8
Calque_1
 62
7
100
AcDbSpline
 70
8
 71
3
 72
8
 73
4
 74
0
 40
0
 40
0
 40
0
 40
0
 40
1
 40
1
 40
1
 40
1
 10
79.820750
 20
330.686133
 30
0.0
 10
80.065123
 20
331.051769
 30
0.0
 10
80.417898
 20
331.234590
 30
0.0
 10
80.879083
 20
331.234593
 30
0.0
  0
SPLINE
  5
15d
100
AcDbEntity
  8
Calque_1
 62
7
100
AcDbSpline
 70
8
 71
3
 72
8
 73
4
 74
0
 40
0
 40
0
 40
0
 40
0
 40
1
 40
1
 40
1
 40
1
 10
96.697671
 20
330.811056
 30
0.0
 10
96.411038
 20
330.811053
 30
0.0
 10
96.195146
 20
330.669575
 30
0.0
 10
96.049994
 20
330.386622
 30
0.0
  0
SPLINE
  5
15e
100
AcDbEntity
  8
Calque_1
 62
7
100
AcDbSpline
 70
8
 71
3
 72
8
 73
4
 74
0
 40
0
 40
0
 40
0
 40
0
 40
1
 40
1
 40
1
 40
1
 10
96.049994
 20
330.386622
 30
0.0
 10
95.906678
 20
330.105498
 30
0.0
 10
95.835019
 20
329.681981
 30
0.0
 10
95.835019
 20
329.116069
 30
0.0
  0
SPLINE
  5
15f
100
AcDbEntity
  8
Calque_1
 62
7
100
AcDbSpline
 70
8
 71
3
 72
8
 73
4
 74
0
 40
0
 40
0
 40
0
 40
0
 40
1
 40
1
 40
1
 40
1
 10
95.835019
 20
329.116069
 30
0.0
 10
95.835019
 20
328.551992
 30
0.0
 10
95.906678
 20
328.128475
 30
0.0
 10
96.049994
 20
327.845519
 30
0.0
  0
SPLINE
  5
160
100
AcDbEntity
  8
Calque_1
 62
7
100
AcDbSpline
 70
8
 71
3
 72
8
 73
4
 74
0
 40
0
 40
0
 40
0
 40
0
 40
1
 40
1
 40
1
 40
1
 10
96.049994
 20
327.845519
 30
0.0
 10
96.195146
 20
327.564400
 30
0.0
 10
96.411038
 20
327.423839
 30
0.0
 10
96.697671
 20
327.423839
 30
0.0
  0
SPLINE
  5
161
100
AcDbEntity
  8
Calque_1
 62
7
100
AcDbSpline
 70
8
 71
3
 72
8
 73
4
 74
0
 40
0
 40
0
 40
0
 40
0
 40
1
 40
1
 40
1
 40
1
 10
96.697671
 20
327.423839
 30
0.0
 10
96.986139
 20
327.423839
 30
0.0
 10
97.202033
 20
327.564400
 30
0.0
 10
97.345351
 20
327.845519
 30
0.0
  0
SPLINE
  5
162
100
AcDbEntity
  8
Calque_1
 62
7
100
AcDbSpline
 70
8
 71
3
 72
8
 73
4
 74
0
 40
0
 40
0
 40
0
 40
0
 40
1
 40
1
 40
1
 40
1
 10
97.345351
 20
327.845519
 30
0.0
 10
97.490501
 20
328.128475
 30
0.0
 10
97.563077
 20
328.551992
 30
0.0
 10
97.563080
 20
329.116069
 30
0.0
  0
SPLINE
  5
163
100
AcDbEntity
  8
Calque_1
 62
7
100
AcDbSpline
 70
8
 71
3
 72
8
 73
4
 74
0
 40
0
 40
0
 40
0
 40
0
 40
1
 40
1
 40
1
 40
1
 10
97.563080
 20
329.116069
 30
0.0
 10
97.563077
 20
329.681981
 30
0.0
 10
97.490501
 20
330.105498
 30
0.0
 10
97.345351
 20
330.386622
 30
0.0
  0
SPLINE
  5
164
100
AcDbEntity
  8
Calque_1
 62
7
100
AcDbSpline
 70
8
 71
3
 72
8
 73
4
 74
0
 40
0
 40
0
 40
0
 40
0
 40
1
 40
1
 40
1
 40
1
 10
97.345351
 20
330.386622
 30
0.0
 10
97.202033
 20
330.669575
 30
0.0
 10
96.986139
 20
330.811053
 30
0.0
 10
96.697671
 20
330.811056
 30
0.0
  0
SPLINE
  5
165
100
AcDbEntity
  8
Calque_1
 62
7
100
AcDbSpline
 70
8
 71
3
 72
8
 73
4
 74
0
 40
0
 40
0
 40
0
 40
0
 40
1
 40
1
 40
1
 40
1
 10
96.697671
 20
331.252028
 30
0.0
 10
97.158853
 20
331.252026
 30
0.0
 10
97.510711
 20
331.069205
 30
0.0
 10
97.753250
 20
330.703569
 30
0.0
  0
SPLINE
  5
166
100
AcDbEntity
  8
Calque_1
 62
7
100
AcDbSpline
 70
8
 71
3
 72
8
 73
4
 74
0
 40
0
 40
0
 40
0
 40
0
 40
1
 40
1
 40
1
 40
1
 10
97.753250
 20
330.703569
 30
0.0
 10
97.997618
 20
330.339765
 30
0.0
 10
98.119806
 20
329.810598
 30
0.0
 10
98.119809
 20
329.116069
 30
0.0
  0
SPLINE
  5
167
100
AcDbEntity
  8
Calque_1
 62
7
100
AcDbSpline
 70
8
 71
3
 72
8
 73
4
 74
0
 40
0
 40
0
 40
0
 40
0
 40
1
 40
1
 40
1
 40
1
 10
98.119809
 20
329.116069
 30
0.0
 10
98.119806
 20
328.423374
 30
0.0
 10
97.997618
 20
327.894208
 30
0.0
 10
97.753250
 20
327.528569
 30
0.0
  0
SPLINE
  5
168
100
AcDbEntity
  8
Calque_1
 62
7
100
AcDbSpline
 70
8
 71
3
 72
8
 73
4
 74
0
 40
0
 40
0
 40
0
 40
0
 40
1
 40
1
 40
1
 40
1
 10
97.753250
 20
327.528569
 30
0.0
 10
97.510711
 20
327.164768
 30
0.0
 10
97.158853
 20
326.982867
 30
0.0
 10
96.697671
 20
326.982867
 30
0.0
  0
SPLINE
  5
169
100
AcDbEntity
  8
Calque_1
 62
7
100
AcDbSpline
 70
8
 71
3
 72
8
 73
4
 74
0
 40
0
 40
0
 40
0
 40
0
 40
1
 40
1
 40
1
 40
1
 10
96.697671
 20
326.982867
 30
0.0
 10
96.236486
 20
326.982867
 30
0.0
 10
95.883711
 20
327.164768
 30
0.0
 10
95.639338
 20
327.528569
 30
0.0
  0
SPLINE
  5
16a
100
AcDbEntity
  8
Calque_1
 62
7
100
AcDbSpline
 70
8
 71
3
 72
8
 73
4
 74
0
 40
0
 40
0
 40
0
 40
0
 40
1
 40
1
 40
1
 40
1
 10
95.639338
 20
327.528569
 30
0.0
 10
95.396804
 20
327.894208
 30
0.0
 10
95.275536
 20
328.423374
 30
0.0
 10
95.275536
 20
329.116069
 30
0.0
  0
SPLINE
  5
16b
100
AcDbEntity
  8
Calque_1
 62
7
100
AcDbSpline
 70
8
 71
3
 72
8
 73
4
 74
0
 40
0
 40
0
 40
0
 40
0
 40
1
 40
1
 40
1
 40
1
 10
95.275536
 20
329.116069
 30
0.0
 10
95.275536
 20
329.810598
 30
0.0
 10
95.396804
 20
330.339765
 30
0.0
 10
95.639338
 20
330.703569
 30
0.0
  0
SPLINE
  5
16c
100
AcDbEntity
  8
Calque_1
 62
7
100
AcDbSpline
 70
8
 71
3
 72
8
 73
4
 74
0
 40
0
 40
0
 40
0
 40
0
 40
1
 40
1
 40
1
 40
1
 10
95.639338
 20
330.703569
 30
0.0
 10
95.883711
 20
331.069205
 30
0.0
 10
96.236486
 20
331.252026
 30
0.0
 10
96.697671
 20
331.252028
 30
0.0
  0
SPLINE
  5
16d
100
AcDbEntity
  8
Calque_1
 62
7
100
AcDbSpline
 70
8
 71
3
 72
8
 73
4
 74
0
 40
0
 40
0
 40
0
 40
0
 40
1
 40
1
 40
1
 40
1
 10
198.575574
 20
349.459894
 30
0.0
 10
198.288941
 20
349.459891
 30
0.0
 10
198.073050
 20
349.318413
 30
0.0
 10
197.927897
 20
349.035460
 30
0.0
  0
SPLINE
  5
16e
100
AcDbEntity
  8
Calque_1
 62
7
100
AcDbSpline
 70
8
 71
3
 72
8
 73
4
 74
0
 40
0
 40
0
 40
0
 40
0
 40
1
 40
1
 40
1
 40
1
 10
197.927897
 20
349.035460
 30
0.0
 10
197.784582
 20
348.754336
 30
0.0
 10
197.712923
 20
348.330819
 30
0.0
 10
197.712923
 20
347.764907
 30
0.0
  0
SPLINE
  5
16f
100
AcDbEntity
  8
Calque_1
 62
7
100
AcDbSpline
 70
8
 71
3
 72
8
 73
4
 74
0
 40
0
 40
0
 40
0
 40
0
 40
1
 40
1
 40
1
 40
1
 10
197.712923
 20
347.764907
 30
0.0
 10
197.712923
 20
347.200830
 30
0.0
 10
197.784582
 20
346.777313
 30
0.0
 10
197.927897
 20
346.494357
 30
0.0
  0
SPLINE
  5
170
100
AcDbEntity
  8
Calque_1
 62
7
100
AcDbSpline
 70
8
 71
3
 72
8
 73
4
 74
0
 40
0
 40
0
 40
0
 40
0
 40
1
 40
1
 40
1
 40
1
 10
197.927897
 20
346.494357
 30
0.0
 10
198.073050
 20
346.213238
 30
0.0
 10
198.288941
 20
346.072677
 30
0.0
 10
198.575574
 20
346.072677
 30
0.0
  0
SPLINE
  5
171
100
AcDbEntity
  8
Calque_1
 62
7
100
AcDbSpline
 70
8
 71
3
 72
8
 73
4
 74
0
 40
0
 40
0
 40
0
 40
0
 40
1
 40
1
 40
1
 40
1
 10
198.575574
 20
346.072677
 30
0.0
 10
198.864042
 20
346.072677
 30
0.0
 10
199.079937
 20
346.213238
 30
0.0
 10
199.223255
 20
346.494357
 30
0.0
  0
SPLINE
  5
172
100
AcDbEntity
  8
Calque_1
 62
7
100
AcDbSpline
 70
8
 71
3
 72
8
 73
4
 74
0
 40
0
 40
0
 40
0
 40
0
 40
1
 40
1
 40
1
 40
1
 10
199.223255
 20
346.494357
 30
0.0
 10
199.368404
 20
346.777313
 30
0.0
 10
199.440981
 20
347.200830
 30
0.0
 10
199.440983
 20
347.764907
 30
0.0
  0
SPLINE
  5
173
100
AcDbEntity
  8
Calque_1
 62
7
100
AcDbSpline
 70
8
 71
3
 72
8
 73
4
 74
0
 40
0
 40
0
 40
0
 40
0
 40
1
 40
1
 40
1
 40
1
 10
199.440983
 20
347.764907
 30
0.0
 10
199.440981
 20
348.330819
 30
0.0
 10
199.368404
 20
348.754336
 30
0.0
 10
199.223255
 20
349.035460
 30
0.0
  0
SPLINE
  5
174
100
AcDbEntity
  8
Calque_1
 62
7
100
AcDbSpline
 70
8
 71
3
 72
8
 73
4
 74
0
 40
0
 40
0
 40
0
 40
0
 40
1
 40
1
 40
1
 40
1
 10
199.223255
 20
349.035460
 30
0.0
 10
199.079937
 20
349.318413
 30
0.0
 10
198.864042
 20
349.459891
 30
0.0
 10
198.575574
 20
349.459894
 30
0.0
  0
SPLINE
  5
175
100
AcDbEntity
  8
Calque_1
 62
7
100
AcDbSpline
 70
8
 71
3
 72
8
 73
4
 74
0
 40
0
 40
0
 40
0
 40
0
 40
1
 40
1
 40
1
 40
1
 10
198.575574
 20
349.900867
 30
0.0
 10
199.036757
 20
349.900864
 30
0.0
 10
199.388614
 20
349.718043
 30
0.0
 10
199.631153
 20
349.352407
 30
0.0
  0
SPLINE
  5
176
100
AcDbEntity
  8
Calque_1
 62
7
100
AcDbSpline
 70
8
 71
3
 72
8
 73
4
 74
0
 40
0
 40
0
 40
0
 40
0
 40
1
 40
1
 40
1
 40
1
 10
199.631153
 20
349.352407
 30
0.0
 10
199.875521
 20
348.988603
 30
0.0
 10
199.997709
 20
348.459436
 30
0.0
 10
199.997712
 20
347.764907
 30
0.0
  0
SPLINE
  5
177
100
AcDbEntity
  8
Calque_1
 62
7
100
AcDbSpline
 70
8
 71
3
 72
8
 73
4
 74
0
 40
0
 40
0
 40
0
 40
0
 40
1
 40
1
 40
1
 40
1
 10
199.997712
 20
347.764907
 30
0.0
 10
199.997709
 20
347.072212
 30
0.0
 10
199.875521
 20
346.543046
 30
0.0
 10
199.631153
 20
346.177407
 30
0.0
  0
SPLINE
  5
178
100
AcDbEntity
  8
Calque_1
 62
7
100
AcDbSpline
 70
8
 71
3
 72
8
 73
4
 74
0
 40
0
 40
0
 40
0
 40
0
 40
1
 40
1
 40
1
 40
1
 10
199.631153
 20
346.177407
 30
0.0
 10
199.388614
 20
345.813606
 30
0.0
 10
199.036757
 20
345.631705
 30
0.0
 10
198.575574
 20
345.631705
 30
0.0
  0
SPLINE
  5
179
100
AcDbEntity
  8
Calque_1
 62
7
100
AcDbSpline
 70
8
 71
3
 72
8
 73
4
 74
0
 40
0
 40
0
 40
0
 40
0
 40
1
 40
1
 40
1
 40
1
 10
198.575574
 20
345.631705
 30
0.0
 10
198.114389
 20
345.631705
 30
0.0
 10
197.761614
 20
345.813606
 30
0.0
 10
197.517241
 20
346.177407
 30
0.0
  0
SPLINE
  5
17a
100
AcDbEntity
  8
Calque_1
 62
7
100
AcDbSpline
 70
8
 71
3
 72
8
 73
4
 74
0
 40
0
 40
0
 40
0
 40
0
 40
1
 40
1
 40
1
 40
1
 10
197.517241
 20
346.177407
 30
0.0
 10
197.274708
 20
346.543046
 30
0.0
 10
197.153440
 20
347.072212
 30
0.0
 10
197.153440
 20
347.764907
 30
0.0
  0
SPLINE
  5
17b
100
AcDbEntity
  8
Calque_1
 62
7
100
AcDbSpline
 70
8
 71
3
 72
8
 73
4
 74
0
 40
0
 40
0
 40
0
 40
0
 40
1
 40
1
 40
1
 40
1
 10
197.153440
 20
347.764907
 30
0.0
 10
197.153440
 20
348.459436
 30
0.0
 10
197.274708
 20
348.988603
 30
0.0
 10
197.517241
 20
349.352407
 30
0.0
  0
SPLINE
  5
17c
100
AcDbEntity
  8
Calque_1
 62
7
100
AcDbSpline
 70
8
 71
3
 72
8
 73
4
 74
0
 40
0
 40
0
 40
0
 40
0
 40
1
 40
1
 40
1
 40
1
 10
197.517241
 20
349.352407
 30
0.0
 10
197.761614
 20
349.718043
 30
0.0
 10
198.114389
 20
349.900864
 30
0.0
 10
198.575574
 20
349.900867
 30
0.0
  0
SPLINE
  5
17d
100
AcDbEntity
  8
Calque_1
 62
7
100
AcDbSpline
 70
8
 71
3
 72
8
 73
4
 74
0
 40
0
 40
0
 40
0
 40
0
 40
1
 40
1
 40
1
 40
1
 10
204.169222
 20
258.789466
 30
0.0
 10
204.380519
 20
259.008115
 30
0.0
 10
204.668069
 20
259.301178
 30
0.0
 10
205.031873
 20
259.668656
 30
0.0
  0
SPLINE
  5
17e
100
AcDbEntity
  8
Calque_1
 62
7
100
AcDbSpline
 70
8
 71
3
 72
8
 73
4
 74
0
 40
0
 40
0
 40
0
 40
0
 40
1
 40
1
 40
1
 40
1
 10
205.031873
 20
259.668656
 30
0.0
 10
205.397509
 20
260.037969
 30
0.0
 10
205.627184
 20
260.275908
 30
0.0
 10
205.720891
 20
260.382481
 30
0.0
  0
SPLINE
  5
17f
100
AcDbEntity
  8
Calque_1
 62
7
100
AcDbSpline
 70
8
 71
3
 72
8
 73
4
 74
0
 40
0
 40
0
 40
0
 40
0
 40
1
 40
1
 40
1
 40
1
 10
205.720891
 20
260.382481
 30
0.0
 10
205.899117
 20
260.582751
 30
0.0
 10
206.023139
 20
260.751791
 30
0.0
 10
206.092961
 20
260.889598
 30
0.0
  0
SPLINE
  5
180
100
AcDbEntity
  8
Calque_1
 62
7
100
AcDbSpline
 70
8
 71
3
 72
8
 73
4
 74
0
 40
0
 40
0
 40
0
 40
0
 40
1
 40
1
 40
1
 40
1
 10
206.092961
 20
260.889598
 30
0.0
 10
206.164617
 20
261.029236
 30
0.0
 10
206.200446
 20
261.166122
 30
0.0
 10
206.200448
 20
261.300254
 30
0.0
  0
SPLINE
  5
181
100
AcDbEntity
  8
Calque_1
 62
7
100
AcDbSpline
 70
8
 71
3
 72
8
 73
4
 74
0
 40
0
 40
0
 40
0
 40
0
 40
1
 40
1
 40
1
 40
1
 10
206.200448
 20
261.300254
 30
0.0
 10
206.200446
 20
261.518900
 30
0.0
 10
206.123278
 20
261.697126
 30
0.0
 10
205.968939
 20
261.834932
 30
0.0
  0
SPLINE
  5
182
100
AcDbEntity
  8
Calque_1
 62
7
100
AcDbSpline
 70
8
 71
3
 72
8
 73
4
 74
0
 40
0
 40
0
 40
0
 40
0
 40
1
 40
1
 40
1
 40
1
 10
205.968939
 20
261.834932
 30
0.0
 10
205.816434
 20
261.972733
 30
0.0
 10
205.617078
 20
262.041634
 30
0.0
 10
205.370870
 20
262.041637
 30
0.0
  0
SPLINE
  5
183
100
AcDbEntity
  8
Calque_1
 62
7
100
AcDbSpline
 70
8
 71
3
 72
8
 73
4
 74
0
 40
0
 40
0
 40
0
 40
0
 40
1
 40
1
 40
1
 40
1
 10
205.370870
 20
262.041637
 30
0.0
 10
205.196316
 20
262.041634
 30
0.0
 10
205.011661
 20
262.011318
 30
0.0
 10
204.816899
 20
261.950688
 30
0.0
  0
SPLINE
  5
184
100
AcDbEntity
  8
Calque_1
 62
7
100
AcDbSpline
 70
8
 71
3
 72
8
 73
4
 74
0
 40
0
 40
0
 40
0
 40
0
 40
1
 40
1
 40
1
 40
1
 10
204.816899
 20
261.950688
 30
0.0
 10
204.623972
 20
261.890050
 30
0.0
 10
204.417267
 20
261.798181
 30
0.0
 10
204.196781
 20
261.675078
 30
0.0
  0
LWPOLYLINE
  5
185
100
AcDbEntity
  8
Calque_1
 62
7
100
AcDbPolyline
 90
74
 70
1
 10
77.391858
 20
353.810708
 30
0.0
 10
65.891859
 20
353.810708
 30
0.0
 10
65.891859
 20
362.811568
 30
0.0
 10
63.891857
 20
362.811568
 30
0.0
 10
63.891857
 20
365.811568
 30
0.0
 10
65.891859
 20
365.811568
 30
0.0
 10
65.891859
 20
367.810706
 30
0.0
 10
51.891859
 20
367.810706
 30
0.0
 10
51.891859
 20
256.810708
 30
0.0
 10
54.891858
 20
256.810708
 30
0.0
 10
54.891858
 20
253.810714
 30
0.0
 10
51.891859
 20
253.810714
 30
0.0
 10
51.891859
 20
246.810699
 30
0.0
 10
39.891857
 20
246.810699
 30
0.0
 10
39.891857
 20
312.810343
 30
0.0
 10
36.891857
 20
312.810343
 30
0.0
 10
36.891857
 20
315.810365
 30
0.0
 10
39.891857
 20
315.810365
 30
0.0
 10
39.891857
 20
367.810706
 30
0.0
 10
27.891858
 20
367.810706
 30
0.0
 10
27.891858
 20
366.810708
 30
0.0
 10
21.891856
 20
366.810708
 30
0.0
 10
21.891856
 20
376.810707
 30
0.0
 10
18.891856
 20
376.810707
 30
0.0
 10
18.891856
 20
371.810706
 30
0.0
 10
12.891857
 20
371.810706
 30
0.0
 10
12.891857
 20
376.810707
 30
0.0
 10
9.891858
 20
376.810707
 30
0.0
 10
9.891858
 20
366.810708
 30
0.0
 10
2.891857
 20
366.810708
 30
0.0
 10
2.891857
 20
397.810708
 30
0.0
 10
55.291857
 20
397.810708
 30
0.0
 10
55.291857
 20
377.810708
 30
0.0
 10
58.291857
 20
377.810708
 30
0.0
 10
58.291857
 20
397.810708
 30
0.0
 10
83.991856
 20
397.810708
 30
0.0
 10
83.991856
 20
377.810708
 30
0.0
 10
86.991859
 20
377.810708
 30
0.0
 10
86.991859
 20
397.810708
 30
0.0
 10
139.391858
 20
397.810708
 30
0.0
 10
139.391858
 20
366.810708
 30
0.0
 10
132.391858
 20
366.810708
 30
0.0
 10
132.391858
 20
376.810707
 30
0.0
 10
129.391859
 20
376.810707
 30
0.0
 10
129.391859
 20
371.810706
 30
0.0
 10
123.391857
 20
371.810706
 30
0.0
 10
123.391857
 20
376.810707
 30
0.0
 10
120.391857
 20
376.810707
 30
0.0
 10
120.391857
 20
366.810708
 30
0.0
 10
114.391858
 20
366.810708
 30
0.0
 10
114.391858
 20
367.810706
 30
0.0
 10
103.391857
 20
367.810706
 30
0.0
 10
103.391857
 20
315.810252
 30
0.0
 10
106.391857
 20
315.810252
 30
0.0
 10
106.391857
 20
312.810258
 30
0.0
 10
103.391857
 20
312.810258
 30
0.0
 10
103.391857
 20
246.810699
 30
0.0
 10
91.391859
 20
246.810699
 30
0.0
 10
91.391859
 20
253.810714
 30
0.0
 10
88.391859
 20
253.810714
 30
0.0
 10
88.391859
 20
256.810708
 30
0.0
 10
91.391859
 20
256.810708
 30
0.0
 10
91.391859
 20
367.810706
 30
0.0
 10
77.391858
 20
367.810706
 30
0.0
 10
77.391858
 20
365.811443
 30
0.0
 10
79.391857
 20
365.811443
 30
0.0
 10
79.391857
 20
362.811444
 30
0.0
 10
77.391858
 20
362.811444
 30
0.0
 10
77.391858
 20
353.810708
 30
0.0
 10
77.391858
 20
353.810708
 30
0.0
 10
77.391858
 20
353.810708
 30
0.0
 10
77.391858
 20
353.810708
 30
0.0
 10
77.391858
 20
353.810708
 30
0.0
 10
77.391858
 20
353.810708
 30
0.0
  0
SPLINE
  5
186
100
AcDbEntity
  8
Calque_1
 62
7
100
AcDbSpline
 70
8
 71
3
 72
8
 73
4
 74
0
 40
0
 40
0
 40
0
 40
0
 40
1
 40
1
 40
1
 40
1
 10
204.196781
 20
262.237319
 30
0.0
 10
204.420941
 20
262.327348
 30
0.0
 10
204.630404
 20
262.395329
 30
0.0
 10
204.825168
 20
262.441269
 30
0.0
  0
SPLINE
  5
187
100
AcDbEntity
  8
Calque_1
 62
7
100
AcDbSpline
 70
8
 71
3
 72
8
 73
4
 74
0
 40
0
 40
0
 40
0
 40
0
 40
1
 40
1
 40
1
 40
1
 10
204.825168
 20
262.441269
 30
0.0
 10
205.019930
 20
262.487198
 30
0.0
 10
205.198156
 20
262.510166
 30
0.0
 10
205.359847
 20
262.510171
 30
0.0
  0
SPLINE
  5
188
100
AcDbEntity
  8
Calque_1
 62
7
100
AcDbSpline
 70
8
 71
3
 72
8
 73
4
 74
0
 40
0
 40
0
 40
0
 40
0
 40
1
 40
1
 40
1
 40
1
 10
205.359847
 20
262.510171
 30
0.0
 10
205.786118
 20
262.510166
 30
0.0
 10
206.126032
 20
262.403598
 30
0.0
 10
206.379595
 20
262.190467
 30
0.0
  0
SPLINE
  5
189
100
AcDbEntity
  8
Calque_1
 62
7
100
AcDbSpline
 70
8
 71
3
 72
8
 73
4
 74
0
 40
0
 40
0
 40
0
 40
0
 40
1
 40
1
 40
1
 40
1
 10
206.379595
 20
262.190467
 30
0.0
 10
206.633151
 20
261.977324
 30
0.0
 10
206.759929
 20
261.692531
 30
0.0
 10
206.759931
 20
261.336082
 30
0.0
  0
SPLINE
  5
18a
100
AcDbEntity
  8
Calque_1
 62
7
100
AcDbSpline
 70
8
 71
3
 72
8
 73
4
 74
0
 40
0
 40
0
 40
0
 40
0
 40
1
 40
1
 40
1
 40
1
 10
206.759931
 20
261.336082
 30
0.0
 10
206.759929
 20
261.167039
 30
0.0
 10
206.727775
 20
261.006268
 30
0.0
 10
206.663471
 20
260.853769
 30
0.0
  0
SPLINE
  5
18b
100
AcDbEntity
  8
Calque_1
 62
7
100
AcDbSpline
 70
8
 71
3
 72
8
 73
4
 74
0
 40
0
 40
0
 40
0
 40
0
 40
1
 40
1
 40
1
 40
1
 10
206.663471
 20
260.853769
 30
0.0
 10
206.600995
 20
260.703102
 30
0.0
 10
206.486159
 20
260.524876
 30
0.0
 10
206.318959
 20
260.319091
 30
0.0
  0
SPLINE
  5
18c
100
AcDbEntity
  8
Calque_1
 62
7
100
AcDbSpline
 70
8
 71
3
 72
8
 73
4
 74
0
 40
0
 40
0
 40
0
 40
0
 40
1
 40
1
 40
1
 40
1
 10
206.318959
 20
260.319091
 30
0.0
 10
206.273025
 20
260.265805
 30
0.0
 10
206.126952
 20
260.111463
 30
0.0
 10
205.880744
 20
259.856069
 30
0.0
  0
SPLINE
  5
18d
100
AcDbEntity
  8
Calque_1
 62
7
100
AcDbSpline
 70
8
 71
3
 72
8
 73
4
 74
0
 40
0
 40
0
 40
0
 40
0
 40
1
 40
1
 40
1
 40
1
 10
205.880744
 20
259.856069
 30
0.0
 10
205.634534
 20
259.602509
 30
0.0
 10
205.287268
 20
259.246977
 30
0.0
 10
204.838946
 20
258.789466
 30
0.0
  0
LWPOLYLINE
  5
18e
100
AcDbEntity
  8
Calque_1
 62
7
100
AcDbPolyline
 90
74
 70
1
 10
101.283592
 20
245.002019
 30
0.0
 10
112.783592
 20
245.002019
 30
0.0
 10
112.783592
 20
236.001159
 30
0.0
 10
114.783593
 20
236.001159
 30
0.0
 10
114.783593
 20
233.001160
 30
0.0
 10
112.783592
 20
233.001160
 30
0.0
 10
112.783592
 20
231.002022
 30
0.0
 10
126.783592
 20
231.002022
 30
0.0
 10
126.783592
 20
342.002020
 30
0.0
 10
123.783592
 20
342.002020
 30
0.0
 10
123.783592
 20
345.002014
 30
0.0
 10
126.783592
 20
345.002014
 30
0.0
 10
126.783592
 20
352.002028
 30
0.0
 10
138.783593
 20
352.002028
 30
0.0
 10
138.783593
 20
286.002386
 30
0.0
 10
141.783593
 20
286.002386
 30
0.0
 10
141.783593
 20
283.002363
 30
0.0
 10
138.783593
 20
283.002363
 30
0.0
 10
138.783593
 20
231.002022
 30
0.0
 10
150.783592
 20
231.002022
 30
0.0
 10
150.783592
 20
232.002020
 30
0.0
 10
156.783594
 20
232.002020
 30
0.0
 10
156.783594
 20
222.002020
 30
0.0
 10
159.783594
 20
222.002020
 30
0.0
 10
159.783594
 20
227.002021
 30
0.0
 10
165.783593
 20
227.002021
 30
0.0
 10
165.783593
 20
222.002020
 30
0.0
 10
168.783593
 20
222.002020
 30
0.0
 10
168.783593
 20
232.002020
 30
0.0
 10
175.783593
 20
232.002020
 30
0.0
 10
175.783593
 20
201.002019
 30
0.0
 10
123.383593
 20
201.002019
 30
0.0
 10
123.383593
 20
221.002019
 30
0.0
 10
120.383594
 20
221.002019
 30
0.0
 10
120.383594
 20
201.002019
 30
0.0
 10
94.683594
 20
201.002019
 30
0.0
 10
94.683594
 20
221.002019
 30
0.0
 10
91.683592
 20
221.002019
 30
0.0
 10
91.683592
 20
201.002019
 30
0.0
 10
39.283589
 20
201.002019
 30
0.0
 10
39.283589
 20
232.002020
 30
0.0
 10
46.283592
 20
232.002020
 30
0.0
 10
46.283592
 20
222.002020
 30
0.0
 10
49.283592
 20
222.002020
 30
0.0
 10
49.283592
 20
227.002021
 30
0.0
 10
55.283594
 20
227.002021
 30
0.0
 10
55.283594
 20
222.002020
 30
0.0
 10
58.283594
 20
222.002020
 30
0.0
 10
58.283594
 20
232.002020
 30
0.0
 10
64.283593
 20
232.002020
 30
0.0
 10
64.283593
 20
231.002022
 30
0.0
 10
75.283593
 20
231.002022
 30
0.0
 10
75.283593
 20
283.002476
 30
0.0
 10
72.283594
 20
283.002476
 30
0.0
 10
72.283594
 20
286.002470
 30
0.0
 10
75.283593
 20
286.002470
 30
0.0
 10
75.283593
 20
352.002028
 30
0.0
 10
87.283592
 20
352.002028
 30
0.0
 10
87.283592
 20
345.002014
 30
0.0
 10
90.283592
 20
345.002014
 30
0.0
 10
90.283592
 20
342.002020
 30
0.0
 10
87.283592
 20
342.002020
 30
0.0
 10
87.283592
 20
231.002022
 30
0.0
 10
101.283592
 20
231.002022
 30
0.0
 10
101.283592
 20
233.001284
 30
0.0
 10
99.283593
 20
233.001284
 30
0.0
 10
99.283593
 20
236.001283
 30
0.0
 10
101.283592
 20
236.001283
 30
0.0
 10
101.283592
 20
245.002019
 30
0.0
 10
101.283592
 20
245.002019
 30
0.0
 10
101.283592
 20
245.002019
 30
0.0
 10
101.283592
 20
245.002019
 30
0.0
 10
101.283592
 20
245.002019
 30
0.0
 10
101.283592
 20
245.002019
 30
0.0
  0
SPLINE
  5
18f
100
AcDbEntity
  8
Calque_1
 62
7
100
AcDbSpline
 70
8
 71
3
 72
8
 73
4
 74
0
 40
0
 40
0
 40
0
 40
0
 40
1
 40
1
 40
1
 40
1
 10
63.619200
 20
328.434565
 30
0.0
 10
63.830497
 20
328.653213
 30
0.0
 10
64.118048
 20
328.946276
 30
0.0
 10
64.481852
 20
329.313754
 30
0.0
  0
SPLINE
  5
190
100
AcDbEntity
  8
Calque_1
 62
7
100
AcDbSpline
 70
8
 71
3
 72
8
 73
4
 74
0
 40
0
 40
0
 40
0
 40
0
 40
1
 40
1
 40
1
 40
1
 10
64.481852
 20
329.313754
 30
0.0
 10
64.847488
 20
329.683068
 30
0.0
 10
65.077163
 20
329.921006
 30
0.0
 10
65.170869
 20
330.027579
 30
0.0
  0
SPLINE
  5
191
100
AcDbEntity
  8
Calque_1
 62
7
100
AcDbSpline
 70
8
 71
3
 72
8
 73
4
 74
0
 40
0
 40
0
 40
0
 40
0
 40
1
 40
1
 40
1
 40
1
 10
65.170869
 20
330.027579
 30
0.0
 10
65.349095
 20
330.227850
 30
0.0
 10
65.473118
 20
330.396890
 30
0.0
 10
65.542940
 20
330.534696
 30
0.0
  0
SPLINE
  5
192
100
AcDbEntity
  8
Calque_1
 62
7
100
AcDbSpline
 70
8
 71
3
 72
8
 73
4
 74
0
 40
0
 40
0
 40
0
 40
0
 40
1
 40
1
 40
1
 40
1
 10
65.542940
 20
330.534696
 30
0.0
 10
65.614596
 20
330.674334
 30
0.0
 10
65.650424
 20
330.811220
 30
0.0
 10
65.650427
 20
330.945352
 30
0.0
  0
SPLINE
  5
193
100
AcDbEntity
  8
Calque_1
 62
7
100
AcDbSpline
 70
8
 71
3
 72
8
 73
4
 74
0
 40
0
 40
0
 40
0
 40
0
 40
1
 40
1
 40
1
 40
1
 10
65.650427
 20
330.945352
 30
0.0
 10
65.650424
 20
331.163998
 30
0.0
 10
65.573256
 20
331.342224
 30
0.0
 10
65.418917
 20
331.480030
 30
0.0
  0
SPLINE
  5
194
100
AcDbEntity
  8
Calque_1
 62
7
100
AcDbSpline
 70
8
 71
3
 72
8
 73
4
 74
0
 40
0
 40
0
 40
0
 40
0
 40
1
 40
1
 40
1
 40
1
 10
65.418917
 20
331.480030
 30
0.0
 10
65.266413
 20
331.617831
 30
0.0
 10
65.067057
 20
331.686733
 30
0.0
 10
64.820849
 20
331.686735
 30
0.0
  0
SPLINE
  5
195
100
AcDbEntity
  8
Calque_1
 62
7
100
AcDbSpline
 70
8
 71
3
 72
8
 73
4
 74
0
 40
0
 40
0
 40
0
 40
0
 40
1
 40
1
 40
1
 40
1
 10
64.820849
 20
331.686735
 30
0.0
 10
64.646294
 20
331.686733
 30
0.0
 10
64.461639
 20
331.656416
 30
0.0
 10
64.266878
 20
331.595786
 30
0.0
  0
SPLINE
  5
196
100
AcDbEntity
  8
Calque_1
 62
7
100
AcDbSpline
 70
8
 71
3
 72
8
 73
4
 74
0
 40
0
 40
0
 40
0
 40
0
 40
1
 40
1
 40
1
 40
1
 10
64.266878
 20
331.595786
 30
0.0
 10
64.073950
 20
331.535148
 30
0.0
 10
63.867245
 20
331.443279
 30
0.0
 10
63.646759
 20
331.320177
 30
0.0
  0
LWPOLYLINE
  5
197
100
AcDbEntity
  8
Calque_1
 62
7
100
AcDbPolyline
 90
5
 70
0
 10
204.838946
 20
258.789466
 30
0.0
 10
206.781981
 20
258.789466
 30
0.0
 10
206.781981
 20
258.320935
 30
0.0
 10
204.169222
 20
258.320935
 30
0.0
 10
204.169222
 20
258.789466
 30
0.0
  0
SPLINE
  5
198
100
AcDbEntity
  8
Calque_1
 62
7
100
AcDbSpline
 70
8
 71
3
 72
8
 73
4
 74
0
 40
0
 40
0
 40
0
 40
0
 40
1
 40
1
 40
1
 40
1
 10
63.646759
 20
331.882417
 30
0.0
 10
63.870920
 20
331.972446
 30
0.0
 10
64.080382
 20
332.040428
 30
0.0
 10
64.275147
 20
332.086368
 30
0.0
  0
SPLINE
  5
199
100
AcDbEntity
  8
Calque_1
 62
7
100
AcDbSpline
 70
8
 71
3
 72
8
 73
4
 74
0
 40
0
 40
0
 40
0
 40
0
 40
1
 40
1
 40
1
 40
1
 10
64.275147
 20
332.086368
 30
0.0
 10
64.469908
 20
332.132297
 30
0.0
 10
64.648134
 20
332.155264
 30
0.0
 10
64.809825
 20
332.155269
 30
0.0
  0
SPLINE
  5
19a
100
AcDbEntity
  8
Calque_1
 62
7
100
AcDbSpline
 70
8
 71
3
 72
8
 73
4
 74
0
 40
0
 40
0
 40
0
 40
0
 40
1
 40
1
 40
1
 40
1
 10
64.809825
 20
332.155269
 30
0.0
 10
65.236096
 20
332.155264
 30
0.0
 10
65.576011
 20
332.048697
 30
0.0
 10
65.829573
 20
331.835565
 30
0.0
  0
SPLINE
  5
19b
100
AcDbEntity
  8
Calque_1
 62
7
100
AcDbSpline
 70
8
 71
3
 72
8
 73
4
 74
0
 40
0
 40
0
 40
0
 40
0
 40
1
 40
1
 40
1
 40
1
 10
65.829573
 20
331.835565
 30
0.0
 10
66.083130
 20
331.622423
 30
0.0
 10
66.209907
 20
331.337629
 30
0.0
 10
66.209910
 20
330.981180
 30
0.0
  0
SPLINE
  5
19c
100
AcDbEntity
  8
Calque_1
 62
7
100
AcDbSpline
 70
8
 71
3
 72
8
 73
4
 74
0
 40
0
 40
0
 40
0
 40
0
 40
1
 40
1
 40
1
 40
1
 10
66.209910
 20
330.981180
 30
0.0
 10
66.209907
 20
330.812137
 30
0.0
 10
66.177753
 20
330.651366
 30
0.0
 10
66.113449
 20
330.498868
 30
0.0
  0
SPLINE
  5
19d
100
AcDbEntity
  8
Calque_1
 62
7
100
AcDbSpline
 70
8
 71
3
 72
8
 73
4
 74
0
 40
0
 40
0
 40
0
 40
0
 40
1
 40
1
 40
1
 40
1
 10
66.113449
 20
330.498868
 30
0.0
 10
66.050974
 20
330.348201
 30
0.0
 10
65.936137
 20
330.169974
 30
0.0
 10
65.768938
 20
329.964189
 30
0.0
  0
SPLINE
  5
19e
100
AcDbEntity
  8
Calque_1
 62
7
100
AcDbSpline
 70
8
 71
3
 72
8
 73
4
 74
0
 40
0
 40
0
 40
0
 40
0
 40
1
 40
1
 40
1
 40
1
 10
65.768938
 20
329.964189
 30
0.0
 10
65.723003
 20
329.910903
 30
0.0
 10
65.576931
 20
329.756561
 30
0.0
 10
65.330723
 20
329.501167
 30
0.0
  0
SPLINE
  5
19f
100
AcDbEntity
  8
Calque_1
 62
7
100
AcDbSpline
 70
8
 71
3
 72
8
 73
4
 74
0
 40
0
 40
0
 40
0
 40
0
 40
1
 40
1
 40
1
 40
1
 10
65.330723
 20
329.501167
 30
0.0
 10
65.084512
 20
329.247607
 30
0.0
 10
64.737246
 20
328.892075
 30
0.0
 10
64.288925
 20
328.434565
 30
0.0
  0
LWPOLYLINE
  5
1a0
100
AcDbEntity
  8
Calque_1
 62
7
100
AcDbPolyline
 90
2
 70
0
 10
204.196781
 20
261.675078
 30
0.0
 10
204.196781
 20
262.237319
 30
0.0
  0
SPLINE
  5
1a1
100
AcDbEntity
  8
Calque_1
 62
7
100
AcDbSpline
 70
8
 71
3
 72
8
 73
4
 74
0
 40
0
 40
0
 40
0
 40
0
 40
1
 40
1
 40
1
 40
1
 10
325.267360
 20
377.693182
 30
0.0
 10
325.478656
 20
377.911831
 30
0.0
 10
325.766207
 20
378.204894
 30
0.0
 10
326.130011
 20
378.572372
 30
0.0
  0
SPLINE
  5
1a2
100
AcDbEntity
  8
Calque_1
 62
7
100
AcDbSpline
 70
8
 71
3
 72
8
 73
4
 74
0
 40
0
 40
0
 40
0
 40
0
 40
1
 40
1
 40
1
 40
1
 10
326.130011
 20
378.572372
 30
0.0
 10
326.495647
 20
378.941686
 30
0.0
 10
326.725322
 20
379.179624
 30
0.0
 10
326.819029
 20
379.286197
 30
0.0
  0
SPLINE
  5
1a3
100
AcDbEntity
  8
Calque_1
 62
7
100
AcDbSpline
 70
8
 71
3
 72
8
 73
4
 74
0
 40
0
 40
0
 40
0
 40
0
 40
1
 40
1
 40
1
 40
1
 10
326.819029
 20
379.286197
 30
0.0
 10
326.997255
 20
379.486468
 30
0.0
 10
327.121277
 20
379.655507
 30
0.0
 10
327.191099
 20
379.793314
 30
0.0
  0
SPLINE
  5
1a4
100
AcDbEntity
  8
Calque_1
 62
7
100
AcDbSpline
 70
8
 71
3
 72
8
 73
4
 74
0
 40
0
 40
0
 40
0
 40
0
 40
1
 40
1
 40
1
 40
1
 10
327.191099
 20
379.793314
 30
0.0
 10
327.262755
 20
379.932952
 30
0.0
 10
327.298583
 20
380.069838
 30
0.0
 10
327.298586
 20
380.203970
 30
0.0
  0
SPLINE
  5
1a5
100
AcDbEntity
  8
Calque_1
 62
7
100
AcDbSpline
 70
8
 71
3
 72
8
 73
4
 74
0
 40
0
 40
0
 40
0
 40
0
 40
1
 40
1
 40
1
 40
1
 10
327.298586
 20
380.203970
 30
0.0
 10
327.298583
 20
380.422616
 30
0.0
 10
327.221415
 20
380.600842
 30
0.0
 10
327.067077
 20
380.738648
 30
0.0
  0
SPLINE
  5
1a6
100
AcDbEntity
  8
Calque_1
 62
7
100
AcDbSpline
 70
8
 71
3
 72
8
 73
4
 74
0
 40
0
 40
0
 40
0
 40
0
 40
1
 40
1
 40
1
 40
1
 10
327.067077
 20
380.738648
 30
0.0
 10
326.914572
 20
380.876449
 30
0.0
 10
326.715216
 20
380.945350
 30
0.0
 10
326.469008
 20
380.945353
 30
0.0
  0
SPLINE
  5
1a7
100
AcDbEntity
  8
Calque_1
 62
7
100
AcDbSpline
 70
8
 71
3
 72
8
 73
4
 74
0
 40
0
 40
0
 40
0
 40
0
 40
1
 40
1
 40
1
 40
1
 10
326.469008
 20
380.945353
 30
0.0
 10
326.294454
 20
380.945350
 30
0.0
 10
326.109798
 20
380.915034
 30
0.0
 10
325.915037
 20
380.854404
 30
0.0
  0
SPLINE
  5
1a8
100
AcDbEntity
  8
Calque_1
 62
7
100
AcDbSpline
 70
8
 71
3
 72
8
 73
4
 74
0
 40
0
 40
0
 40
0
 40
0
 40
1
 40
1
 40
1
 40
1
 10
325.915037
 20
380.854404
 30
0.0
 10
325.722110
 20
380.793766
 30
0.0
 10
325.515405
 20
380.701897
 30
0.0
 10
325.294919
 20
380.578795
 30
0.0
  0
LWPOLYLINE
  5
1a9
100
AcDbEntity
  8
Calque_1
 62
7
100
AcDbPolyline
 90
5
 70
0
 10
64.288925
 20
328.434565
 30
0.0
 10
66.231960
 20
328.434565
 30
0.0
 10
66.231960
 20
327.966033
 30
0.0
 10
63.619200
 20
327.966033
 30
0.0
 10
63.619200
 20
328.434565
 30
0.0
  0
SPLINE
  5
1aa
100
AcDbEntity
  8
Calque_1
 62
7
100
AcDbSpline
 70
8
 71
3
 72
8
 73
4
 74
0
 40
0
 40
0
 40
0
 40
0
 40
1
 40
1
 40
1
 40
1
 10
325.294919
 20
381.141035
 30
0.0
 10
325.519079
 20
381.231064
 30
0.0
 10
325.728542
 20
381.299045
 30
0.0
 10
325.923306
 20
381.344986
 30
0.0
  0
SPLINE
  5
1ab
100
AcDbEntity
  8
Calque_1
 62
7
100
AcDbSpline
 70
8
 71
3
 72
8
 73
4
 74
0
 40
0
 40
0
 40
0
 40
0
 40
1
 40
1
 40
1
 40
1
 10
325.923306
 20
381.344986
 30
0.0
 10
326.118068
 20
381.390914
 30
0.0
 10
326.296294
 20
381.413882
 30
0.0
 10
326.457985
 20
381.413887
 30
0.0
  0
SPLINE
  5
1ac
100
AcDbEntity
  8
Calque_1
 62
7
100
AcDbSpline
 70
8
 71
3
 72
8
 73
4
 74
0
 40
0
 40
0
 40
0
 40
0
 40
1
 40
1
 40
1
 40
1
 10
326.457985
 20
381.413887
 30
0.0
 10
326.884256
 20
381.413882
 30
0.0
 10
327.224170
 20
381.307315
 30
0.0
 10
327.477732
 20
381.094183
 30
0.0
  0
SPLINE
  5
1ad
100
AcDbEntity
  8
Calque_1
 62
7
100
AcDbSpline
 70
8
 71
3
 72
8
 73
4
 74
0
 40
0
 40
0
 40
0
 40
0
 40
1
 40
1
 40
1
 40
1
 10
327.477732
 20
381.094183
 30
0.0
 10
327.731289
 20
380.881041
 30
0.0
 10
327.858066
 20
380.596247
 30
0.0
 10
327.858069
 20
380.239798
 30
0.0
  0
SPLINE
  5
1ae
100
AcDbEntity
  8
Calque_1
 62
7
100
AcDbSpline
 70
8
 71
3
 72
8
 73
4
 74
0
 40
0
 40
0
 40
0
 40
0
 40
1
 40
1
 40
1
 40
1
 10
327.858069
 20
380.239798
 30
0.0
 10
327.858066
 20
380.070755
 30
0.0
 10
327.825913
 20
379.909984
 30
0.0
 10
327.761608
 20
379.757486
 30
0.0
  0
SPLINE
  5
1af
100
AcDbEntity
  8
Calque_1
 62
7
100
AcDbSpline
 70
8
 71
3
 72
8
 73
4
 74
0
 40
0
 40
0
 40
0
 40
0
 40
1
 40
1
 40
1
 40
1
 10
327.761608
 20
379.757486
 30
0.0
 10
327.699133
 20
379.606818
 30
0.0
 10
327.584297
 20
379.428592
 30
0.0
 10
327.417097
 20
379.222807
 30
0.0
  0
SPLINE
  5
1b0
100
AcDbEntity
  8
Calque_1
 62
7
100
AcDbSpline
 70
8
 71
3
 72
8
 73
4
 74
0
 40
0
 40
0
 40
0
 40
0
 40
1
 40
1
 40
1
 40
1
 10
327.417097
 20
379.222807
 30
0.0
 10
327.371162
 20
379.169521
 30
0.0
 10
327.225090
 20
379.015179
 30
0.0
 10
326.978882
 20
378.759785
 30
0.0
  0
SPLINE
  5
1b1
100
AcDbEntity
  8
Calque_1
 62
7
100
AcDbSpline
 70
8
 71
3
 72
8
 73
4
 74
0
 40
0
 40
0
 40
0
 40
0
 40
1
 40
1
 40
1
 40
1
 10
326.978882
 20
378.759785
 30
0.0
 10
326.732671
 20
378.506225
 30
0.0
 10
326.385405
 20
378.150693
 30
0.0
 10
325.937084
 20
377.693182
 30
0.0
  0
LWPOLYLINE
  5
1b2
100
AcDbEntity
  8
Calque_1
 62
7
100
AcDbPolyline
 90
2
 70
0
 10
63.646759
 20
331.320177
 30
0.0
 10
63.646759
 20
331.882417
 30
0.0
  0
SPLINE
  5
1b3
100
AcDbEntity
  8
Calque_1
 62
7
100
AcDbSpline
 70
8
 71
3
 72
8
 73
4
 74
0
 40
0
 40
0
 40
0
 40
0
 40
1
 40
1
 40
1
 40
1
 10
354.117010
 20
377.566944
 30
0.0
 10
354.328307
 20
377.785593
 30
0.0
 10
354.615857
 20
378.078656
 30
0.0
 10
354.979661
 20
378.446134
 30
0.0
  0
SPLINE
  5
1b4
100
AcDbEntity
  8
Calque_1
 62
7
100
AcDbSpline
 70
8
 71
3
 72
8
 73
4
 74
0
 40
0
 40
0
 40
0
 40
0
 40
1
 40
1
 40
1
 40
1
 10
354.979661
 20
378.446134
 30
0.0
 10
355.345297
 20
378.815448
 30
0.0
 10
355.574973
 20
379.053386
 30
0.0
 10
355.668679
 20
379.159959
 30
0.0
  0
SPLINE
  5
1b5
100
AcDbEntity
  8
Calque_1
 62
7
100
AcDbSpline
 70
8
 71
3
 72
8
 73
4
 74
0
 40
0
 40
0
 40
0
 40
0
 40
1
 40
1
 40
1
 40
1
 10
355.668679
 20
379.159959
 30
0.0
 10
355.846905
 20
379.360230
 30
0.0
 10
355.970927
 20
379.529269
 30
0.0
 10
356.040749
 20
379.667076
 30
0.0
  0
SPLINE
  5
1b6
100
AcDbEntity
  8
Calque_1
 62
7
100
AcDbSpline
 70
8
 71
3
 72
8
 73
4
 74
0
 40
0
 40
0
 40
0
 40
0
 40
1
 40
1
 40
1
 40
1
 10
356.040749
 20
379.667076
 30
0.0
 10
356.112405
 20
379.806714
 30
0.0
 10
356.148234
 20
379.943600
 30
0.0
 10
356.148236
 20
380.077732
 30
0.0
  0
SPLINE
  5
1b7
100
AcDbEntity
  8
Calque_1
 62
7
100
AcDbSpline
 70
8
 71
3
 72
8
 73
4
 74
0
 40
0
 40
0
 40
0
 40
0
 40
1
 40
1
 40
1
 40
1
 10
356.148236
 20
380.077732
 30
0.0
 10
356.148234
 20
380.296378
 30
0.0
 10
356.071066
 20
380.474604
 30
0.0
 10
355.916727
 20
380.612410
 30
0.0
  0
SPLINE
  5
1b8
100
AcDbEntity
  8
Calque_1
 62
7
100
AcDbSpline
 70
8
 71
3
 72
8
 73
4
 74
0
 40
0
 40
0
 40
0
 40
0
 40
1
 40
1
 40
1
 40
1
 10
355.916727
 20
380.612410
 30
0.0
 10
355.764222
 20
380.750211
 30
0.0
 10
355.564866
 20
380.819112
 30
0.0
 10
355.318658
 20
380.819115
 30
0.0
  0
SPLINE
  5
1b9
100
AcDbEntity
  8
Calque_1
 62
7
100
AcDbSpline
 70
8
 71
3
 72
8
 73
4
 74
0
 40
0
 40
0
 40
0
 40
0
 40
1
 40
1
 40
1
 40
1
 10
355.318658
 20
380.819115
 30
0.0
 10
355.144104
 20
380.819112
 30
0.0
 10
354.959449
 20
380.788796
 30
0.0
 10
354.764687
 20
380.728166
 30
0.0
  0
SPLINE
  5
1ba
100
AcDbEntity
  8
Calque_1
 62
7
100
AcDbSpline
 70
8
 71
3
 72
8
 73
4
 74
0
 40
0
 40
0
 40
0
 40
0
 40
1
 40
1
 40
1
 40
1
 10
354.764687
 20
380.728166
 30
0.0
 10
354.571760
 20
380.667528
 30
0.0
 10
354.365055
 20
380.575659
 30
0.0
 10
354.144569
 20
380.452557
 30
0.0
  0
LWPOLYLINE
  5
1bb
100
AcDbEntity
  8
Calque_1
 62
7
100
AcDbPolyline
 90
5
 70
0
 10
325.937084
 20
377.693182
 30
0.0
 10
327.880119
 20
377.693182
 30
0.0
 10
327.880119
 20
377.224651
 30
0.0
 10
325.267360
 20
377.224651
 30
0.0
 10
325.267360
 20
377.693182
 30
0.0
  0
SPLINE
  5
1bc
100
AcDbEntity
  8
Calque_1
 62
7
100
AcDbSpline
 70
8
 71
3
 72
8
 73
4
 74
0
 40
0
 40
0
 40
0
 40
0
 40
1
 40
1
 40
1
 40
1
 10
354.144569
 20
381.014797
 30
0.0
 10
354.368729
 20
381.104826
 30
0.0
 10
354.578192
 20
381.172807
 30
0.0
 10
354.772956
 20
381.218748
 30
0.0
  0
SPLINE
  5
1bd
100
AcDbEntity
  8
Calque_1
 62
7
100
AcDbSpline
 70
8
 71
3
 72
8
 73
4
 74
0
 40
0
 40
0
 40
0
 40
0
 40
1
 40
1
 40
1
 40
1
 10
354.772956
 20
381.218748
 30
0.0
 10
354.967718
 20
381.264676
 30
0.0
 10
355.145944
 20
381.287644
 30
0.0
 10
355.307635
 20
381.287649
 30
0.0
  0
SPLINE
  5
1be
100
AcDbEntity
  8
Calque_1
 62
7
100
AcDbSpline
 70
8
 71
3
 72
8
 73
4
 74
0
 40
0
 40
0
 40
0
 40
0
 40
1
 40
1
 40
1
 40
1
 10
355.307635
 20
381.287649
 30
0.0
 10
355.733906
 20
381.287644
 30
0.0
 10
356.073820
 20
381.181077
 30
0.0
 10
356.327383
 20
380.967945
 30
0.0
  0
SPLINE
  5
1bf
100
AcDbEntity
  8
Calque_1
 62
7
100
AcDbSpline
 70
8
 71
3
 72
8
 73
4
 74
0
 40
0
 40
0
 40
0
 40
0
 40
1
 40
1
 40
1
 40
1
 10
356.327383
 20
380.967945
 30
0.0
 10
356.580940
 20
380.754803
 30
0.0
 10
356.707717
 20
380.470009
 30
0.0
 10
356.707719
 20
380.113560
 30
0.0
  0
SPLINE
  5
1c0
100
AcDbEntity
  8
Calque_1
 62
7
100
AcDbSpline
 70
8
 71
3
 72
8
 73
4
 74
0
 40
0
 40
0
 40
0
 40
0
 40
1
 40
1
 40
1
 40
1
 10
356.707719
 20
380.113560
 30
0.0
 10
356.707717
 20
379.944517
 30
0.0
 10
356.675563
 20
379.783746
 30
0.0
 10
356.611259
 20
379.631248
 30
0.0
  0
SPLINE
  5
1c1
100
AcDbEntity
  8
Calque_1
 62
7
100
AcDbSpline
 70
8
 71
3
 72
8
 73
4
 74
0
 40
0
 40
0
 40
0
 40
0
 40
1
 40
1
 40
1
 40
1
 10
356.611259
 20
379.631248
 30
0.0
 10
356.548783
 20
379.480580
 30
0.0
 10
356.433947
 20
379.302354
 30
0.0
 10
356.266747
 20
379.096569
 30
0.0
  0
SPLINE
  5
1c2
100
AcDbEntity
  8
Calque_1
 62
7
100
AcDbSpline
 70
8
 71
3
 72
8
 73
4
 74
0
 40
0
 40
0
 40
0
 40
0
 40
1
 40
1
 40
1
 40
1
 10
356.266747
 20
379.096569
 30
0.0
 10
356.220813
 20
379.043283
 30
0.0
 10
356.074740
 20
378.888941
 30
0.0
 10
355.828532
 20
378.633547
 30
0.0
  0
SPLINE
  5
1c3
100
AcDbEntity
  8
Calque_1
 62
7
100
AcDbSpline
 70
8
 71
3
 72
8
 73
4
 74
0
 40
0
 40
0
 40
0
 40
0
 40
1
 40
1
 40
1
 40
1
 10
355.828532
 20
378.633547
 30
0.0
 10
355.582322
 20
378.379987
 30
0.0
 10
355.235056
 20
378.024455
 30
0.0
 10
354.786734
 20
377.566944
 30
0.0
  0
SPLINE
  5
1c4
100
AcDbEntity
  8
Calque_1
 62
7
100
AcDbSpline
 70
8
 71
3
 72
8
 73
4
 74
0
 40
0
 40
0
 40
0
 40
0
 40
1
 40
1
 40
1
 40
1
 10
245.703412
 20
350.347715
 30
0.0
 10
245.969830
 20
350.290754
 30
0.0
 10
246.177455
 20
350.172243
 30
0.0
 10
246.326285
 20
349.992182
 30
0.0
  0
SPLINE
  5
1c5
100
AcDbEntity
  8
Calque_1
 62
7
100
AcDbSpline
 70
8
 71
3
 72
8
 73
4
 74
0
 40
0
 40
0
 40
0
 40
0
 40
1
 40
1
 40
1
 40
1
 10
246.326285
 20
349.992182
 30
0.0
 10
246.476949
 20
349.812116
 30
0.0
 10
246.552280
 20
349.589793
 30
0.0
 10
246.552283
 20
349.325209
 30
0.0
  0
SPLINE
  5
1c6
100
AcDbEntity
  8
Calque_1
 62
7
100
AcDbSpline
 70
8
 71
3
 72
8
 73
4
 74
0
 40
0
 40
0
 40
0
 40
0
 40
1
 40
1
 40
1
 40
1
 10
246.552283
 20
349.325209
 30
0.0
 10
246.552280
 20
348.919148
 30
0.0
 10
246.412639
 20
348.604956
 30
0.0
 10
246.133360
 20
348.382632
 30
0.0
  0
SPLINE
  5
1c7
100
AcDbEntity
  8
Calque_1
 62
7
100
AcDbSpline
 70
8
 71
3
 72
8
 73
4
 74
0
 40
0
 40
0
 40
0
 40
0
 40
1
 40
1
 40
1
 40
1
 10
246.133360
 20
348.382632
 30
0.0
 10
245.854076
 20
348.160309
 30
0.0
 10
245.457201
 20
348.049147
 30
0.0
 10
244.942735
 20
348.049147
 30
0.0
  0
SPLINE
  5
1c8
100
AcDbEntity
  8
Calque_1
 62
7
100
AcDbSpline
 70
8
 71
3
 72
8
 73
4
 74
0
 40
0
 40
0
 40
0
 40
0
 40
1
 40
1
 40
1
 40
1
 10
244.942735
 20
348.049147
 30
0.0
 10
244.770021
 20
348.049147
 30
0.0
 10
244.591795
 20
348.066589
 30
0.0
 10
244.408057
 20
348.101514
 30
0.0
  0
SPLINE
  5
1c9
100
AcDbEntity
  8
Calque_1
 62
7
100
AcDbSpline
 70
8
 71
3
 72
8
 73
4
 74
0
 40
0
 40
0
 40
0
 40
0
 40
1
 40
1
 40
1
 40
1
 10
244.408057
 20
348.101514
 30
0.0
 10
244.226153
 20
348.134584
 30
0.0
 10
244.037824
 20
348.185113
 30
0.0
 10
243.843059
 20
348.253098
 30
0.0
  0
LWPOLYLINE
  5
1ca
100
AcDbEntity
  8
Calque_1
 62
7
100
AcDbPolyline
 90
2
 70
0
 10
325.294919
 20
380.578795
 30
0.0
 10
325.294919
 20
381.141035
 30
0.0
  0
SPLINE
  5
1cb
100
AcDbEntity
  8
Calque_1
 62
7
100
AcDbSpline
 70
8
 71
3
 72
8
 73
4
 74
0
 40
0
 40
0
 40
0
 40
0
 40
1
 40
1
 40
1
 40
1
 10
243.843059
 20
348.790531
 30
0.0
 10
243.997401
 20
348.700499
 30
0.0
 10
244.166441
 20
348.632518
 30
0.0
 10
244.350179
 20
348.586583
 30
0.0
  0
SPLINE
  5
1cc
100
AcDbEntity
  8
Calque_1
 62
7
100
AcDbSpline
 70
8
 71
3
 72
8
 73
4
 74
0
 40
0
 40
0
 40
0
 40
0
 40
1
 40
1
 40
1
 40
1
 10
244.350179
 20
348.586583
 30
0.0
 10
244.533917
 20
348.540649
 30
0.0
 10
244.725924
 20
348.517681
 30
0.0
 10
244.926200
 20
348.517681
 30
0.0
  0
SPLINE
  5
1cd
100
AcDbEntity
  8
Calque_1
 62
7
100
AcDbSpline
 70
8
 71
3
 72
8
 73
4
 74
0
 40
0
 40
0
 40
0
 40
0
 40
1
 40
1
 40
1
 40
1
 10
244.926200
 20
348.517681
 30
0.0
 10
245.275300
 20
348.517681
 30
0.0
 10
245.540801
 20
348.586583
 30
0.0
 10
245.722704
 20
348.724387
 30
0.0
  0
SPLINE
  5
1ce
100
AcDbEntity
  8
Calque_1
 62
7
100
AcDbSpline
 70
8
 71
3
 72
8
 73
4
 74
0
 40
0
 40
0
 40
0
 40
0
 40
1
 40
1
 40
1
 40
1
 10
245.722704
 20
348.724387
 30
0.0
 10
245.906440
 20
348.862190
 30
0.0
 10
245.998309
 20
349.062463
 30
0.0
 10
245.998311
 20
349.325209
 30
0.0
  0
SPLINE
  5
1cf
100
AcDbEntity
  8
Calque_1
 62
7
100
AcDbSpline
 70
8
 71
3
 72
8
 73
4
 74
0
 40
0
 40
0
 40
0
 40
0
 40
1
 40
1
 40
1
 40
1
 10
245.998311
 20
349.325209
 30
0.0
 10
245.998309
 20
349.567743
 30
0.0
 10
245.912871
 20
349.756995
 30
0.0
 10
245.741997
 20
349.892961
 30
0.0
  0
SPLINE
  5
1d0
100
AcDbEntity
  8
Calque_1
 62
7
100
AcDbSpline
 70
8
 71
3
 72
8
 73
4
 74
0
 40
0
 40
0
 40
0
 40
0
 40
1
 40
1
 40
1
 40
1
 10
245.741997
 20
349.892961
 30
0.0
 10
245.572955
 20
350.030765
 30
0.0
 10
245.336853
 20
350.099667
 30
0.0
 10
245.033684
 20
350.099670
 30
0.0
  0
LWPOLYLINE
  5
1d1
100
AcDbEntity
  8
Calque_1
 62
7
100
AcDbPolyline
 90
5
 70
0
 10
354.786734
 20
377.566944
 30
0.0
 10
356.729769
 20
377.566944
 30
0.0
 10
356.729769
 20
377.098413
 30
0.0
 10
354.117010
 20
377.098413
 30
0.0
 10
354.117010
 20
377.566944
 30
0.0
  0
SPLINE
  5
1d2
100
AcDbEntity
  8
Calque_1
 62
7
100
AcDbSpline
 70
8
 71
3
 72
8
 73
4
 74
0
 40
0
 40
0
 40
0
 40
0
 40
1
 40
1
 40
1
 40
1
 10
245.055734
 20
350.557177
 30
0.0
 10
245.329501
 20
350.557174
 30
0.0
 10
245.538964
 20
350.611378
 30
0.0
 10
245.684119
 20
350.719785
 30
0.0
  0
SPLINE
  5
1d3
100
AcDbEntity
  8
Calque_1
 62
7
100
AcDbSpline
 70
8
 71
3
 72
8
 73
4
 74
0
 40
0
 40
0
 40
0
 40
0
 40
1
 40
1
 40
1
 40
1
 10
245.684119
 20
350.719785
 30
0.0
 10
245.829272
 20
350.830027
 30
0.0
 10
245.901848
 20
350.988040
 30
0.0
 10
245.901851
 20
351.193831
 30
0.0
  0
SPLINE
  5
1d4
100
AcDbEntity
  8
Calque_1
 62
7
100
AcDbSpline
 70
8
 71
3
 72
8
 73
4
 74
0
 40
0
 40
0
 40
0
 40
0
 40
1
 40
1
 40
1
 40
1
 10
245.901851
 20
351.193831
 30
0.0
 10
245.901848
 20
351.405128
 30
0.0
 10
245.826514
 20
351.566816
 30
0.0
 10
245.675853
 20
351.678900
 30
0.0
  0
SPLINE
  5
1d5
100
AcDbEntity
  8
Calque_1
 62
7
100
AcDbSpline
 70
8
 71
3
 72
8
 73
4
 74
0
 40
0
 40
0
 40
0
 40
0
 40
1
 40
1
 40
1
 40
1
 10
245.675853
 20
351.678900
 30
0.0
 10
245.527020
 20
351.792814
 30
0.0
 10
245.312966
 20
351.849772
 30
0.0
 10
245.033684
 20
351.849777
 30
0.0
  0
SPLINE
  5
1d6
100
AcDbEntity
  8
Calque_1
 62
7
100
AcDbSpline
 70
8
 71
3
 72
8
 73
4
 74
0
 40
0
 40
0
 40
0
 40
0
 40
1
 40
1
 40
1
 40
1
 10
245.033684
 20
351.849777
 30
0.0
 10
244.881180
 20
351.849772
 30
0.0
 10
244.717655
 20
351.833239
 30
0.0
 10
244.543103
 20
351.800168
 30
0.0
  0
SPLINE
  5
1d7
100
AcDbEntity
  8
Calque_1
 62
7
100
AcDbSpline
 70
8
 71
3
 72
8
 73
4
 74
0
 40
0
 40
0
 40
0
 40
0
 40
1
 40
1
 40
1
 40
1
 10
244.543103
 20
351.800168
 30
0.0
 10
244.368551
 20
351.767092
 30
0.0
 10
244.176544
 20
351.715643
 30
0.0
 10
243.967085
 20
351.645827
 30
0.0
  0
LWPOLYLINE
  5
1d8
100
AcDbEntity
  8
Calque_1
 62
7
100
AcDbPolyline
 90
2
 70
0
 10
354.144569
 20
380.452557
 30
0.0
 10
354.144569
 20
381.014797
 30
0.0
  0
SPLINE
  5
1d9
100
AcDbEntity
  8
Calque_1
 62
7
100
AcDbSpline
 70
8
 71
3
 72
8
 73
4
 74
0
 40
0
 40
0
 40
0
 40
0
 40
1
 40
1
 40
1
 40
1
 10
243.967085
 20
352.141920
 30
0.0
 10
244.178382
 20
352.200712
 30
0.0
 10
244.375900
 20
352.244810
 30
0.0
 10
244.559641
 20
352.274211
 30
0.0
  0
SPLINE
  5
1da
100
AcDbEntity
  8
Calque_1
 62
7
100
AcDbSpline
 70
8
 71
3
 72
8
 73
4
 74
0
 40
0
 40
0
 40
0
 40
0
 40
1
 40
1
 40
1
 40
1
 10
244.559641
 20
352.274211
 30
0.0
 10
244.745214
 20
352.303608
 30
0.0
 10
244.919765
 20
352.318306
 30
0.0
 10
245.083296
 20
352.318309
 30
0.0
  0
SPLINE
  5
1db
100
AcDbEntity
  8
Calque_1
 62
7
100
AcDbSpline
 70
8
 71
3
 72
8
 73
4
 74
0
 40
0
 40
0
 40
0
 40
0
 40
1
 40
1
 40
1
 40
1
 10
245.083296
 20
352.318309
 30
0.0
 10
245.505890
 20
352.318306
 30
0.0
 10
245.840295
 20
352.221842
 30
0.0
 10
246.086506
 20
352.028921
 30
0.0
  0
SPLINE
  5
1dc
100
AcDbEntity
  8
Calque_1
 62
7
100
AcDbSpline
 70
8
 71
3
 72
8
 73
4
 74
0
 40
0
 40
0
 40
0
 40
0
 40
1
 40
1
 40
1
 40
1
 10
246.086506
 20
352.028921
 30
0.0
 10
246.332714
 20
351.837831
 30
0.0
 10
246.455819
 20
351.578759
 30
0.0
 10
246.455822
 20
351.251709
 30
0.0
  0
SPLINE
  5
1dd
100
AcDbEntity
  8
Calque_1
 62
7
100
AcDbSpline
 70
8
 71
3
 72
8
 73
4
 74
0
 40
0
 40
0
 40
0
 40
0
 40
1
 40
1
 40
1
 40
1
 10
246.455822
 20
351.251709
 30
0.0
 10
246.455819
 20
351.023868
 30
0.0
 10
246.390592
 20
350.830944
 30
0.0
 10
246.260140
 20
350.672933
 30
0.0
  0
SPLINE
  5
1de
100
AcDbEntity
  8
Calque_1
 62
7
100
AcDbSpline
 70
8
 71
3
 72
8
 73
4
 74
0
 40
0
 40
0
 40
0
 40
0
 40
1
 40
1
 40
1
 40
1
 10
246.260140
 20
350.672933
 30
0.0
 10
246.129683
 20
350.516752
 30
0.0
 10
245.944108
 20
350.408347
 30
0.0
 10
245.703412
 20
350.347715
 30
0.0
  0
SPLINE
  5
1df
100
AcDbEntity
  8
Calque_1
 62
7
100
AcDbSpline
 70
8
 71
3
 72
8
 73
4
 74
0
 40
0
 40
0
 40
0
 40
0
 40
1
 40
1
 40
1
 40
1
 10
172.834807
 20
385.135112
 30
0.0
 10
173.101225
 20
385.078151
 30
0.0
 10
173.308850
 20
384.959640
 30
0.0
 10
173.457680
 20
384.779579
 30
0.0
  0
SPLINE
  5
1e0
100
AcDbEntity
  8
Calque_1
 62
7
100
AcDbSpline
 70
8
 71
3
 72
8
 73
4
 74
0
 40
0
 40
0
 40
0
 40
0
 40
1
 40
1
 40
1
 40
1
 10
173.457680
 20
384.779579
 30
0.0
 10
173.608344
 20
384.599513
 30
0.0
 10
173.683675
 20
384.377190
 30
0.0
 10
173.683678
 20
384.112606
 30
0.0
  0
SPLINE
  5
1e1
100
AcDbEntity
  8
Calque_1
 62
7
100
AcDbSpline
 70
8
 71
3
 72
8
 73
4
 74
0
 40
0
 40
0
 40
0
 40
0
 40
1
 40
1
 40
1
 40
1
 10
173.683678
 20
384.112606
 30
0.0
 10
173.683675
 20
383.706545
 30
0.0
 10
173.544034
 20
383.392353
 30
0.0
 10
173.264755
 20
383.170029
 30
0.0
  0
SPLINE
  5
1e2
100
AcDbEntity
  8
Calque_1
 62
7
100
AcDbSpline
 70
8
 71
3
 72
8
 73
4
 74
0
 40
0
 40
0
 40
0
 40
0
 40
1
 40
1
 40
1
 40
1
 10
173.264755
 20
383.170029
 30
0.0
 10
172.985471
 20
382.947706
 30
0.0
 10
172.588596
 20
382.836544
 30
0.0
 10
172.074130
 20
382.836544
 30
0.0
  0
SPLINE
  5
1e3
100
AcDbEntity
  8
Calque_1
 62
7
100
AcDbSpline
 70
8
 71
3
 72
8
 73
4
 74
0
 40
0
 40
0
 40
0
 40
0
 40
1
 40
1
 40
1
 40
1
 10
172.074130
 20
382.836544
 30
0.0
 10
171.901416
 20
382.836544
 30
0.0
 10
171.723190
 20
382.853986
 30
0.0
 10
171.539452
 20
382.888911
 30
0.0
  0
SPLINE
  5
1e4
100
AcDbEntity
  8
Calque_1
 62
7
100
AcDbSpline
 70
8
 71
3
 72
8
 73
4
 74
0
 40
0
 40
0
 40
0
 40
0
 40
1
 40
1
 40
1
 40
1
 10
171.539452
 20
382.888911
 30
0.0
 10
171.357549
 20
382.921981
 30
0.0
 10
171.169219
 20
382.972510
 30
0.0
 10
170.974454
 20
383.040495
 30
0.0
  0
LWPOLYLINE
  5
1e5
100
AcDbEntity
  8
Calque_1
 62
7
100
AcDbPolyline
 90
2
 70
0
 10
243.843059
 20
348.253098
 30
0.0
 10
243.843059
 20
348.790531
 30
0.0
  0
SPLINE
  5
1e6
100
AcDbEntity
  8
Calque_1
 62
7
100
AcDbSpline
 70
8
 71
3
 72
8
 73
4
 74
0
 40
0
 40
0
 40
0
 40
0
 40
1
 40
1
 40
1
 40
1
 10
170.974454
 20
383.577928
 30
0.0
 10
171.128796
 20
383.487896
 30
0.0
 10
171.297836
 20
383.419914
 30
0.0
 10
171.481574
 20
383.373980
 30
0.0
  0
SPLINE
  5
1e7
100
AcDbEntity
  8
Calque_1
 62
7
100
AcDbSpline
 70
8
 71
3
 72
8
 73
4
 74
0
 40
0
 40
0
 40
0
 40
0
 40
1
 40
1
 40
1
 40
1
 10
171.481574
 20
383.373980
 30
0.0
 10
171.665312
 20
383.328045
 30
0.0
 10
171.857319
 20
383.305078
 30
0.0
 10
172.057595
 20
383.305078
 30
0.0
  0
SPLINE
  5
1e8
100
AcDbEntity
  8
Calque_1
 62
7
100
AcDbSpline
 70
8
 71
3
 72
8
 73
4
 74
0
 40
0
 40
0
 40
0
 40
0
 40
1
 40
1
 40
1
 40
1
 10
172.057595
 20
383.305078
 30
0.0
 10
172.406696
 20
383.305078
 30
0.0
 10
172.672196
 20
383.373980
 30
0.0
 10
172.854100
 20
383.511783
 30
0.0
  0
SPLINE
  5
1e9
100
AcDbEntity
  8
Calque_1
 62
7
100
AcDbSpline
 70
8
 71
3
 72
8
 73
4
 74
0
 40
0
 40
0
 40
0
 40
0
 40
1
 40
1
 40
1
 40
1
 10
172.854100
 20
383.511783
 30
0.0
 10
173.037835
 20
383.649587
 30
0.0
 10
173.129704
 20
383.849860
 30
0.0
 10
173.129707
 20
384.112606
 30
0.0
  0
SPLINE
  5
1ea
100
AcDbEntity
  8
Calque_1
 62
7
100
AcDbSpline
 70
8
 71
3
 72
8
 73
4
 74
0
 40
0
 40
0
 40
0
 40
0
 40
1
 40
1
 40
1
 40
1
 10
173.129707
 20
384.112606
 30
0.0
 10
173.129704
 20
384.355140
 30
0.0
 10
173.044267
 20
384.544392
 30
0.0
 10
172.873392
 20
384.680358
 30
0.0
  0
SPLINE
  5
1eb
100
AcDbEntity
  8
Calque_1
 62
7
100
AcDbSpline
 70
8
 71
3
 72
8
 73
4
 74
0
 40
0
 40
0
 40
0
 40
0
 40
1
 40
1
 40
1
 40
1
 10
172.873392
 20
384.680358
 30
0.0
 10
172.704350
 20
384.818162
 30
0.0
 10
172.468248
 20
384.887064
 30
0.0
 10
172.165079
 20
384.887066
 30
0.0
  0
LWPOLYLINE
  5
1ec
100
AcDbEntity
  8
Calque_1
 62
7
100
AcDbPolyline
 90
4
 70
0
 10
245.033684
 20
350.099670
 30
0.0
 10
244.554129
 20
350.099670
 30
0.0
 10
244.554129
 20
350.557177
 30
0.0
 10
245.055734
 20
350.557177
 30
0.0
  0
SPLINE
  5
1ed
100
AcDbEntity
  8
Calque_1
 62
7
100
AcDbSpline
 70
8
 71
3
 72
8
 73
4
 74
0
 40
0
 40
0
 40
0
 40
0
 40
1
 40
1
 40
1
 40
1
 10
172.187129
 20
385.344574
 30
0.0
 10
172.460896
 20
385.344571
 30
0.0
 10
172.670359
 20
385.398775
 30
0.0
 10
172.815514
 20
385.507182
 30
0.0
  0
SPLINE
  5
1ee
100
AcDbEntity
  8
Calque_1
 62
7
100
AcDbSpline
 70
8
 71
3
 72
8
 73
4
 74
0
 40
0
 40
0
 40
0
 40
0
 40
1
 40
1
 40
1
 40
1
 10
172.815514
 20
385.507182
 30
0.0
 10
172.960667
 20
385.617424
 30
0.0
 10
173.033243
 20
385.775437
 30
0.0
 10
173.033246
 20
385.981228
 30
0.0
  0
SPLINE
  5
1ef
100
AcDbEntity
  8
Calque_1
 62
7
100
AcDbSpline
 70
8
 71
3
 72
8
 73
4
 74
0
 40
0
 40
0
 40
0
 40
0
 40
1
 40
1
 40
1
 40
1
 10
173.033246
 20
385.981228
 30
0.0
 10
173.033243
 20
386.192525
 30
0.0
 10
172.957909
 20
386.354213
 30
0.0
 10
172.807248
 20
386.466297
 30
0.0
  0
SPLINE
  5
1f0
100
AcDbEntity
  8
Calque_1
 62
7
100
AcDbSpline
 70
8
 71
3
 72
8
 73
4
 74
0
 40
0
 40
0
 40
0
 40
0
 40
1
 40
1
 40
1
 40
1
 10
172.807248
 20
386.466297
 30
0.0
 10
172.658415
 20
386.580211
 30
0.0
 10
172.444361
 20
386.637169
 30
0.0
 10
172.165079
 20
386.637174
 30
0.0
  0
SPLINE
  5
1f1
100
AcDbEntity
  8
Calque_1
 62
7
100
AcDbSpline
 70
8
 71
3
 72
8
 73
4
 74
0
 40
0
 40
0
 40
0
 40
0
 40
1
 40
1
 40
1
 40
1
 10
172.165079
 20
386.637174
 30
0.0
 10
172.012575
 20
386.637169
 30
0.0
 10
171.849050
 20
386.620636
 30
0.0
 10
171.674498
 20
386.587565
 30
0.0
  0
SPLINE
  5
1f2
100
AcDbEntity
  8
Calque_1
 62
7
100
AcDbSpline
 70
8
 71
3
 72
8
 73
4
 74
0
 40
0
 40
0
 40
0
 40
0
 40
1
 40
1
 40
1
 40
1
 10
171.674498
 20
386.587565
 30
0.0
 10
171.499947
 20
386.554489
 30
0.0
 10
171.307939
 20
386.503040
 30
0.0
 10
171.098480
 20
386.433224
 30
0.0
  0
LWPOLYLINE
  5
1f3
100
AcDbEntity
  8
Calque_1
 62
7
100
AcDbPolyline
 90
2
 70
0
 10
243.967085
 20
351.645827
 30
0.0
 10
243.967085
 20
352.141920
 30
0.0
  0
SPLINE
  5
1f4
100
AcDbEntity
  8
Calque_1
 62
7
100
AcDbSpline
 70
8
 71
3
 72
8
 73
4
 74
0
 40
0
 40
0
 40
0
 40
0
 40
1
 40
1
 40
1
 40
1
 10
171.098480
 20
386.929317
 30
0.0
 10
171.309777
 20
386.988109
 30
0.0
 10
171.507296
 20
387.032206
 30
0.0
 10
171.691036
 20
387.061608
 30
0.0
  0
SPLINE
  5
1f5
100
AcDbEntity
  8
Calque_1
 62
7
100
AcDbSpline
 70
8
 71
3
 72
8
 73
4
 74
0
 40
0
 40
0
 40
0
 40
0
 40
1
 40
1
 40
1
 40
1
 10
171.691036
 20
387.061608
 30
0.0
 10
171.876609
 20
387.091005
 30
0.0
 10
172.051160
 20
387.105703
 30
0.0
 10
172.214691
 20
387.105706
 30
0.0
  0
SPLINE
  5
1f6
100
AcDbEntity
  8
Calque_1
 62
7
100
AcDbSpline
 70
8
 71
3
 72
8
 73
4
 74
0
 40
0
 40
0
 40
0
 40
0
 40
1
 40
1
 40
1
 40
1
 10
172.214691
 20
387.105706
 30
0.0
 10
172.637285
 20
387.105703
 30
0.0
 10
172.971690
 20
387.009239
 30
0.0
 10
173.217901
 20
386.816318
 30
0.0
  0
SPLINE
  5
1f7
100
AcDbEntity
  8
Calque_1
 62
7
100
AcDbSpline
 70
8
 71
3
 72
8
 73
4
 74
0
 40
0
 40
0
 40
0
 40
0
 40
1
 40
1
 40
1
 40
1
 10
173.217901
 20
386.816318
 30
0.0
 10
173.464109
 20
386.625228
 30
0.0
 10
173.587214
 20
386.366156
 30
0.0
 10
173.587217
 20
386.039106
 30
0.0
  0
SPLINE
  5
1f8
100
AcDbEntity
  8
Calque_1
 62
7
100
AcDbSpline
 70
8
 71
3
 72
8
 73
4
 74
0
 40
0
 40
0
 40
0
 40
0
 40
1
 40
1
 40
1
 40
1
 10
173.587217
 20
386.039106
 30
0.0
 10
173.587214
 20
385.811265
 30
0.0
 10
173.521987
 20
385.618341
 30
0.0
 10
173.391535
 20
385.460330
 30
0.0
  0
SPLINE
  5
1f9
100
AcDbEntity
  8
Calque_1
 62
7
100
AcDbSpline
 70
8
 71
3
 72
8
 73
4
 74
0
 40
0
 40
0
 40
0
 40
0
 40
1
 40
1
 40
1
 40
1
 10
173.391535
 20
385.460330
 30
0.0
 10
173.261078
 20
385.304149
 30
0.0
 10
173.075503
 20
385.195744
 30
0.0
 10
172.834807
 20
385.135112
 30
0.0
  0
SPLINE
  5
1fa
100
AcDbEntity
  8
Calque_1
 62
7
100
AcDbSpline
 70
8
 71
3
 72
8
 73
4
 74
0
 40
0
 40
0
 40
0
 40
0
 40
1
 40
1
 40
1
 40
1
 10
392.476663
 20
287.275132
 30
0.0
 10
392.743080
 20
287.218171
 30
0.0
 10
392.950706
 20
287.099660
 30
0.0
 10
393.099536
 20
286.919599
 30
0.0
  0
SPLINE
  5
1fb
100
AcDbEntity
  8
Calque_1
 62
7
100
AcDbSpline
 70
8
 71
3
 72
8
 73
4
 74
0
 40
0
 40
0
 40
0
 40
0
 40
1
 40
1
 40
1
 40
1
 10
393.099536
 20
286.919599
 30
0.0
 10
393.250200
 20
286.739533
 30
0.0
 10
393.325531
 20
286.517210
 30
0.0
 10
393.325533
 20
286.252626
 30
0.0
  0
SPLINE
  5
1fc
100
AcDbEntity
  8
Calque_1
 62
7
100
AcDbSpline
 70
8
 71
3
 72
8
 73
4
 74
0
 40
0
 40
0
 40
0
 40
0
 40
1
 40
1
 40
1
 40
1
 10
393.325533
 20
286.252626
 30
0.0
 10
393.325531
 20
285.846565
 30
0.0
 10
393.185890
 20
285.532373
 30
0.0
 10
392.906611
 20
285.310049
 30
0.0
  0
SPLINE
  5
1fd
100
AcDbEntity
  8
Calque_1
 62
7
100
AcDbSpline
 70
8
 71
3
 72
8
 73
4
 74
0
 40
0
 40
0
 40
0
 40
0
 40
1
 40
1
 40
1
 40
1
 10
392.906611
 20
285.310049
 30
0.0
 10
392.627327
 20
285.087726
 30
0.0
 10
392.230452
 20
284.976564
 30
0.0
 10
391.715986
 20
284.976564
 30
0.0
  0
SPLINE
  5
1fe
100
AcDbEntity
  8
Calque_1
 62
7
100
AcDbSpline
 70
8
 71
3
 72
8
 73
4
 74
0
 40
0
 40
0
 40
0
 40
0
 40
1
 40
1
 40
1
 40
1
 10
391.715986
 20
284.976564
 30
0.0
 10
391.543272
 20
284.976564
 30
0.0
 10
391.365046
 20
284.994006
 30
0.0
 10
391.181308
 20
285.028931
 30
0.0
  0
SPLINE
  5
1ff
100
AcDbEntity
  8
Calque_1
 62
7
100
AcDbSpline
 70
8
 71
3
 72
8
 73
4
 74
0
 40
0
 40
0
 40
0
 40
0
 40
1
 40
1
 40
1
 40
1
 10
391.181308
 20
285.028931
 30
0.0
 10
390.999404
 20
285.062001
 30
0.0
 10
390.811075
 20
285.112531
 30
0.0
 10
390.616310
 20
285.180515
 30
0.0
  0
LWPOLYLINE
  5
200
100
AcDbEntity
  8
Calque_1
 62
7
100
AcDbPolyline
 90
2
 70
0
 10
170.974454
 20
383.040495
 30
0.0
 10
170.974454
 20
383.577928
 30
0.0
  0
SPLINE
  5
201
100
AcDbEntity
  8
Calque_1
 62
7
100
AcDbSpline
 70
8
 71
3
 72
8
 73
4
 74
0
 40
0
 40
0
 40
0
 40
0
 40
1
 40
1
 40
1
 40
1
 10
390.616310
 20
285.717948
 30
0.0
 10
390.770652
 20
285.627916
 30
0.0
 10
390.939692
 20
285.559935
 30
0.0
 10
391.123430
 20
285.514000
 30
0.0
  0
SPLINE
  5
202
100
AcDbEntity
  8
Calque_1
 62
7
100
AcDbSpline
 70
8
 71
3
 72
8
 73
4
 74
0
 40
0
 40
0
 40
0
 40
0
 40
1
 40
1
 40
1
 40
1
 10
391.123430
 20
285.514000
 30
0.0
 10
391.307168
 20
285.468066
 30
0.0
 10
391.499175
 20
285.445098
 30
0.0
 10
391.699451
 20
285.445098
 30
0.0
  0
SPLINE
  5
203
100
AcDbEntity
  8
Calque_1
 62
7
100
AcDbSpline
 70
8
 71
3
 72
8
 73
4
 74
0
 40
0
 40
0
 40
0
 40
0
 40
1
 40
1
 40
1
 40
1
 10
391.699451
 20
285.445098
 30
0.0
 10
392.048551
 20
285.445098
 30
0.0
 10
392.314052
 20
285.514000
 30
0.0
 10
392.495955
 20
285.651804
 30
0.0
  0
SPLINE
  5
204
100
AcDbEntity
  8
Calque_1
 62
7
100
AcDbSpline
 70
8
 71
3
 72
8
 73
4
 74
0
 40
0
 40
0
 40
0
 40
0
 40
1
 40
1
 40
1
 40
1
 10
392.495955
 20
285.651804
 30
0.0
 10
392.679690
 20
285.789607
 30
0.0
 10
392.771559
 20
285.989880
 30
0.0
 10
392.771562
 20
286.252626
 30
0.0
  0
SPLINE
  5
205
100
AcDbEntity
  8
Calque_1
 62
7
100
AcDbSpline
 70
8
 71
3
 72
8
 73
4
 74
0
 40
0
 40
0
 40
0
 40
0
 40
1
 40
1
 40
1
 40
1
 10
392.771562
 20
286.252626
 30
0.0
 10
392.771559
 20
286.495160
 30
0.0
 10
392.686122
 20
286.684412
 30
0.0
 10
392.515248
 20
286.820379
 30
0.0
  0
SPLINE
  5
206
100
AcDbEntity
  8
Calque_1
 62
7
100
AcDbSpline
 70
8
 71
3
 72
8
 73
4
 74
0
 40
0
 40
0
 40
0
 40
0
 40
1
 40
1
 40
1
 40
1
 10
392.515248
 20
286.820379
 30
0.0
 10
392.346205
 20
286.958182
 30
0.0
 10
392.110104
 20
287.027084
 30
0.0
 10
391.806935
 20
287.027087
 30
0.0
  0
LWPOLYLINE
  5
207
100
AcDbEntity
  8
Calque_1
 62
7
100
AcDbPolyline
 90
4
 70
0
 10
172.165079
 20
384.887066
 30
0.0
 10
171.685525
 20
384.887066
 30
0.0
 10
171.685525
 20
385.344574
 30
0.0
 10
172.187129
 20
385.344574
 30
0.0
  0
SPLINE
  5
208
100
AcDbEntity
  8
Calque_1
 62
7
100
AcDbSpline
 70
8
 71
3
 72
8
 73
4
 74
0
 40
0
 40
0
 40
0
 40
0
 40
1
 40
1
 40
1
 40
1
 10
391.828985
 20
287.484594
 30
0.0
 10
392.102752
 20
287.484591
 30
0.0
 10
392.312215
 20
287.538795
 30
0.0
 10
392.457370
 20
287.647202
 30
0.0
  0
SPLINE
  5
209
100
AcDbEntity
  8
Calque_1
 62
7
100
AcDbSpline
 70
8
 71
3
 72
8
 73
4
 74
0
 40
0
 40
0
 40
0
 40
0
 40
1
 40
1
 40
1
 40
1
 10
392.457370
 20
287.647202
 30
0.0
 10
392.602522
 20
287.757444
 30
0.0
 10
392.675099
 20
287.915457
 30
0.0
 10
392.675102
 20
288.121248
 30
0.0
  0
SPLINE
  5
20a
100
AcDbEntity
  8
Calque_1
 62
7
100
AcDbSpline
 70
8
 71
3
 72
8
 73
4
 74
0
 40
0
 40
0
 40
0
 40
0
 40
1
 40
1
 40
1
 40
1
 10
392.675102
 20
288.121248
 30
0.0
 10
392.675099
 20
288.332545
 30
0.0
 10
392.599765
 20
288.494233
 30
0.0
 10
392.449104
 20
288.606317
 30
0.0
  0
SPLINE
  5
20b
100
AcDbEntity
  8
Calque_1
 62
7
100
AcDbSpline
 70
8
 71
3
 72
8
 73
4
 74
0
 40
0
 40
0
 40
0
 40
0
 40
1
 40
1
 40
1
 40
1
 10
392.449104
 20
288.606317
 30
0.0
 10
392.300271
 20
288.720231
 30
0.0
 10
392.086217
 20
288.777189
 30
0.0
 10
391.806935
 20
288.777195
 30
0.0
  0
SPLINE
  5
20c
100
AcDbEntity
  8
Calque_1
 62
7
100
AcDbSpline
 70
8
 71
3
 72
8
 73
4
 74
0
 40
0
 40
0
 40
0
 40
0
 40
1
 40
1
 40
1
 40
1
 10
391.806935
 20
288.777195
 30
0.0
 10
391.654431
 20
288.777189
 30
0.0
 10
391.490906
 20
288.760656
 30
0.0
 10
391.316354
 20
288.727586
 30
0.0
  0
SPLINE
  5
20d
100
AcDbEntity
  8
Calque_1
 62
7
100
AcDbSpline
 70
8
 71
3
 72
8
 73
4
 74
0
 40
0
 40
0
 40
0
 40
0
 40
1
 40
1
 40
1
 40
1
 10
391.316354
 20
288.727586
 30
0.0
 10
391.141802
 20
288.694509
 30
0.0
 10
390.949795
 20
288.643060
 30
0.0
 10
390.740336
 20
288.573244
 30
0.0
  0
LWPOLYLINE
  5
20e
100
AcDbEntity
  8
Calque_1
 62
7
100
AcDbPolyline
 90
2
 70
0
 10
171.098480
 20
386.433224
 30
0.0
 10
171.098480
 20
386.929317
 30
0.0
  0
SPLINE
  5
20f
100
AcDbEntity
  8
Calque_1
 62
7
100
AcDbSpline
 70
8
 71
3
 72
8
 73
4
 74
0
 40
0
 40
0
 40
0
 40
0
 40
1
 40
1
 40
1
 40
1
 10
390.740336
 20
289.069337
 30
0.0
 10
390.951633
 20
289.128129
 30
0.0
 10
391.149151
 20
289.172227
 30
0.0
 10
391.332892
 20
289.201629
 30
0.0
  0
SPLINE
  5
210
100
AcDbEntity
  8
Calque_1
 62
7
100
AcDbSpline
 70
8
 71
3
 72
8
 73
4
 74
0
 40
0
 40
0
 40
0
 40
0
 40
1
 40
1
 40
1
 40
1
 10
391.332892
 20
289.201629
 30
0.0
 10
391.518465
 20
289.231025
 30
0.0
 10
391.693016
 20
289.245723
 30
0.0
 10
391.856547
 20
289.245726
 30
0.0
  0
SPLINE
  5
211
100
AcDbEntity
  8
Calque_1
 62
7
100
AcDbSpline
 70
8
 71
3
 72
8
 73
4
 74
0
 40
0
 40
0
 40
0
 40
0
 40
1
 40
1
 40
1
 40
1
 10
391.856547
 20
289.245726
 30
0.0
 10
392.279141
 20
289.245723
 30
0.0
 10
392.613546
 20
289.149259
 30
0.0
 10
392.859757
 20
288.956338
 30
0.0
  0
SPLINE
  5
212
100
AcDbEntity
  8
Calque_1
 62
7
100
AcDbSpline
 70
8
 71
3
 72
8
 73
4
 74
0
 40
0
 40
0
 40
0
 40
0
 40
1
 40
1
 40
1
 40
1
 10
392.859757
 20
288.956338
 30
0.0
 10
393.105965
 20
288.765248
 30
0.0
 10
393.229070
 20
288.506177
 30
0.0
 10
393.229073
 20
288.179126
 30
0.0
  0
SPLINE
  5
213
100
AcDbEntity
  8
Calque_1
 62
7
100
AcDbSpline
 70
8
 71
3
 72
8
 73
4
 74
0
 40
0
 40
0
 40
0
 40
0
 40
1
 40
1
 40
1
 40
1
 10
393.229073
 20
288.179126
 30
0.0
 10
393.229070
 20
287.951285
 30
0.0
 10
393.163843
 20
287.758361
 30
0.0
 10
393.033391
 20
287.600350
 30
0.0
  0
SPLINE
  5
214
100
AcDbEntity
  8
Calque_1
 62
7
100
AcDbSpline
 70
8
 71
3
 72
8
 73
4
 74
0
 40
0
 40
0
 40
0
 40
0
 40
1
 40
1
 40
1
 40
1
 10
393.033391
 20
287.600350
 30
0.0
 10
392.902934
 20
287.444169
 30
0.0
 10
392.717359
 20
287.335764
 30
0.0
 10
392.476663
 20
287.275132
 30
0.0
  0
SPLINE
  5
215
100
AcDbEntity
  8
Calque_1
 62
7
100
AcDbSpline
 70
8
 71
3
 72
8
 73
4
 74
0
 40
0
 40
0
 40
0
 40
0
 40
1
 40
1
 40
1
 40
1
 10
371.410385
 20
287.148877
 30
0.0
 10
371.676803
 20
287.091916
 30
0.0
 10
371.884428
 20
286.973405
 30
0.0
 10
372.033258
 20
286.793345
 30
0.0
  0
SPLINE
  5
216
100
AcDbEntity
  8
Calque_1
 62
7
100
AcDbSpline
 70
8
 71
3
 72
8
 73
4
 74
0
 40
0
 40
0
 40
0
 40
0
 40
1
 40
1
 40
1
 40
1
 10
372.033258
 20
286.793345
 30
0.0
 10
372.183922
 20
286.613278
 30
0.0
 10
372.259253
 20
286.390955
 30
0.0
 10
372.259256
 20
286.126372
 30
0.0
  0
SPLINE
  5
217
100
AcDbEntity
  8
Calque_1
 62
7
100
AcDbSpline
 70
8
 71
3
 72
8
 73
4
 74
0
 40
0
 40
0
 40
0
 40
0
 40
1
 40
1
 40
1
 40
1
 10
372.259256
 20
286.126372
 30
0.0
 10
372.259253
 20
285.720310
 30
0.0
 10
372.119612
 20
285.406118
 30
0.0
 10
371.840334
 20
285.183794
 30
0.0
  0
SPLINE
  5
218
100
AcDbEntity
  8
Calque_1
 62
7
100
AcDbSpline
 70
8
 71
3
 72
8
 73
4
 74
0
 40
0
 40
0
 40
0
 40
0
 40
1
 40
1
 40
1
 40
1
 10
371.840334
 20
285.183794
 30
0.0
 10
371.561050
 20
284.961471
 30
0.0
 10
371.164175
 20
284.850309
 30
0.0
 10
370.649709
 20
284.850309
 30
0.0
  0
SPLINE
  5
219
100
AcDbEntity
  8
Calque_1
 62
7
100
AcDbSpline
 70
8
 71
3
 72
8
 73
4
 74
0
 40
0
 40
0
 40
0
 40
0
 40
1
 40
1
 40
1
 40
1
 10
370.649709
 20
284.850309
 30
0.0
 10
370.476994
 20
284.850309
 30
0.0
 10
370.298768
 20
284.867751
 30
0.0
 10
370.115030
 20
284.902676
 30
0.0
  0
SPLINE
  5
21a
100
AcDbEntity
  8
Calque_1
 62
7
100
AcDbSpline
 70
8
 71
3
 72
8
 73
4
 74
0
 40
0
 40
0
 40
0
 40
0
 40
1
 40
1
 40
1
 40
1
 10
370.115030
 20
284.902676
 30
0.0
 10
369.933127
 20
284.935747
 30
0.0
 10
369.744797
 20
284.986276
 30
0.0
 10
369.550033
 20
285.054260
 30
0.0
  0
LWPOLYLINE
  5
21b
100
AcDbEntity
  8
Calque_1
 62
7
100
AcDbPolyline
 90
2
 70
0
 10
390.616310
 20
285.180515
 30
0.0
 10
390.616310
 20
285.717948
 30
0.0
  0
SPLINE
  5
21c
100
AcDbEntity
  8
Calque_1
 62
7
100
AcDbSpline
 70
8
 71
3
 72
8
 73
4
 74
0
 40
0
 40
0
 40
0
 40
0
 40
1
 40
1
 40
1
 40
1
 10
369.550033
 20
285.591693
 30
0.0
 10
369.704374
 20
285.501661
 30
0.0
 10
369.873414
 20
285.433680
 30
0.0
 10
370.057152
 20
285.387745
 30
0.0
  0
SPLINE
  5
21d
100
AcDbEntity
  8
Calque_1
 62
7
100
AcDbSpline
 70
8
 71
3
 72
8
 73
4
 74
0
 40
0
 40
0
 40
0
 40
0
 40
1
 40
1
 40
1
 40
1
 10
370.057152
 20
285.387745
 30
0.0
 10
370.240890
 20
285.341811
 30
0.0
 10
370.432897
 20
285.318843
 30
0.0
 10
370.633173
 20
285.318843
 30
0.0
  0
SPLINE
  5
21e
100
AcDbEntity
  8
Calque_1
 62
7
100
AcDbSpline
 70
8
 71
3
 72
8
 73
4
 74
0
 40
0
 40
0
 40
0
 40
0
 40
1
 40
1
 40
1
 40
1
 10
370.633173
 20
285.318843
 30
0.0
 10
370.982274
 20
285.318843
 30
0.0
 10
371.247774
 20
285.387745
 30
0.0
 10
371.429678
 20
285.525549
 30
0.0
  0
SPLINE
  5
21f
100
AcDbEntity
  8
Calque_1
 62
7
100
AcDbSpline
 70
8
 71
3
 72
8
 73
4
 74
0
 40
0
 40
0
 40
0
 40
0
 40
1
 40
1
 40
1
 40
1
 10
371.429678
 20
285.525549
 30
0.0
 10
371.613413
 20
285.663352
 30
0.0
 10
371.705282
 20
285.863625
 30
0.0
 10
371.705285
 20
286.126372
 30
0.0
  0
SPLINE
  5
220
100
AcDbEntity
  8
Calque_1
 62
7
100
AcDbSpline
 70
8
 71
3
 72
8
 73
4
 74
0
 40
0
 40
0
 40
0
 40
0
 40
1
 40
1
 40
1
 40
1
 10
371.705285
 20
286.126372
 30
0.0
 10
371.705282
 20
286.368905
 30
0.0
 10
371.619845
 20
286.558157
 30
0.0
 10
371.448971
 20
286.694124
 30
0.0
  0
SPLINE
  5
221
100
AcDbEntity
  8
Calque_1
 62
7
100
AcDbSpline
 70
8
 71
3
 72
8
 73
4
 74
0
 40
0
 40
0
 40
0
 40
0
 40
1
 40
1
 40
1
 40
1
 10
371.448971
 20
286.694124
 30
0.0
 10
371.279928
 20
286.831927
 30
0.0
 10
371.043827
 20
286.900829
 30
0.0
 10
370.740658
 20
286.900832
 30
0.0
  0
LWPOLYLINE
  5
222
100
AcDbEntity
  8
Calque_1
 62
7
100
AcDbPolyline
 90
4
 70
0
 10
391.806935
 20
287.027087
 30
0.0
 10
391.327380
 20
287.027087
 30
0.0
 10
391.327380
 20
287.484594
 30
0.0
 10
391.828985
 20
287.484594
 30
0.0
  0
SPLINE
  5
223
100
AcDbEntity
  8
Calque_1
 62
7
100
AcDbSpline
 70
8
 71
3
 72
8
 73
4
 74
0
 40
0
 40
0
 40
0
 40
0
 40
1
 40
1
 40
1
 40
1
 10
370.762708
 20
287.358339
 30
0.0
 10
371.036475
 20
287.358336
 30
0.0
 10
371.245937
 20
287.412540
 30
0.0
 10
371.391093
 20
287.520947
 30
0.0
  0
SPLINE
  5
224
100
AcDbEntity
  8
Calque_1
 62
7
100
AcDbSpline
 70
8
 71
3
 72
8
 73
4
 74
0
 40
0
 40
0
 40
0
 40
0
 40
1
 40
1
 40
1
 40
1
 10
371.391093
 20
287.520947
 30
0.0
 10
371.536245
 20
287.631189
 30
0.0
 10
371.608821
 20
287.789202
 30
0.0
 10
371.608824
 20
287.994993
 30
0.0
  0
SPLINE
  5
225
100
AcDbEntity
  8
Calque_1
 62
7
100
AcDbSpline
 70
8
 71
3
 72
8
 73
4
 74
0
 40
0
 40
0
 40
0
 40
0
 40
1
 40
1
 40
1
 40
1
 10
371.608824
 20
287.994993
 30
0.0
 10
371.608821
 20
288.206290
 30
0.0
 10
371.533488
 20
288.367978
 30
0.0
 10
371.382826
 20
288.480063
 30
0.0
  0
SPLINE
  5
226
100
AcDbEntity
  8
Calque_1
 62
7
100
AcDbSpline
 70
8
 71
3
 72
8
 73
4
 74
0
 40
0
 40
0
 40
0
 40
0
 40
1
 40
1
 40
1
 40
1
 10
371.382826
 20
288.480063
 30
0.0
 10
371.233994
 20
288.593976
 30
0.0
 10
371.019939
 20
288.650934
 30
0.0
 10
370.740658
 20
288.650940
 30
0.0
  0
SPLINE
  5
227
100
AcDbEntity
  8
Calque_1
 62
7
100
AcDbSpline
 70
8
 71
3
 72
8
 73
4
 74
0
 40
0
 40
0
 40
0
 40
0
 40
1
 40
1
 40
1
 40
1
 10
370.740658
 20
288.650940
 30
0.0
 10
370.588153
 20
288.650934
 30
0.0
 10
370.424628
 20
288.634401
 30
0.0
 10
370.250077
 20
288.601331
 30
0.0
  0
SPLINE
  5
228
100
AcDbEntity
  8
Calque_1
 62
7
100
AcDbSpline
 70
8
 71
3
 72
8
 73
4
 74
0
 40
0
 40
0
 40
0
 40
0
 40
1
 40
1
 40
1
 40
1
 10
370.250077
 20
288.601331
 30
0.0
 10
370.075525
 20
288.568254
 30
0.0
 10
369.883518
 20
288.516805
 30
0.0
 10
369.674058
 20
288.446989
 30
0.0
  0
LWPOLYLINE
  5
229
100
AcDbEntity
  8
Calque_1
 62
7
100
AcDbPolyline
 90
2
 70
0
 10
390.740336
 20
288.573244
 30
0.0
 10
390.740336
 20
289.069337
 30
0.0
  0
SPLINE
  5
22a
100
AcDbEntity
  8
Calque_1
 62
7
100
AcDbSpline
 70
8
 71
3
 72
8
 73
4
 74
0
 40
0
 40
0
 40
0
 40
0
 40
1
 40
1
 40
1
 40
1
 10
369.674058
 20
288.943082
 30
0.0
 10
369.885355
 20
289.001875
 30
0.0
 10
370.082874
 20
289.045972
 30
0.0
 10
370.266615
 20
289.075374
 30
0.0
  0
SPLINE
  5
22b
100
AcDbEntity
  8
Calque_1
 62
7
100
AcDbSpline
 70
8
 71
3
 72
8
 73
4
 74
0
 40
0
 40
0
 40
0
 40
0
 40
1
 40
1
 40
1
 40
1
 10
370.266615
 20
289.075374
 30
0.0
 10
370.452187
 20
289.104770
 30
0.0
 10
370.626739
 20
289.119468
 30
0.0
 10
370.790270
 20
289.119471
 30
0.0
  0
SPLINE
  5
22c
100
AcDbEntity
  8
Calque_1
 62
7
100
AcDbSpline
 70
8
 71
3
 72
8
 73
4
 74
0
 40
0
 40
0
 40
0
 40
0
 40
1
 40
1
 40
1
 40
1
 10
370.790270
 20
289.119471
 30
0.0
 10
371.212864
 20
289.119468
 30
0.0
 10
371.547269
 20
289.023004
 30
0.0
 10
371.793479
 20
288.830083
 30
0.0
  0
SPLINE
  5
22d
100
AcDbEntity
  8
Calque_1
 62
7
100
AcDbSpline
 70
8
 71
3
 72
8
 73
4
 74
0
 40
0
 40
0
 40
0
 40
0
 40
1
 40
1
 40
1
 40
1
 10
371.793479
 20
288.830083
 30
0.0
 10
372.039687
 20
288.638993
 30
0.0
 10
372.162792
 20
288.379922
 30
0.0
 10
372.162795
 20
288.052871
 30
0.0
  0
SPLINE
  5
22e
100
AcDbEntity
  8
Calque_1
 62
7
100
AcDbSpline
 70
8
 71
3
 72
8
 73
4
 74
0
 40
0
 40
0
 40
0
 40
0
 40
1
 40
1
 40
1
 40
1
 10
372.162795
 20
288.052871
 30
0.0
 10
372.162792
 20
287.825030
 30
0.0
 10
372.097565
 20
287.632106
 30
0.0
 10
371.967114
 20
287.474096
 30
0.0
  0
SPLINE
  5
22f
100
AcDbEntity
  8
Calque_1
 62
7
100
AcDbSpline
 70
8
 71
3
 72
8
 73
4
 74
0
 40
0
 40
0
 40
0
 40
0
 40
1
 40
1
 40
1
 40
1
 10
371.967114
 20
287.474096
 30
0.0
 10
371.836656
 20
287.317914
 30
0.0
 10
371.651081
 20
287.209509
 30
0.0
 10
371.410385
 20
287.148877
 30
0.0
  0
SPLINE
  5
230
100
AcDbEntity
  8
Calque_1
 62
7
100
AcDbSpline
 70
8
 71
3
 72
8
 73
4
 74
0
 40
0
 40
0
 40
0
 40
0
 40
1
 40
1
 40
1
 40
1
 10
348.617362
 20
287.148877
 30
0.0
 10
348.883780
 20
287.091916
 30
0.0
 10
349.091405
 20
286.973405
 30
0.0
 10
349.240235
 20
286.793345
 30
0.0
  0
SPLINE
  5
231
100
AcDbEntity
  8
Calque_1
 62
7
100
AcDbSpline
 70
8
 71
3
 72
8
 73
4
 74
0
 40
0
 40
0
 40
0
 40
0
 40
1
 40
1
 40
1
 40
1
 10
349.240235
 20
286.793345
 30
0.0
 10
349.390899
 20
286.613278
 30
0.0
 10
349.466230
 20
286.390955
 30
0.0
 10
349.466233
 20
286.126372
 30
0.0
  0
SPLINE
  5
232
100
AcDbEntity
  8
Calque_1
 62
7
100
AcDbSpline
 70
8
 71
3
 72
8
 73
4
 74
0
 40
0
 40
0
 40
0
 40
0
 40
1
 40
1
 40
1
 40
1
 10
349.466233
 20
286.126372
 30
0.0
 10
349.466230
 20
285.720310
 30
0.0
 10
349.326589
 20
285.406118
 30
0.0
 10
349.047311
 20
285.183794
 30
0.0
  0
SPLINE
  5
233
100
AcDbEntity
  8
Calque_1
 62
7
100
AcDbSpline
 70
8
 71
3
 72
8
 73
4
 74
0
 40
0
 40
0
 40
0
 40
0
 40
1
 40
1
 40
1
 40
1
 10
349.047311
 20
285.183794
 30
0.0
 10
348.768027
 20
284.961471
 30
0.0
 10
348.371152
 20
284.850309
 30
0.0
 10
347.856686
 20
284.850309
 30
0.0
  0
SPLINE
  5
234
100
AcDbEntity
  8
Calque_1
 62
7
100
AcDbSpline
 70
8
 71
3
 72
8
 73
4
 74
0
 40
0
 40
0
 40
0
 40
0
 40
1
 40
1
 40
1
 40
1
 10
347.856686
 20
284.850309
 30
0.0
 10
347.683971
 20
284.850309
 30
0.0
 10
347.505745
 20
284.867751
 30
0.0
 10
347.322007
 20
284.902676
 30
0.0
  0
SPLINE
  5
235
100
AcDbEntity
  8
Calque_1
 62
7
100
AcDbSpline
 70
8
 71
3
 72
8
 73
4
 74
0
 40
0
 40
0
 40
0
 40
0
 40
1
 40
1
 40
1
 40
1
 10
347.322007
 20
284.902676
 30
0.0
 10
347.140104
 20
284.935747
 30
0.0
 10
346.951774
 20
284.986276
 30
0.0
 10
346.757010
 20
285.054260
 30
0.0
  0
LWPOLYLINE
  5
236
100
AcDbEntity
  8
Calque_1
 62
7
100
AcDbPolyline
 90
2
 70
0
 10
369.550033
 20
285.054260
 30
0.0
 10
369.550033
 20
285.591693
 30
0.0
  0
SPLINE
  5
237
100
AcDbEntity
  8
Calque_1
 62
7
100
AcDbSpline
 70
8
 71
3
 72
8
 73
4
 74
0
 40
0
 40
0
 40
0
 40
0
 40
1
 40
1
 40
1
 40
1
 10
346.757010
 20
285.591693
 30
0.0
 10
346.911351
 20
285.501661
 30
0.0
 10
347.080391
 20
285.433680
 30
0.0
 10
347.264129
 20
285.387745
 30
0.0
  0
SPLINE
  5
238
100
AcDbEntity
  8
Calque_1
 62
7
100
AcDbSpline
 70
8
 71
3
 72
8
 73
4
 74
0
 40
0
 40
0
 40
0
 40
0
 40
1
 40
1
 40
1
 40
1
 10
347.264129
 20
285.387745
 30
0.0
 10
347.447867
 20
285.341811
 30
0.0
 10
347.639874
 20
285.318843
 30
0.0
 10
347.840150
 20
285.318843
 30
0.0
  0
SPLINE
  5
239
100
AcDbEntity
  8
Calque_1
 62
7
100
AcDbSpline
 70
8
 71
3
 72
8
 73
4
 74
0
 40
0
 40
0
 40
0
 40
0
 40
1
 40
1
 40
1
 40
1
 10
347.840150
 20
285.318843
 30
0.0
 10
348.189251
 20
285.318843
 30
0.0
 10
348.454751
 20
285.387745
 30
0.0
 10
348.636655
 20
285.525549
 30
0.0
  0
SPLINE
  5
23a
100
AcDbEntity
  8
Calque_1
 62
7
100
AcDbSpline
 70
8
 71
3
 72
8
 73
4
 74
0
 40
0
 40
0
 40
0
 40
0
 40
1
 40
1
 40
1
 40
1
 10
348.636655
 20
285.525549
 30
0.0
 10
348.820390
 20
285.663352
 30
0.0
 10
348.912259
 20
285.863625
 30
0.0
 10
348.912262
 20
286.126372
 30
0.0
  0
SPLINE
  5
23b
100
AcDbEntity
  8
Calque_1
 62
7
100
AcDbSpline
 70
8
 71
3
 72
8
 73
4
 74
0
 40
0
 40
0
 40
0
 40
0
 40
1
 40
1
 40
1
 40
1
 10
348.912262
 20
286.126372
 30
0.0
 10
348.912259
 20
286.368905
 30
0.0
 10
348.826822
 20
286.558157
 30
0.0
 10
348.655948
 20
286.694124
 30
0.0
  0
SPLINE
  5
23c
100
AcDbEntity
  8
Calque_1
 62
7
100
AcDbSpline
 70
8
 71
3
 72
8
 73
4
 74
0
 40
0
 40
0
 40
0
 40
0
 40
1
 40
1
 40
1
 40
1
 10
348.655948
 20
286.694124
 30
0.0
 10
348.486905
 20
286.831927
 30
0.0
 10
348.250804
 20
286.900829
 30
0.0
 10
347.947635
 20
286.900832
 30
0.0
  0
LWPOLYLINE
  5
23d
100
AcDbEntity
  8
Calque_1
 62
7
100
AcDbPolyline
 90
4
 70
0
 10
370.740658
 20
286.900832
 30
0.0
 10
370.261103
 20
286.900832
 30
0.0
 10
370.261103
 20
287.358339
 30
0.0
 10
370.762708
 20
287.358339
 30
0.0
  0
SPLINE
  5
23e
100
AcDbEntity
  8
Calque_1
 62
7
100
AcDbSpline
 70
8
 71
3
 72
8
 73
4
 74
0
 40
0
 40
0
 40
0
 40
0
 40
1
 40
1
 40
1
 40
1
 10
347.969685
 20
287.358339
 30
0.0
 10
348.243452
 20
287.358336
 30
0.0
 10
348.452914
 20
287.412540
 30
0.0
 10
348.598069
 20
287.520947
 30
0.0
  0
SPLINE
  5
23f
100
AcDbEntity
  8
Calque_1
 62
7
100
AcDbSpline
 70
8
 71
3
 72
8
 73
4
 74
0
 40
0
 40
0
 40
0
 40
0
 40
1
 40
1
 40
1
 40
1
 10
348.598069
 20
287.520947
 30
0.0
 10
348.743222
 20
287.631189
 30
0.0
 10
348.815798
 20
287.789202
 30
0.0
 10
348.815801
 20
287.994993
 30
0.0
  0
SPLINE
  5
240
100
AcDbEntity
  8
Calque_1
 62
7
100
AcDbSpline
 70
8
 71
3
 72
8
 73
4
 74
0
 40
0
 40
0
 40
0
 40
0
 40
1
 40
1
 40
1
 40
1
 10
348.815801
 20
287.994993
 30
0.0
 10
348.815798
 20
288.206290
 30
0.0
 10
348.740465
 20
288.367978
 30
0.0
 10
348.589803
 20
288.480063
 30
0.0
  0
SPLINE
  5
241
100
AcDbEntity
  8
Calque_1
 62
7
100
AcDbSpline
 70
8
 71
3
 72
8
 73
4
 74
0
 40
0
 40
0
 40
0
 40
0
 40
1
 40
1
 40
1
 40
1
 10
348.589803
 20
288.480063
 30
0.0
 10
348.440970
 20
288.593976
 30
0.0
 10
348.226916
 20
288.650934
 30
0.0
 10
347.947635
 20
288.650940
 30
0.0
  0
SPLINE
  5
242
100
AcDbEntity
  8
Calque_1
 62
7
100
AcDbSpline
 70
8
 71
3
 72
8
 73
4
 74
0
 40
0
 40
0
 40
0
 40
0
 40
1
 40
1
 40
1
 40
1
 10
347.947635
 20
288.650940
 30
0.0
 10
347.795130
 20
288.650934
 30
0.0
 10
347.631605
 20
288.634401
 30
0.0
 10
347.457054
 20
288.601331
 30
0.0
  0
SPLINE
  5
243
100
AcDbEntity
  8
Calque_1
 62
7
100
AcDbSpline
 70
8
 71
3
 72
8
 73
4
 74
0
 40
0
 40
0
 40
0
 40
0
 40
1
 40
1
 40
1
 40
1
 10
347.457054
 20
288.601331
 30
0.0
 10
347.282502
 20
288.568254
 30
0.0
 10
347.090495
 20
288.516805
 30
0.0
 10
346.881035
 20
288.446989
 30
0.0
  0
LWPOLYLINE
  5
244
100
AcDbEntity
  8
Calque_1
 62
7
100
AcDbPolyline
 90
2
 70
0
 10
369.674058
 20
288.446989
 30
0.0
 10
369.674058
 20
288.943082
 30
0.0
  0
SPLINE
  5
245
100
AcDbEntity
  8
Calque_1
 62
7
100
AcDbSpline
 70
8
 71
3
 72
8
 73
4
 74
0
 40
0
 40
0
 40
0
 40
0
 40
1
 40
1
 40
1
 40
1
 10
346.881035
 20
288.943082
 30
0.0
 10
347.092332
 20
289.001875
 30
0.0
 10
347.289851
 20
289.045972
 30
0.0
 10
347.473592
 20
289.075374
 30
0.0
  0
SPLINE
  5
246
100
AcDbEntity
  8
Calque_1
 62
7
100
AcDbSpline
 70
8
 71
3
 72
8
 73
4
 74
0
 40
0
 40
0
 40
0
 40
0
 40
1
 40
1
 40
1
 40
1
 10
347.473592
 20
289.075374
 30
0.0
 10
347.659164
 20
289.104770
 30
0.0
 10
347.833716
 20
289.119468
 30
0.0
 10
347.997247
 20
289.119471
 30
0.0
  0
SPLINE
  5
247
100
AcDbEntity
  8
Calque_1
 62
7
100
AcDbSpline
 70
8
 71
3
 72
8
 73
4
 74
0
 40
0
 40
0
 40
0
 40
0
 40
1
 40
1
 40
1
 40
1
 10
347.997247
 20
289.119471
 30
0.0
 10
348.419841
 20
289.119468
 30
0.0
 10
348.754246
 20
289.023004
 30
0.0
 10
349.000456
 20
288.830083
 30
0.0
  0
SPLINE
  5
248
100
AcDbEntity
  8
Calque_1
 62
7
100
AcDbSpline
 70
8
 71
3
 72
8
 73
4
 74
0
 40
0
 40
0
 40
0
 40
0
 40
1
 40
1
 40
1
 40
1
 10
349.000456
 20
288.830083
 30
0.0
 10
349.246664
 20
288.638993
 30
0.0
 10
349.369769
 20
288.379922
 30
0.0
 10
349.369772
 20
288.052871
 30
0.0
  0
SPLINE
  5
249
100
AcDbEntity
  8
Calque_1
 62
7
100
AcDbSpline
 70
8
 71
3
 72
8
 73
4
 74
0
 40
0
 40
0
 40
0
 40
0
 40
1
 40
1
 40
1
 40
1
 10
349.369772
 20
288.052871
 30
0.0
 10
349.369769
 20
287.825030
 30
0.0
 10
349.304542
 20
287.632106
 30
0.0
 10
349.174091
 20
287.474096
 30
0.0
  0
SPLINE
  5
24a
100
AcDbEntity
  8
Calque_1
 62
7
100
AcDbSpline
 70
8
 71
3
 72
8
 73
4
 74
0
 40
0
 40
0
 40
0
 40
0
 40
1
 40
1
 40
1
 40
1
 10
349.174091
 20
287.474096
 30
0.0
 10
349.043633
 20
287.317914
 30
0.0
 10
348.858058
 20
287.209509
 30
0.0
 10
348.617362
 20
287.148877
 30
0.0
  0
SPLINE
  5
24b
100
AcDbEntity
  8
Calque_1
 62
7
100
AcDbSpline
 70
8
 71
3
 72
8
 73
4
 74
0
 40
0
 40
0
 40
0
 40
0
 40
1
 40
1
 40
1
 40
1
 10
271.259224
 20
243.542083
 30
0.0
 10
271.525642
 20
243.485122
 30
0.0
 10
271.733267
 20
243.366612
 30
0.0
 10
271.882097
 20
243.186551
 30
0.0
  0
SPLINE
  5
24c
100
AcDbEntity
  8
Calque_1
 62
7
100
AcDbSpline
 70
8
 71
3
 72
8
 73
4
 74
0
 40
0
 40
0
 40
0
 40
0
 40
1
 40
1
 40
1
 40
1
 10
271.882097
 20
243.186551
 30
0.0
 10
272.032761
 20
243.006485
 30
0.0
 10
272.108092
 20
242.784162
 30
0.0
 10
272.108095
 20
242.519578
 30
0.0
  0
SPLINE
  5
24d
100
AcDbEntity
  8
Calque_1
 62
7
100
AcDbSpline
 70
8
 71
3
 72
8
 73
4
 74
0
 40
0
 40
0
 40
0
 40
0
 40
1
 40
1
 40
1
 40
1
 10
272.108095
 20
242.519578
 30
0.0
 10
272.108092
 20
242.113517
 30
0.0
 10
271.968451
 20
241.799324
 30
0.0
 10
271.689172
 20
241.577001
 30
0.0
  0
SPLINE
  5
24e
100
AcDbEntity
  8
Calque_1
 62
7
100
AcDbSpline
 70
8
 71
3
 72
8
 73
4
 74
0
 40
0
 40
0
 40
0
 40
0
 40
1
 40
1
 40
1
 40
1
 10
271.689172
 20
241.577001
 30
0.0
 10
271.409888
 20
241.354678
 30
0.0
 10
271.013013
 20
241.243516
 30
0.0
 10
270.498547
 20
241.243516
 30
0.0
  0
SPLINE
  5
24f
100
AcDbEntity
  8
Calque_1
 62
7
100
AcDbSpline
 70
8
 71
3
 72
8
 73
4
 74
0
 40
0
 40
0
 40
0
 40
0
 40
1
 40
1
 40
1
 40
1
 10
270.498547
 20
241.243516
 30
0.0
 10
270.325833
 20
241.243516
 30
0.0
 10
270.147607
 20
241.260957
 30
0.0
 10
269.963869
 20
241.295882
 30
0.0
  0
SPLINE
  5
250
100
AcDbEntity
  8
Calque_1
 62
7
100
AcDbSpline
 70
8
 71
3
 72
8
 73
4
 74
0
 40
0
 40
0
 40
0
 40
0
 40
1
 40
1
 40
1
 40
1
 10
269.963869
 20
241.295882
 30
0.0
 10
269.781965
 20
241.328953
 30
0.0
 10
269.593636
 20
241.379482
 30
0.0
 10
269.398871
 20
241.447467
 30
0.0
  0
LWPOLYLINE
  5
251
100
AcDbEntity
  8
Calque_1
 62
7
100
AcDbPolyline
 90
2
 70
0
 10
346.757010
 20
285.054260
 30
0.0
 10
346.757010
 20
285.591693
 30
0.0
  0
SPLINE
  5
252
100
AcDbEntity
  8
Calque_1
 62
7
100
AcDbSpline
 70
8
 71
3
 72
8
 73
4
 74
0
 40
0
 40
0
 40
0
 40
0
 40
1
 40
1
 40
1
 40
1
 10
269.398871
 20
241.984900
 30
0.0
 10
269.553213
 20
241.894868
 30
0.0
 10
269.722253
 20
241.826886
 30
0.0
 10
269.905991
 20
241.780952
 30
0.0
  0
SPLINE
  5
253
100
AcDbEntity
  8
Calque_1
 62
7
100
AcDbSpline
 70
8
 71
3
 72
8
 73
4
 74
0
 40
0
 40
0
 40
0
 40
0
 40
1
 40
1
 40
1
 40
1
 10
269.905991
 20
241.780952
 30
0.0
 10
270.089729
 20
241.735017
 30
0.0
 10
270.281736
 20
241.712050
 30
0.0
 10
270.482012
 20
241.712050
 30
0.0
  0
SPLINE
  5
254
100
AcDbEntity
  8
Calque_1
 62
7
100
AcDbSpline
 70
8
 71
3
 72
8
 73
4
 74
0
 40
0
 40
0
 40
0
 40
0
 40
1
 40
1
 40
1
 40
1
 10
270.482012
 20
241.712050
 30
0.0
 10
270.831112
 20
241.712050
 30
0.0
 10
271.096613
 20
241.780952
 30
0.0
 10
271.278517
 20
241.918755
 30
0.0
  0
SPLINE
  5
255
100
AcDbEntity
  8
Calque_1
 62
7
100
AcDbSpline
 70
8
 71
3
 72
8
 73
4
 74
0
 40
0
 40
0
 40
0
 40
0
 40
1
 40
1
 40
1
 40
1
 10
271.278517
 20
241.918755
 30
0.0
 10
271.462252
 20
242.056559
 30
0.0
 10
271.554121
 20
242.256832
 30
0.0
 10
271.554123
 20
242.519578
 30
0.0
  0
SPLINE
  5
256
100
AcDbEntity
  8
Calque_1
 62
7
100
AcDbSpline
 70
8
 71
3
 72
8
 73
4
 74
0
 40
0
 40
0
 40
0
 40
0
 40
1
 40
1
 40
1
 40
1
 10
271.554123
 20
242.519578
 30
0.0
 10
271.554121
 20
242.762111
 30
0.0
 10
271.468683
 20
242.951364
 30
0.0
 10
271.297809
 20
243.087330
 30
0.0
  0
SPLINE
  5
257
100
AcDbEntity
  8
Calque_1
 62
7
100
AcDbSpline
 70
8
 71
3
 72
8
 73
4
 74
0
 40
0
 40
0
 40
0
 40
0
 40
1
 40
1
 40
1
 40
1
 10
271.297809
 20
243.087330
 30
0.0
 10
271.128767
 20
243.225134
 30
0.0
 10
270.892665
 20
243.294035
 30
0.0
 10
270.589496
 20
243.294038
 30
0.0
  0
LWPOLYLINE
  5
258
100
AcDbEntity
  8
Calque_1
 62
7
100
AcDbPolyline
 90
4
 70
0
 10
347.947635
 20
286.900832
 30
0.0
 10
347.468080
 20
286.900832
 30
0.0
 10
347.468080
 20
287.358339
 30
0.0
 10
347.969685
 20
287.358339
 30
0.0
  0
SPLINE
  5
259
100
AcDbEntity
  8
Calque_1
 62
7
100
AcDbSpline
 70
8
 71
3
 72
8
 73
4
 74
0
 40
0
 40
0
 40
0
 40
0
 40
1
 40
1
 40
1
 40
1
 10
270.611546
 20
243.751546
 30
0.0
 10
270.885313
 20
243.751543
 30
0.0
 10
271.094776
 20
243.805747
 30
0.0
 10
271.239931
 20
243.914154
 30
0.0
  0
SPLINE
  5
25a
100
AcDbEntity
  8
Calque_1
 62
7
100
AcDbSpline
 70
8
 71
3
 72
8
 73
4
 74
0
 40
0
 40
0
 40
0
 40
0
 40
1
 40
1
 40
1
 40
1
 10
271.239931
 20
243.914154
 30
0.0
 10
271.385084
 20
244.024396
 30
0.0
 10
271.457660
 20
244.182409
 30
0.0
 10
271.457663
 20
244.388200
 30
0.0
  0
SPLINE
  5
25b
100
AcDbEntity
  8
Calque_1
 62
7
100
AcDbSpline
 70
8
 71
3
 72
8
 73
4
 74
0
 40
0
 40
0
 40
0
 40
0
 40
1
 40
1
 40
1
 40
1
 10
271.457663
 20
244.388200
 30
0.0
 10
271.457660
 20
244.599497
 30
0.0
 10
271.382326
 20
244.761185
 30
0.0
 10
271.231665
 20
244.873269
 30
0.0
  0
SPLINE
  5
25c
100
AcDbEntity
  8
Calque_1
 62
7
100
AcDbSpline
 70
8
 71
3
 72
8
 73
4
 74
0
 40
0
 40
0
 40
0
 40
0
 40
1
 40
1
 40
1
 40
1
 10
271.231665
 20
244.873269
 30
0.0
 10
271.082832
 20
244.987183
 30
0.0
 10
270.868778
 20
245.044141
 30
0.0
 10
270.589496
 20
245.044146
 30
0.0
  0
SPLINE
  5
25d
100
AcDbEntity
  8
Calque_1
 62
7
100
AcDbSpline
 70
8
 71
3
 72
8
 73
4
 74
0
 40
0
 40
0
 40
0
 40
0
 40
1
 40
1
 40
1
 40
1
 10
270.589496
 20
245.044146
 30
0.0
 10
270.436992
 20
245.044141
 30
0.0
 10
270.273467
 20
245.027608
 30
0.0
 10
270.098915
 20
244.994537
 30
0.0
  0
SPLINE
  5
25e
100
AcDbEntity
  8
Calque_1
 62
7
100
AcDbSpline
 70
8
 71
3
 72
8
 73
4
 74
0
 40
0
 40
0
 40
0
 40
0
 40
1
 40
1
 40
1
 40
1
 10
270.098915
 20
244.994537
 30
0.0
 10
269.924363
 20
244.961461
 30
0.0
 10
269.732356
 20
244.910012
 30
0.0
 10
269.522897
 20
244.840196
 30
0.0
  0
LWPOLYLINE
  5
25f
100
AcDbEntity
  8
Calque_1
 62
7
100
AcDbPolyline
 90
2
 70
0
 10
346.881035
 20
288.446989
 30
0.0
 10
346.881035
 20
288.943082
 30
0.0
  0
SPLINE
  5
260
100
AcDbEntity
  8
Calque_1
 62
7
100
AcDbSpline
 70
8
 71
3
 72
8
 73
4
 74
0
 40
0
 40
0
 40
0
 40
0
 40
1
 40
1
 40
1
 40
1
 10
269.522897
 20
245.336289
 30
0.0
 10
269.734194
 20
245.395081
 30
0.0
 10
269.931713
 20
245.439178
 30
0.0
 10
270.115453
 20
245.468580
 30
0.0
  0
SPLINE
  5
261
100
AcDbEntity
  8
Calque_1
 62
7
100
AcDbSpline
 70
8
 71
3
 72
8
 73
4
 74
0
 40
0
 40
0
 40
0
 40
0
 40
1
 40
1
 40
1
 40
1
 10
270.115453
 20
245.468580
 30
0.0
 10
270.301026
 20
245.497977
 30
0.0
 10
270.475577
 20
245.512675
 30
0.0
 10
270.639108
 20
245.512677
 30
0.0
  0
SPLINE
  5
262
100
AcDbEntity
  8
Calque_1
 62
7
100
AcDbSpline
 70
8
 71
3
 72
8
 73
4
 74
0
 40
0
 40
0
 40
0
 40
0
 40
1
 40
1
 40
1
 40
1
 10
270.639108
 20
245.512677
 30
0.0
 10
271.061702
 20
245.512675
 30
0.0
 10
271.396107
 20
245.416211
 30
0.0
 10
271.642318
 20
245.223290
 30
0.0
  0
SPLINE
  5
263
100
AcDbEntity
  8
Calque_1
 62
7
100
AcDbSpline
 70
8
 71
3
 72
8
 73
4
 74
0
 40
0
 40
0
 40
0
 40
0
 40
1
 40
1
 40
1
 40
1
 10
271.642318
 20
245.223290
 30
0.0
 10
271.888526
 20
245.032200
 30
0.0
 10
272.011631
 20
244.773128
 30
0.0
 10
272.011634
 20
244.446078
 30
0.0
  0
SPLINE
  5
264
100
AcDbEntity
  8
Calque_1
 62
7
100
AcDbSpline
 70
8
 71
3
 72
8
 73
4
 74
0
 40
0
 40
0
 40
0
 40
0
 40
1
 40
1
 40
1
 40
1
 10
272.011634
 20
244.446078
 30
0.0
 10
272.011631
 20
244.218237
 30
0.0
 10
271.946404
 20
244.025313
 30
0.0
 10
271.815952
 20
243.867302
 30
0.0
  0
SPLINE
  5
265
100
AcDbEntity
  8
Calque_1
 62
7
100
AcDbSpline
 70
8
 71
3
 72
8
 73
4
 74
0
 40
0
 40
0
 40
0
 40
0
 40
1
 40
1
 40
1
 40
1
 10
271.815952
 20
243.867302
 30
0.0
 10
271.685495
 20
243.711120
 30
0.0
 10
271.499920
 20
243.602716
 30
0.0
 10
271.259224
 20
243.542083
 30
0.0
  0
SPLINE
  5
266
100
AcDbEntity
  8
Calque_1
 62
7
100
AcDbSpline
 70
8
 71
3
 72
8
 73
4
 74
0
 40
0
 40
0
 40
0
 40
0
 40
1
 40
1
 40
1
 40
1
 10
197.354574
 20
244.106528
 30
0.0
 10
197.620992
 20
244.049567
 30
0.0
 10
197.828617
 20
243.931056
 30
0.0
 10
197.977447
 20
243.750996
 30
0.0
  0
SPLINE
  5
267
100
AcDbEntity
  8
Calque_1
 62
7
100
AcDbSpline
 70
8
 71
3
 72
8
 73
4
 74
0
 40
0
 40
0
 40
0
 40
0
 40
1
 40
1
 40
1
 40
1
 10
197.977447
 20
243.750996
 30
0.0
 10
198.128111
 20
243.570929
 30
0.0
 10
198.203442
 20
243.348606
 30
0.0
 10
198.203445
 20
243.084023
 30
0.0
  0
SPLINE
  5
268
100
AcDbEntity
  8
Calque_1
 62
7
100
AcDbSpline
 70
8
 71
3
 72
8
 73
4
 74
0
 40
0
 40
0
 40
0
 40
0
 40
1
 40
1
 40
1
 40
1
 10
198.203445
 20
243.084023
 30
0.0
 10
198.203442
 20
242.677961
 30
0.0
 10
198.063801
 20
242.363769
 30
0.0
 10
197.784522
 20
242.141446
 30
0.0
  0
SPLINE
  5
269
100
AcDbEntity
  8
Calque_1
 62
7
100
AcDbSpline
 70
8
 71
3
 72
8
 73
4
 74
0
 40
0
 40
0
 40
0
 40
0
 40
1
 40
1
 40
1
 40
1
 10
197.784522
 20
242.141446
 30
0.0
 10
197.505238
 20
241.919122
 30
0.0
 10
197.108363
 20
241.807960
 30
0.0
 10
196.593897
 20
241.807960
 30
0.0
  0
SPLINE
  5
26a
100
AcDbEntity
  8
Calque_1
 62
7
100
AcDbSpline
 70
8
 71
3
 72
8
 73
4
 74
0
 40
0
 40
0
 40
0
 40
0
 40
1
 40
1
 40
1
 40
1
 10
196.593897
 20
241.807960
 30
0.0
 10
196.421183
 20
241.807960
 30
0.0
 10
196.242957
 20
241.825402
 30
0.0
 10
196.059219
 20
241.860327
 30
0.0
  0
SPLINE
  5
26b
100
AcDbEntity
  8
Calque_1
 62
7
100
AcDbSpline
 70
8
 71
3
 72
8
 73
4
 74
0
 40
0
 40
0
 40
0
 40
0
 40
1
 40
1
 40
1
 40
1
 10
196.059219
 20
241.860327
 30
0.0
 10
195.877315
 20
241.893398
 30
0.0
 10
195.688986
 20
241.943927
 30
0.0
 10
195.494221
 20
242.011911
 30
0.0
  0
LWPOLYLINE
  5
26c
100
AcDbEntity
  8
Calque_1
 62
7
100
AcDbPolyline
 90
2
 70
0
 10
269.398871
 20
241.447467
 30
0.0
 10
269.398871
 20
241.984900
 30
0.0
  0
SPLINE
  5
26d
100
AcDbEntity
  8
Calque_1
 62
7
100
AcDbSpline
 70
8
 71
3
 72
8
 73
4
 74
0
 40
0
 40
0
 40
0
 40
0
 40
1
 40
1
 40
1
 40
1
 10
195.494221
 20
242.549344
 30
0.0
 10
195.648563
 20
242.459312
 30
0.0
 10
195.817603
 20
242.391331
 30
0.0
 10
196.001341
 20
242.345396
 30
0.0
  0
SPLINE
  5
26e
100
AcDbEntity
  8
Calque_1
 62
7
100
AcDbSpline
 70
8
 71
3
 72
8
 73
4
 74
0
 40
0
 40
0
 40
0
 40
0
 40
1
 40
1
 40
1
 40
1
 10
196.001341
 20
242.345396
 30
0.0
 10
196.185079
 20
242.299462
 30
0.0
 10
196.377086
 20
242.276495
 30
0.0
 10
196.577362
 20
242.276495
 30
0.0
  0
SPLINE
  5
26f
100
AcDbEntity
  8
Calque_1
 62
7
100
AcDbSpline
 70
8
 71
3
 72
8
 73
4
 74
0
 40
0
 40
0
 40
0
 40
0
 40
1
 40
1
 40
1
 40
1
 10
196.577362
 20
242.276495
 30
0.0
 10
196.926462
 20
242.276495
 30
0.0
 10
197.191963
 20
242.345396
 30
0.0
 10
197.373867
 20
242.483200
 30
0.0
  0
SPLINE
  5
270
100
AcDbEntity
  8
Calque_1
 62
7
100
AcDbSpline
 70
8
 71
3
 72
8
 73
4
 74
0
 40
0
 40
0
 40
0
 40
0
 40
1
 40
1
 40
1
 40
1
 10
197.373867
 20
242.483200
 30
0.0
 10
197.557602
 20
242.621003
 30
0.0
 10
197.649471
 20
242.821277
 30
0.0
 10
197.649473
 20
243.084023
 30
0.0
  0
SPLINE
  5
271
100
AcDbEntity
  8
Calque_1
 62
7
100
AcDbSpline
 70
8
 71
3
 72
8
 73
4
 74
0
 40
0
 40
0
 40
0
 40
0
 40
1
 40
1
 40
1
 40
1
 10
197.649473
 20
243.084023
 30
0.0
 10
197.649471
 20
243.326556
 30
0.0
 10
197.564034
 20
243.515809
 30
0.0
 10
197.393159
 20
243.651775
 30
0.0
  0
SPLINE
  5
272
100
AcDbEntity
  8
Calque_1
 62
7
100
AcDbSpline
 70
8
 71
3
 72
8
 73
4
 74
0
 40
0
 40
0
 40
0
 40
0
 40
1
 40
1
 40
1
 40
1
 10
197.393159
 20
243.651775
 30
0.0
 10
197.224117
 20
243.789578
 30
0.0
 10
196.988015
 20
243.858480
 30
0.0
 10
196.684846
 20
243.858483
 30
0.0
  0
LWPOLYLINE
  5
273
100
AcDbEntity
  8
Calque_1
 62
7
100
AcDbPolyline
 90
4
 70
0
 10
270.589496
 20
243.294038
 30
0.0
 10
270.109942
 20
243.294038
 30
0.0
 10
270.109942
 20
243.751546
 30
0.0
 10
270.611546
 20
243.751546
 30
0.0
  0
SPLINE
  5
274
100
AcDbEntity
  8
Calque_1
 62
7
100
AcDbSpline
 70
8
 71
3
 72
8
 73
4
 74
0
 40
0
 40
0
 40
0
 40
0
 40
1
 40
1
 40
1
 40
1
 10
196.706896
 20
244.315990
 30
0.0
 10
196.980663
 20
244.315988
 30
0.0
 10
197.190126
 20
244.370191
 30
0.0
 10
197.335281
 20
244.478598
 30
0.0
  0
SPLINE
  5
275
100
AcDbEntity
  8
Calque_1
 62
7
100
AcDbSpline
 70
8
 71
3
 72
8
 73
4
 74
0
 40
0
 40
0
 40
0
 40
0
 40
1
 40
1
 40
1
 40
1
 10
197.335281
 20
244.478598
 30
0.0
 10
197.480434
 20
244.588840
 30
0.0
 10
197.553010
 20
244.746853
 30
0.0
 10
197.553013
 20
244.952644
 30
0.0
  0
SPLINE
  5
276
100
AcDbEntity
  8
Calque_1
 62
7
100
AcDbSpline
 70
8
 71
3
 72
8
 73
4
 74
0
 40
0
 40
0
 40
0
 40
0
 40
1
 40
1
 40
1
 40
1
 10
197.553013
 20
244.952644
 30
0.0
 10
197.553010
 20
245.163941
 30
0.0
 10
197.477676
 20
245.325629
 30
0.0
 10
197.327015
 20
245.437714
 30
0.0
  0
SPLINE
  5
277
100
AcDbEntity
  8
Calque_1
 62
7
100
AcDbSpline
 70
8
 71
3
 72
8
 73
4
 74
0
 40
0
 40
0
 40
0
 40
0
 40
1
 40
1
 40
1
 40
1
 10
197.327015
 20
245.437714
 30
0.0
 10
197.178182
 20
245.551627
 30
0.0
 10
196.964128
 20
245.608585
 30
0.0
 10
196.684846
 20
245.608591
 30
0.0
  0
SPLINE
  5
278
100
AcDbEntity
  8
Calque_1
 62
7
100
AcDbSpline
 70
8
 71
3
 72
8
 73
4
 74
0
 40
0
 40
0
 40
0
 40
0
 40
1
 40
1
 40
1
 40
1
 10
196.684846
 20
245.608591
 30
0.0
 10
196.532342
 20
245.608585
 30
0.0
 10
196.368817
 20
245.592052
 30
0.0
 10
196.194265
 20
245.558982
 30
0.0
  0
SPLINE
  5
279
100
AcDbEntity
  8
Calque_1
 62
7
100
AcDbSpline
 70
8
 71
3
 72
8
 73
4
 74
0
 40
0
 40
0
 40
0
 40
0
 40
1
 40
1
 40
1
 40
1
 10
196.194265
 20
245.558982
 30
0.0
 10
196.019714
 20
245.525905
 30
0.0
 10
195.827706
 20
245.474456
 30
0.0
 10
195.618247
 20
245.404640
 30
0.0
  0
LWPOLYLINE
  5
27a
100
AcDbEntity
  8
Calque_1
 62
7
100
AcDbPolyline
 90
2
 70
0
 10
269.522897
 20
244.840196
 30
0.0
 10
269.522897
 20
245.336289
 30
0.0
  0
SPLINE
  5
27b
100
AcDbEntity
  8
Calque_1
 62
7
100
AcDbSpline
 70
8
 71
3
 72
8
 73
4
 74
0
 40
0
 40
0
 40
0
 40
0
 40
1
 40
1
 40
1
 40
1
 10
195.618247
 20
245.900733
 30
0.0
 10
195.829544
 20
245.959526
 30
0.0
 10
196.027063
 20
246.003623
 30
0.0
 10
196.210803
 20
246.033025
 30
0.0
  0
SPLINE
  5
27c
100
AcDbEntity
  8
Calque_1
 62
7
100
AcDbSpline
 70
8
 71
3
 72
8
 73
4
 74
0
 40
0
 40
0
 40
0
 40
0
 40
1
 40
1
 40
1
 40
1
 10
196.210803
 20
246.033025
 30
0.0
 10
196.396376
 20
246.062421
 30
0.0
 10
196.570927
 20
246.077119
 30
0.0
 10
196.734458
 20
246.077122
 30
0.0
  0
SPLINE
  5
27d
100
AcDbEntity
  8
Calque_1
 62
7
100
AcDbSpline
 70
8
 71
3
 72
8
 73
4
 74
0
 40
0
 40
0
 40
0
 40
0
 40
1
 40
1
 40
1
 40
1
 10
196.734458
 20
246.077122
 30
0.0
 10
197.157052
 20
246.077119
 30
0.0
 10
197.491457
 20
245.980656
 30
0.0
 10
197.737668
 20
245.787734
 30
0.0
  0
SPLINE
  5
27e
100
AcDbEntity
  8
Calque_1
 62
7
100
AcDbSpline
 70
8
 71
3
 72
8
 73
4
 74
0
 40
0
 40
0
 40
0
 40
0
 40
1
 40
1
 40
1
 40
1
 10
197.737668
 20
245.787734
 30
0.0
 10
197.983876
 20
245.596644
 30
0.0
 10
198.106981
 20
245.337573
 30
0.0
 10
198.106984
 20
245.010522
 30
0.0
  0
SPLINE
  5
27f
100
AcDbEntity
  8
Calque_1
 62
7
100
AcDbSpline
 70
8
 71
3
 72
8
 73
4
 74
0
 40
0
 40
0
 40
0
 40
0
 40
1
 40
1
 40
1
 40
1
 10
198.106984
 20
245.010522
 30
0.0
 10
198.106981
 20
244.782681
 30
0.0
 10
198.041754
 20
244.589757
 30
0.0
 10
197.911302
 20
244.431747
 30
0.0
  0
SPLINE
  5
280
100
AcDbEntity
  8
Calque_1
 62
7
100
AcDbSpline
 70
8
 71
3
 72
8
 73
4
 74
0
 40
0
 40
0
 40
0
 40
0
 40
1
 40
1
 40
1
 40
1
 10
197.911302
 20
244.431747
 30
0.0
 10
197.780845
 20
244.275565
 30
0.0
 10
197.595270
 20
244.167160
 30
0.0
 10
197.354574
 20
244.106528
 30
0.0
  0
SPLINE
  5
281
100
AcDbEntity
  8
Calque_1
 62
7
100
AcDbSpline
 70
8
 71
3
 72
8
 73
4
 74
0
 40
0
 40
0
 40
0
 40
0
 40
1
 40
1
 40
1
 40
1
 10
29.641295
 20
330.098386
 30
0.0
 10
29.907713
 20
330.041425
 30
0.0
 10
30.115338
 20
329.922914
 30
0.0
 10
30.264168
 20
329.742854
 30
0.0
  0
SPLINE
  5
282
100
AcDbEntity
  8
Calque_1
 62
7
100
AcDbSpline
 70
8
 71
3
 72
8
 73
4
 74
0
 40
0
 40
0
 40
0
 40
0
 40
1
 40
1
 40
1
 40
1
 10
30.264168
 20
329.742854
 30
0.0
 10
30.414832
 20
329.562787
 30
0.0
 10
30.490163
 20
329.340464
 30
0.0
 10
30.490166
 20
329.075881
 30
0.0
  0
SPLINE
  5
283
100
AcDbEntity
  8
Calque_1
 62
7
100
AcDbSpline
 70
8
 71
3
 72
8
 73
4
 74
0
 40
0
 40
0
 40
0
 40
0
 40
1
 40
1
 40
1
 40
1
 10
30.490166
 20
329.075881
 30
0.0
 10
30.490163
 20
328.669819
 30
0.0
 10
30.350522
 20
328.355627
 30
0.0
 10
30.071243
 20
328.133304
 30
0.0
  0
SPLINE
  5
284
100
AcDbEntity
  8
Calque_1
 62
7
100
AcDbSpline
 70
8
 71
3
 72
8
 73
4
 74
0
 40
0
 40
0
 40
0
 40
0
 40
1
 40
1
 40
1
 40
1
 10
30.071243
 20
328.133304
 30
0.0
 10
29.791959
 20
327.910980
 30
0.0
 10
29.395084
 20
327.799819
 30
0.0
 10
28.880618
 20
327.799819
 30
0.0
  0
SPLINE
  5
285
100
AcDbEntity
  8
Calque_1
 62
7
100
AcDbSpline
 70
8
 71
3
 72
8
 73
4
 74
0
 40
0
 40
0
 40
0
 40
0
 40
1
 40
1
 40
1
 40
1
 10
28.880618
 20
327.799819
 30
0.0
 10
28.707904
 20
327.799819
 30
0.0
 10
28.529678
 20
327.817260
 30
0.0
 10
28.345940
 20
327.852185
 30
0.0
  0
SPLINE
  5
286
100
AcDbEntity
  8
Calque_1
 62
7
100
AcDbSpline
 70
8
 71
3
 72
8
 73
4
 74
0
 40
0
 40
0
 40
0
 40
0
 40
1
 40
1
 40
1
 40
1
 10
28.345940
 20
327.852185
 30
0.0
 10
28.164036
 20
327.885256
 30
0.0
 10
27.975707
 20
327.935785
 30
0.0
 10
27.780942
 20
328.003769
 30
0.0
  0
LWPOLYLINE
  5
287
100
AcDbEntity
  8
Calque_1
 62
7
100
AcDbPolyline
 90
2
 70
0
 10
195.494221
 20
242.011911
 30
0.0
 10
195.494221
 20
242.549344
 30
0.0
  0
SPLINE
  5
288
100
AcDbEntity
  8
Calque_1
 62
7
100
AcDbSpline
 70
8
 71
3
 72
8
 73
4
 74
0
 40
0
 40
0
 40
0
 40
0
 40
1
 40
1
 40
1
 40
1
 10
27.780942
 20
328.541202
 30
0.0
 10
27.935284
 20
328.451170
 30
0.0
 10
28.104324
 20
328.383189
 30
0.0
 10
28.288062
 20
328.337254
 30
0.0
  0
SPLINE
  5
289
100
AcDbEntity
  8
Calque_1
 62
7
100
AcDbSpline
 70
8
 71
3
 72
8
 73
4
 74
0
 40
0
 40
0
 40
0
 40
0
 40
1
 40
1
 40
1
 40
1
 10
28.288062
 20
328.337254
 30
0.0
 10
28.471800
 20
328.291320
 30
0.0
 10
28.663807
 20
328.268353
 30
0.0
 10
28.864083
 20
328.268353
 30
0.0
  0
SPLINE
  5
28a
100
AcDbEntity
  8
Calque_1
 62
7
100
AcDbSpline
 70
8
 71
3
 72
8
 73
4
 74
0
 40
0
 40
0
 40
0
 40
0
 40
1
 40
1
 40
1
 40
1
 10
28.864083
 20
328.268353
 30
0.0
 10
29.213183
 20
328.268353
 30
0.0
 10
29.478684
 20
328.337254
 30
0.0
 10
29.660588
 20
328.475058
 30
0.0
  0
SPLINE
  5
28b
100
AcDbEntity
  8
Calque_1
 62
7
100
AcDbSpline
 70
8
 71
3
 72
8
 73
4
 74
0
 40
0
 40
0
 40
0
 40
0
 40
1
 40
1
 40
1
 40
1
 10
29.660588
 20
328.475058
 30
0.0
 10
29.844323
 20
328.612861
 30
0.0
 10
29.936192
 20
328.813135
 30
0.0
 10
29.936194
 20
329.075881
 30
0.0
  0
SPLINE
  5
28c
100
AcDbEntity
  8
Calque_1
 62
7
100
AcDbSpline
 70
8
 71
3
 72
8
 73
4
 74
0
 40
0
 40
0
 40
0
 40
0
 40
1
 40
1
 40
1
 40
1
 10
29.936194
 20
329.075881
 30
0.0
 10
29.936192
 20
329.318414
 30
0.0
 10
29.850755
 20
329.507667
 30
0.0
 10
29.679880
 20
329.643633
 30
0.0
  0
SPLINE
  5
28d
100
AcDbEntity
  8
Calque_1
 62
7
100
AcDbSpline
 70
8
 71
3
 72
8
 73
4
 74
0
 40
0
 40
0
 40
0
 40
0
 40
1
 40
1
 40
1
 40
1
 10
29.679880
 20
329.643633
 30
0.0
 10
29.510838
 20
329.781436
 30
0.0
 10
29.274736
 20
329.850338
 30
0.0
 10
28.971567
 20
329.850341
 30
0.0
  0
LWPOLYLINE
  5
28e
100
AcDbEntity
  8
Calque_1
 62
7
100
AcDbPolyline
 90
4
 70
0
 10
196.684846
 20
243.858483
 30
0.0
 10
196.205292
 20
243.858483
 30
0.0
 10
196.205292
 20
244.315990
 30
0.0
 10
196.706896
 20
244.315990
 30
0.0
  0
SPLINE
  5
28f
100
AcDbEntity
  8
Calque_1
 62
7
100
AcDbSpline
 70
8
 71
3
 72
8
 73
4
 74
0
 40
0
 40
0
 40
0
 40
0
 40
1
 40
1
 40
1
 40
1
 10
28.993617
 20
330.307848
 30
0.0
 10
29.267384
 20
330.307846
 30
0.0
 10
29.476847
 20
330.362049
 30
0.0
 10
29.622002
 20
330.470456
 30
0.0
  0
SPLINE
  5
290
100
AcDbEntity
  8
Calque_1
 62
7
100
AcDbSpline
 70
8
 71
3
 72
8
 73
4
 74
0
 40
0
 40
0
 40
0
 40
0
 40
1
 40
1
 40
1
 40
1
 10
29.622002
 20
330.470456
 30
0.0
 10
29.767155
 20
330.580698
 30
0.0
 10
29.839731
 20
330.738711
 30
0.0
 10
29.839734
 20
330.944502
 30
0.0
  0
SPLINE
  5
291
100
AcDbEntity
  8
Calque_1
 62
7
100
AcDbSpline
 70
8
 71
3
 72
8
 73
4
 74
0
 40
0
 40
0
 40
0
 40
0
 40
1
 40
1
 40
1
 40
1
 10
29.839734
 20
330.944502
 30
0.0
 10
29.839731
 20
331.155799
 30
0.0
 10
29.764397
 20
331.317487
 30
0.0
 10
29.613736
 20
331.429572
 30
0.0
  0
SPLINE
  5
292
100
AcDbEntity
  8
Calque_1
 62
7
100
AcDbSpline
 70
8
 71
3
 72
8
 73
4
 74
0
 40
0
 40
0
 40
0
 40
0
 40
1
 40
1
 40
1
 40
1
 10
29.613736
 20
331.429572
 30
0.0
 10
29.464903
 20
331.543485
 30
0.0
 10
29.250849
 20
331.600443
 30
0.0
 10
28.971567
 20
331.600449
 30
0.0
  0
SPLINE
  5
293
100
AcDbEntity
  8
Calque_1
 62
7
100
AcDbSpline
 70
8
 71
3
 72
8
 73
4
 74
0
 40
0
 40
0
 40
0
 40
0
 40
1
 40
1
 40
1
 40
1
 10
28.971567
 20
331.600449
 30
0.0
 10
28.819063
 20
331.600443
 30
0.0
 10
28.655538
 20
331.583911
 30
0.0
 10
28.480986
 20
331.550840
 30
0.0
  0
SPLINE
  5
294
100
AcDbEntity
  8
Calque_1
 62
7
100
AcDbSpline
 70
8
 71
3
 72
8
 73
4
 74
0
 40
0
 40
0
 40
0
 40
0
 40
1
 40
1
 40
1
 40
1
 10
28.480986
 20
331.550840
 30
0.0
 10
28.306435
 20
331.517763
 30
0.0
 10
28.114427
 20
331.466314
 30
0.0
 10
27.904968
 20
331.396498
 30
0.0
  0
LWPOLYLINE
  5
295
100
AcDbEntity
  8
Calque_1
 62
7
100
AcDbPolyline
 90
2
 70
0
 10
195.618247
 20
245.404640
 30
0.0
 10
195.618247
 20
245.900733
 30
0.0
  0
SPLINE
  5
296
100
AcDbEntity
  8
Calque_1
 62
7
100
AcDbSpline
 70
8
 71
3
 72
8
 73
4
 74
0
 40
0
 40
0
 40
0
 40
0
 40
1
 40
1
 40
1
 40
1
 10
27.904968
 20
331.892591
 30
0.0
 10
28.116265
 20
331.951384
 30
0.0
 10
28.313784
 20
331.995481
 30
0.0
 10
28.497524
 20
332.024883
 30
0.0
  0
SPLINE
  5
297
100
AcDbEntity
  8
Calque_1
 62
7
100
AcDbSpline
 70
8
 71
3
 72
8
 73
4
 74
0
 40
0
 40
0
 40
0
 40
0
 40
1
 40
1
 40
1
 40
1
 10
28.497524
 20
332.024883
 30
0.0
 10
28.683097
 20
332.054279
 30
0.0
 10
28.857648
 20
332.068977
 30
0.0
 10
29.021179
 20
332.068980
 30
0.0
  0
SPLINE
  5
298
100
AcDbEntity
  8
Calque_1
 62
7
100
AcDbSpline
 70
8
 71
3
 72
8
 73
4
 74
0
 40
0
 40
0
 40
0
 40
0
 40
1
 40
1
 40
1
 40
1
 10
29.021179
 20
332.068980
 30
0.0
 10
29.443773
 20
332.068977
 30
0.0
 10
29.778178
 20
331.972514
 30
0.0
 10
30.024389
 20
331.779592
 30
0.0
  0
SPLINE
  5
299
100
AcDbEntity
  8
Calque_1
 62
7
100
AcDbSpline
 70
8
 71
3
 72
8
 73
4
 74
0
 40
0
 40
0
 40
0
 40
0
 40
1
 40
1
 40
1
 40
1
 10
30.024389
 20
331.779592
 30
0.0
 10
30.270597
 20
331.588502
 30
0.0
 10
30.393702
 20
331.329431
 30
0.0
 10
30.393705
 20
331.002380
 30
0.0
  0
SPLINE
  5
29a
100
AcDbEntity
  8
Calque_1
 62
7
100
AcDbSpline
 70
8
 71
3
 72
8
 73
4
 74
0
 40
0
 40
0
 40
0
 40
0
 40
1
 40
1
 40
1
 40
1
 10
30.393705
 20
331.002380
 30
0.0
 10
30.393702
 20
330.774540
 30
0.0
 10
30.328475
 20
330.581615
 30
0.0
 10
30.198023
 20
330.423605
 30
0.0
  0
SPLINE
  5
29b
100
AcDbEntity
  8
Calque_1
 62
7
100
AcDbSpline
 70
8
 71
3
 72
8
 73
4
 74
0
 40
0
 40
0
 40
0
 40
0
 40
1
 40
1
 40
1
 40
1
 10
30.198023
 20
330.423605
 30
0.0
 10
30.067566
 20
330.267423
 30
0.0
 10
29.881991
 20
330.159019
 30
0.0
 10
29.641295
 20
330.098386
 30
0.0
  0
SPLINE
  5
29c
100
AcDbEntity
  8
Calque_1
 62
7
100
AcDbSpline
 70
8
 71
3
 72
8
 73
4
 74
0
 40
0
 40
0
 40
0
 40
0
 40
1
 40
1
 40
1
 40
1
 10
11.902251
 20
329.972131
 30
0.0
 10
12.168669
 20
329.915170
 30
0.0
 10
12.376294
 20
329.796659
 30
0.0
 10
12.525124
 20
329.616599
 30
0.0
  0
SPLINE
  5
29d
100
AcDbEntity
  8
Calque_1
 62
7
100
AcDbSpline
 70
8
 71
3
 72
8
 73
4
 74
0
 40
0
 40
0
 40
0
 40
0
 40
1
 40
1
 40
1
 40
1
 10
12.525124
 20
329.616599
 30
0.0
 10
12.675788
 20
329.436532
 30
0.0
 10
12.751119
 20
329.214209
 30
0.0
 10
12.751122
 20
328.949626
 30
0.0
  0
SPLINE
  5
29e
100
AcDbEntity
  8
Calque_1
 62
7
100
AcDbSpline
 70
8
 71
3
 72
8
 73
4
 74
0
 40
0
 40
0
 40
0
 40
0
 40
1
 40
1
 40
1
 40
1
 10
12.751122
 20
328.949626
 30
0.0
 10
12.751119
 20
328.543564
 30
0.0
 10
12.611478
 20
328.229372
 30
0.0
 10
12.332200
 20
328.007049
 30
0.0
  0
SPLINE
  5
29f
100
AcDbEntity
  8
Calque_1
 62
7
100
AcDbSpline
 70
8
 71
3
 72
8
 73
4
 74
0
 40
0
 40
0
 40
0
 40
0
 40
1
 40
1
 40
1
 40
1
 10
12.332200
 20
328.007049
 30
0.0
 10
12.052915
 20
327.784725
 30
0.0
 10
11.656040
 20
327.673564
 30
0.0
 10
11.141575
 20
327.673564
 30
0.0
  0
SPLINE
  5
2a0
100
AcDbEntity
  8
Calque_1
 62
7
100
AcDbSpline
 70
8
 71
3
 72
8
 73
4
 74
0
 40
0
 40
0
 40
0
 40
0
 40
1
 40
1
 40
1
 40
1
 10
11.141575
 20
327.673564
 30
0.0
 10
10.968860
 20
327.673564
 30
0.0
 10
10.790634
 20
327.691005
 30
0.0
 10
10.606896
 20
327.725930
 30
0.0
  0
SPLINE
  5
2a1
100
AcDbEntity
  8
Calque_1
 62
7
100
AcDbSpline
 70
8
 71
3
 72
8
 73
4
 74
0
 40
0
 40
0
 40
0
 40
0
 40
1
 40
1
 40
1
 40
1
 10
10.606896
 20
327.725930
 30
0.0
 10
10.424993
 20
327.759001
 30
0.0
 10
10.236663
 20
327.809530
 30
0.0
 10
10.041898
 20
327.877514
 30
0.0
  0
LWPOLYLINE
  5
2a2
100
AcDbEntity
  8
Calque_1
 62
7
100
AcDbPolyline
 90
2
 70
0
 10
27.780942
 20
328.003769
 30
0.0
 10
27.780942
 20
328.541202
 30
0.0
  0
SPLINE
  5
2a3
100
AcDbEntity
  8
Calque_1
 62
7
100
AcDbSpline
 70
8
 71
3
 72
8
 73
4
 74
0
 40
0
 40
0
 40
0
 40
0
 40
1
 40
1
 40
1
 40
1
 10
10.041898
 20
328.414947
 30
0.0
 10
10.196240
 20
328.324916
 30
0.0
 10
10.365280
 20
328.256934
 30
0.0
 10
10.549018
 20
328.210999
 30
0.0
  0
SPLINE
  5
2a4
100
AcDbEntity
  8
Calque_1
 62
7
100
AcDbSpline
 70
8
 71
3
 72
8
 73
4
 74
0
 40
0
 40
0
 40
0
 40
0
 40
1
 40
1
 40
1
 40
1
 10
10.549018
 20
328.210999
 30
0.0
 10
10.732756
 20
328.165065
 30
0.0
 10
10.924763
 20
328.142098
 30
0.0
 10
11.125039
 20
328.142098
 30
0.0
  0
SPLINE
  5
2a5
100
AcDbEntity
  8
Calque_1
 62
7
100
AcDbSpline
 70
8
 71
3
 72
8
 73
4
 74
0
 40
0
 40
0
 40
0
 40
0
 40
1
 40
1
 40
1
 40
1
 10
11.125039
 20
328.142098
 30
0.0
 10
11.474140
 20
328.142098
 30
0.0
 10
11.739640
 20
328.210999
 30
0.0
 10
11.921544
 20
328.348803
 30
0.0
  0
SPLINE
  5
2a6
100
AcDbEntity
  8
Calque_1
 62
7
100
AcDbSpline
 70
8
 71
3
 72
8
 73
4
 74
0
 40
0
 40
0
 40
0
 40
0
 40
1
 40
1
 40
1
 40
1
 10
11.921544
 20
328.348803
 30
0.0
 10
12.105279
 20
328.486606
 30
0.0
 10
12.197148
 20
328.686880
 30
0.0
 10
12.197151
 20
328.949626
 30
0.0
  0
SPLINE
  5
2a7
100
AcDbEntity
  8
Calque_1
 62
7
100
AcDbSpline
 70
8
 71
3
 72
8
 73
4
 74
0
 40
0
 40
0
 40
0
 40
0
 40
1
 40
1
 40
1
 40
1
 10
12.197151
 20
328.949626
 30
0.0
 10
12.197148
 20
329.192159
 30
0.0
 10
12.111711
 20
329.381412
 30
0.0
 10
11.940836
 20
329.517378
 30
0.0
  0
SPLINE
  5
2a8
100
AcDbEntity
  8
Calque_1
 62
7
100
AcDbSpline
 70
8
 71
3
 72
8
 73
4
 74
0
 40
0
 40
0
 40
0
 40
0
 40
1
 40
1
 40
1
 40
1
 10
11.940836
 20
329.517378
 30
0.0
 10
11.771794
 20
329.655181
 30
0.0
 10
11.535692
 20
329.724083
 30
0.0
 10
11.232523
 20
329.724086
 30
0.0
  0
LWPOLYLINE
  5
2a9
100
AcDbEntity
  8
Calque_1
 62
7
100
AcDbPolyline
 90
4
 70
0
 10
28.971567
 20
329.850341
 30
0.0
 10
28.492013
 20
329.850341
 30
0.0
 10
28.492013
 20
330.307848
 30
0.0
 10
28.993617
 20
330.307848
 30
0.0
  0
SPLINE
  5
2aa
100
AcDbEntity
  8
Calque_1
 62
7
100
AcDbSpline
 70
8
 71
3
 72
8
 73
4
 74
0
 40
0
 40
0
 40
0
 40
0
 40
1
 40
1
 40
1
 40
1
 10
11.254573
 20
330.181593
 30
0.0
 10
11.528340
 20
330.181591
 30
0.0
 10
11.737803
 20
330.235794
 30
0.0
 10
11.882958
 20
330.344201
 30
0.0
  0
SPLINE
  5
2ab
100
AcDbEntity
  8
Calque_1
 62
7
100
AcDbSpline
 70
8
 71
3
 72
8
 73
4
 74
0
 40
0
 40
0
 40
0
 40
0
 40
1
 40
1
 40
1
 40
1
 10
11.882958
 20
330.344201
 30
0.0
 10
12.028111
 20
330.454443
 30
0.0
 10
12.100687
 20
330.612456
 30
0.0
 10
12.100690
 20
330.818247
 30
0.0
  0
SPLINE
  5
2ac
100
AcDbEntity
  8
Calque_1
 62
7
100
AcDbSpline
 70
8
 71
3
 72
8
 73
4
 74
0
 40
0
 40
0
 40
0
 40
0
 40
1
 40
1
 40
1
 40
1
 10
12.100690
 20
330.818247
 30
0.0
 10
12.100687
 20
331.029544
 30
0.0
 10
12.025353
 20
331.191232
 30
0.0
 10
11.874692
 20
331.303317
 30
0.0
  0
SPLINE
  5
2ad
100
AcDbEntity
  8
Calque_1
 62
7
100
AcDbSpline
 70
8
 71
3
 72
8
 73
4
 74
0
 40
0
 40
0
 40
0
 40
0
 40
1
 40
1
 40
1
 40
1
 10
11.874692
 20
331.303317
 30
0.0
 10
11.725859
 20
331.417230
 30
0.0
 10
11.511805
 20
331.474188
 30
0.0
 10
11.232523
 20
331.474194
 30
0.0
  0
SPLINE
  5
2ae
100
AcDbEntity
  8
Calque_1
 62
7
100
AcDbSpline
 70
8
 71
3
 72
8
 73
4
 74
0
 40
0
 40
0
 40
0
 40
0
 40
1
 40
1
 40
1
 40
1
 10
11.232523
 20
331.474194
 30
0.0
 10
11.080019
 20
331.474188
 30
0.0
 10
10.916494
 20
331.457656
 30
0.0
 10
10.741942
 20
331.424585
 30
0.0
  0
SPLINE
  5
2af
100
AcDbEntity
  8
Calque_1
 62
7
100
AcDbSpline
 70
8
 71
3
 72
8
 73
4
 74
0
 40
0
 40
0
 40
0
 40
0
 40
1
 40
1
 40
1
 40
1
 10
10.741942
 20
331.424585
 30
0.0
 10
10.567391
 20
331.391508
 30
0.0
 10
10.375384
 20
331.340059
 30
0.0
 10
10.165924
 20
331.270243
 30
0.0
  0
LWPOLYLINE
  5
2b0
100
AcDbEntity
  8
Calque_1
 62
7
100
AcDbPolyline
 90
2
 70
0
 10
27.904968
 20
331.396498
 30
0.0
 10
27.904968
 20
331.892591
 30
0.0
  0
SPLINE
  5
2b1
100
AcDbEntity
  8
Calque_1
 62
7
100
AcDbSpline
 70
8
 71
3
 72
8
 73
4
 74
0
 40
0
 40
0
 40
0
 40
0
 40
1
 40
1
 40
1
 40
1
 10
10.165924
 20
331.766336
 30
0.0
 10
10.377221
 20
331.825129
 30
0.0
 10
10.574740
 20
331.869226
 30
0.0
 10
10.758480
 20
331.898628
 30
0.0
  0
SPLINE
  5
2b2
100
AcDbEntity
  8
Calque_1
 62
7
100
AcDbSpline
 70
8
 71
3
 72
8
 73
4
 74
0
 40
0
 40
0
 40
0
 40
0
 40
1
 40
1
 40
1
 40
1
 10
10.758480
 20
331.898628
 30
0.0
 10
10.944053
 20
331.928024
 30
0.0
 10
11.118604
 20
331.942722
 30
0.0
 10
11.282135
 20
331.942725
 30
0.0
  0
SPLINE
  5
2b3
100
AcDbEntity
  8
Calque_1
 62
7
100
AcDbSpline
 70
8
 71
3
 72
8
 73
4
 74
0
 40
0
 40
0
 40
0
 40
0
 40
1
 40
1
 40
1
 40
1
 10
11.282135
 20
331.942725
 30
0.0
 10
11.704729
 20
331.942722
 30
0.0
 10
12.039134
 20
331.846259
 30
0.0
 10
12.285345
 20
331.653337
 30
0.0
  0
SPLINE
  5
2b4
100
AcDbEntity
  8
Calque_1
 62
7
100
AcDbSpline
 70
8
 71
3
 72
8
 73
4
 74
0
 40
0
 40
0
 40
0
 40
0
 40
1
 40
1
 40
1
 40
1
 10
12.285345
 20
331.653337
 30
0.0
 10
12.531553
 20
331.462247
 30
0.0
 10
12.654658
 20
331.203176
 30
0.0
 10
12.654661
 20
330.876125
 30
0.0
  0
SPLINE
  5
2b5
100
AcDbEntity
  8
Calque_1
 62
7
100
AcDbSpline
 70
8
 71
3
 72
8
 73
4
 74
0
 40
0
 40
0
 40
0
 40
0
 40
1
 40
1
 40
1
 40
1
 10
12.654661
 20
330.876125
 30
0.0
 10
12.654658
 20
330.648285
 30
0.0
 10
12.589431
 20
330.455360
 30
0.0
 10
12.458979
 20
330.297350
 30
0.0
  0
SPLINE
  5
2b6
100
AcDbEntity
  8
Calque_1
 62
7
100
AcDbSpline
 70
8
 71
3
 72
8
 73
4
 74
0
 40
0
 40
0
 40
0
 40
0
 40
1
 40
1
 40
1
 40
1
 10
12.458979
 20
330.297350
 30
0.0
 10
12.328522
 20
330.141168
 30
0.0
 10
12.142947
 20
330.032764
 30
0.0
 10
11.902251
 20
329.972131
 30
0.0
  0
LWPOLYLINE
  5
2b7
100
AcDbEntity
  8
Calque_1
 62
7
100
AcDbPolyline
 90
2
 70
0
 10
10.041898
 20
327.877514
 30
0.0
 10
10.041898
 20
328.414947
 30
0.0
  0
SPLINE
  5
2b8
100
AcDbEntity
  8
Calque_1
 62
7
100
AcDbSpline
 70
8
 71
3
 72
8
 73
4
 74
0
 40
0
 40
0
 40
0
 40
0
 40
1
 40
1
 40
1
 40
1
 10
204.176173
 20
295.719269
 30
0.0
 10
204.387470
 20
295.937917
 30
0.0
 10
204.675020
 20
296.230980
 30
0.0
 10
205.038825
 20
296.598459
 30
0.0
  0
SPLINE
  5
2b9
100
AcDbEntity
  8
Calque_1
 62
7
100
AcDbSpline
 70
8
 71
3
 72
8
 73
4
 74
0
 40
0
 40
0
 40
0
 40
0
 40
1
 40
1
 40
1
 40
1
 10
205.038825
 20
296.598459
 30
0.0
 10
205.404460
 20
296.967772
 30
0.0
 10
205.634136
 20
297.205710
 30
0.0
 10
205.727842
 20
297.312283
 30
0.0
  0
SPLINE
  5
2ba
100
AcDbEntity
  8
Calque_1
 62
7
100
AcDbSpline
 70
8
 71
3
 72
8
 73
4
 74
0
 40
0
 40
0
 40
0
 40
0
 40
1
 40
1
 40
1
 40
1
 10
205.727842
 20
297.312283
 30
0.0
 10
205.906068
 20
297.512554
 30
0.0
 10
206.030091
 20
297.681594
 30
0.0
 10
206.099912
 20
297.819400
 30
0.0
  0
SPLINE
  5
2bb
100
AcDbEntity
  8
Calque_1
 62
7
100
AcDbSpline
 70
8
 71
3
 72
8
 73
4
 74
0
 40
0
 40
0
 40
0
 40
0
 40
1
 40
1
 40
1
 40
1
 10
206.099912
 20
297.819400
 30
0.0
 10
206.171569
 20
297.959038
 30
0.0
 10
206.207397
 20
298.095924
 30
0.0
 10
206.207400
 20
298.230056
 30
0.0
  0
SPLINE
  5
2bc
100
AcDbEntity
  8
Calque_1
 62
7
100
AcDbSpline
 70
8
 71
3
 72
8
 73
4
 74
0
 40
0
 40
0
 40
0
 40
0
 40
1
 40
1
 40
1
 40
1
 10
206.207400
 20
298.230056
 30
0.0
 10
206.207397
 20
298.448702
 30
0.0
 10
206.130229
 20
298.626928
 30
0.0
 10
205.975890
 20
298.764734
 30
0.0
  0
SPLINE
  5
2bd
100
AcDbEntity
  8
Calque_1
 62
7
100
AcDbSpline
 70
8
 71
3
 72
8
 73
4
 74
0
 40
0
 40
0
 40
0
 40
0
 40
1
 40
1
 40
1
 40
1
 10
205.975890
 20
298.764734
 30
0.0
 10
205.823385
 20
298.902535
 30
0.0
 10
205.624029
 20
298.971437
 30
0.0
 10
205.377821
 20
298.971439
 30
0.0
  0
SPLINE
  5
2be
100
AcDbEntity
  8
Calque_1
 62
7
100
AcDbSpline
 70
8
 71
3
 72
8
 73
4
 74
0
 40
0
 40
0
 40
0
 40
0
 40
1
 40
1
 40
1
 40
1
 10
205.377821
 20
298.971439
 30
0.0
 10
205.203267
 20
298.971437
 30
0.0
 10
205.018612
 20
298.941120
 30
0.0
 10
204.823850
 20
298.880490
 30
0.0
  0
SPLINE
  5
2bf
100
AcDbEntity
  8
Calque_1
 62
7
100
AcDbSpline
 70
8
 71
3
 72
8
 73
4
 74
0
 40
0
 40
0
 40
0
 40
0
 40
1
 40
1
 40
1
 40
1
 10
204.823850
 20
298.880490
 30
0.0
 10
204.630923
 20
298.819852
 30
0.0
 10
204.424218
 20
298.727983
 30
0.0
 10
204.203732
 20
298.604881
 30
0.0
  0
LWPOLYLINE
  5
2c0
100
AcDbEntity
  8
Calque_1
 62
7
100
AcDbPolyline
 90
4
 70
0
 10
11.232523
 20
329.724086
 30
0.0
 10
10.752969
 20
329.724086
 30
0.0
 10
10.752969
 20
330.181593
 30
0.0
 10
11.254573
 20
330.181593
 30
0.0
  0
SPLINE
  5
2c1
100
AcDbEntity
  8
Calque_1
 62
7
100
AcDbSpline
 70
8
 71
3
 72
8
 73
4
 74
0
 40
0
 40
0
 40
0
 40
0
 40
1
 40
1
 40
1
 40
1
 10
204.203732
 20
299.167121
 30
0.0
 10
204.427892
 20
299.257150
 30
0.0
 10
204.637355
 20
299.325132
 30
0.0
 10
204.832119
 20
299.371072
 30
0.0
  0
SPLINE
  5
2c2
100
AcDbEntity
  8
Calque_1
 62
7
100
AcDbSpline
 70
8
 71
3
 72
8
 73
4
 74
0
 40
0
 40
0
 40
0
 40
0
 40
1
 40
1
 40
1
 40
1
 10
204.832119
 20
299.371072
 30
0.0
 10
205.026881
 20
299.417001
 30
0.0
 10
205.205107
 20
299.439968
 30
0.0
 10
205.366798
 20
299.439973
 30
0.0
  0
SPLINE
  5
2c3
100
AcDbEntity
  8
Calque_1
 62
7
100
AcDbSpline
 70
8
 71
3
 72
8
 73
4
 74
0
 40
0
 40
0
 40
0
 40
0
 40
1
 40
1
 40
1
 40
1
 10
205.366798
 20
299.439973
 30
0.0
 10
205.793069
 20
299.439968
 30
0.0
 10
206.132983
 20
299.333401
 30
0.0
 10
206.386546
 20
299.120269
 30
0.0
  0
SPLINE
  5
2c4
100
AcDbEntity
  8
Calque_1
 62
7
100
AcDbSpline
 70
8
 71
3
 72
8
 73
4
 74
0
 40
0
 40
0
 40
0
 40
0
 40
1
 40
1
 40
1
 40
1
 10
206.386546
 20
299.120269
 30
0.0
 10
206.640103
 20
298.907127
 30
0.0
 10
206.766880
 20
298.622333
 30
0.0
 10
206.766882
 20
298.265884
 30
0.0
  0
SPLINE
  5
2c5
100
AcDbEntity
  8
Calque_1
 62
7
100
AcDbSpline
 70
8
 71
3
 72
8
 73
4
 74
0
 40
0
 40
0
 40
0
 40
0
 40
1
 40
1
 40
1
 40
1
 10
206.766882
 20
298.265884
 30
0.0
 10
206.766880
 20
298.096841
 30
0.0
 10
206.734726
 20
297.936071
 30
0.0
 10
206.670422
 20
297.783572
 30
0.0
  0
SPLINE
  5
2c6
100
AcDbEntity
  8
Calque_1
 62
7
100
AcDbSpline
 70
8
 71
3
 72
8
 73
4
 74
0
 40
0
 40
0
 40
0
 40
0
 40
1
 40
1
 40
1
 40
1
 10
206.670422
 20
297.783572
 30
0.0
 10
206.607946
 20
297.632905
 30
0.0
 10
206.493110
 20
297.454678
 30
0.0
 10
206.325910
 20
297.248893
 30
0.0
  0
SPLINE
  5
2c7
100
AcDbEntity
  8
Calque_1
 62
7
100
AcDbSpline
 70
8
 71
3
 72
8
 73
4
 74
0
 40
0
 40
0
 40
0
 40
0
 40
1
 40
1
 40
1
 40
1
 10
206.325910
 20
297.248893
 30
0.0
 10
206.279976
 20
297.195607
 30
0.0
 10
206.133903
 20
297.041265
 30
0.0
 10
205.887695
 20
296.785871
 30
0.0
  0
SPLINE
  5
2c8
100
AcDbEntity
  8
Calque_1
 62
7
100
AcDbSpline
 70
8
 71
3
 72
8
 73
4
 74
0
 40
0
 40
0
 40
0
 40
0
 40
1
 40
1
 40
1
 40
1
 10
205.887695
 20
296.785871
 30
0.0
 10
205.641485
 20
296.532311
 30
0.0
 10
205.294219
 20
296.176779
 30
0.0
 10
204.845897
 20
295.719269
 30
0.0
  0
LWPOLYLINE
  5
2c9
100
AcDbEntity
  8
Calque_1
 62
7
100
AcDbPolyline
 90
2
 70
0
 10
10.165924
 20
331.270243
 30
0.0
 10
10.165924
 20
331.766336
 30
0.0
  0
LWPOLYLINE
  5
2ca
100
AcDbEntity
  8
Calque_1
 62
7
100
AcDbPolyline
 90
5
 70
0
 10
204.845897
 20
295.719269
 30
0.0
 10
206.788933
 20
295.719269
 30
0.0
 10
206.788933
 20
295.250737
 30
0.0
 10
204.176173
 20
295.250737
 30
0.0
 10
204.176173
 20
295.719269
 30
0.0
  0
SPLINE
  5
2cb
100
AcDbEntity
  8
Calque_1
 62
7
100
AcDbSpline
 70
8
 71
3
 72
8
 73
4
 74
0
 40
0
 40
0
 40
0
 40
0
 40
1
 40
1
 40
1
 40
1
 10
206.594560
 20
222.308404
 30
0.0
 10
206.307927
 20
222.308404
 30
0.0
 10
206.092036
 20
222.166926
 30
0.0
 10
205.946883
 20
221.883970
 30
0.0
  0
SPLINE
  5
2cc
100
AcDbEntity
  8
Calque_1
 62
7
100
AcDbSpline
 70
8
 71
3
 72
8
 73
4
 74
0
 40
0
 40
0
 40
0
 40
0
 40
1
 40
1
 40
1
 40
1
 10
205.946883
 20
221.883970
 30
0.0
 10
205.803568
 20
221.602849
 30
0.0
 10
205.731909
 20
221.179318
 30
0.0
 10
205.731909
 20
220.613406
 30
0.0
  0
SPLINE
  5
2cd
100
AcDbEntity
  8
Calque_1
 62
7
100
AcDbSpline
 70
8
 71
3
 72
8
 73
4
 74
0
 40
0
 40
0
 40
0
 40
0
 40
1
 40
1
 40
1
 40
1
 10
205.731909
 20
220.613406
 30
0.0
 10
205.731909
 20
220.049328
 30
0.0
 10
205.803568
 20
219.625826
 30
0.0
 10
205.946883
 20
219.342870
 30
0.0
  0
SPLINE
  5
2ce
100
AcDbEntity
  8
Calque_1
 62
7
100
AcDbSpline
 70
8
 71
3
 72
8
 73
4
 74
0
 40
0
 40
0
 40
0
 40
0
 40
1
 40
1
 40
1
 40
1
 10
205.946883
 20
219.342870
 30
0.0
 10
206.092036
 20
219.061748
 30
0.0
 10
206.307927
 20
218.921173
 30
0.0
 10
206.594560
 20
218.921173
 30
0.0
  0
SPLINE
  5
2cf
100
AcDbEntity
  8
Calque_1
 62
7
100
AcDbSpline
 70
8
 71
3
 72
8
 73
4
 74
0
 40
0
 40
0
 40
0
 40
0
 40
1
 40
1
 40
1
 40
1
 10
206.594560
 20
218.921173
 30
0.0
 10
206.883028
 20
218.921173
 30
0.0
 10
207.098923
 20
219.061748
 30
0.0
 10
207.242241
 20
219.342870
 30
0.0
  0
SPLINE
  5
2d0
100
AcDbEntity
  8
Calque_1
 62
7
100
AcDbSpline
 70
8
 71
3
 72
8
 73
4
 74
0
 40
0
 40
0
 40
0
 40
0
 40
1
 40
1
 40
1
 40
1
 10
207.242241
 20
219.342870
 30
0.0
 10
207.387390
 20
219.625826
 30
0.0
 10
207.459967
 20
220.049328
 30
0.0
 10
207.459969
 20
220.613406
 30
0.0
  0
SPLINE
  5
2d1
100
AcDbEntity
  8
Calque_1
 62
7
100
AcDbSpline
 70
8
 71
3
 72
8
 73
4
 74
0
 40
0
 40
0
 40
0
 40
0
 40
1
 40
1
 40
1
 40
1
 10
207.459969
 20
220.613406
 30
0.0
 10
207.459967
 20
221.179318
 30
0.0
 10
207.387390
 20
221.602849
 30
0.0
 10
207.242241
 20
221.883970
 30
0.0
  0
SPLINE
  5
2d2
100
AcDbEntity
  8
Calque_1
 62
7
100
AcDbSpline
 70
8
 71
3
 72
8
 73
4
 74
0
 40
0
 40
0
 40
0
 40
0
 40
1
 40
1
 40
1
 40
1
 10
207.242241
 20
221.883970
 30
0.0
 10
207.098923
 20
222.166926
 30
0.0
 10
206.883028
 20
222.308404
 30
0.0
 10
206.594560
 20
222.308404
 30
0.0
  0
SPLINE
  5
2d3
100
AcDbEntity
  8
Calque_1
 62
7
100
AcDbSpline
 70
8
 71
3
 72
8
 73
4
 74
0
 40
0
 40
0
 40
0
 40
0
 40
1
 40
1
 40
1
 40
1
 10
206.594560
 20
222.749377
 30
0.0
 10
207.055743
 20
222.749377
 30
0.0
 10
207.407600
 20
222.566553
 30
0.0
 10
207.650139
 20
222.200906
 30
0.0
  0
SPLINE
  5
2d4
100
AcDbEntity
  8
Calque_1
 62
7
100
AcDbSpline
 70
8
 71
3
 72
8
 73
4
 74
0
 40
0
 40
0
 40
0
 40
0
 40
1
 40
1
 40
1
 40
1
 10
207.650139
 20
222.200906
 30
0.0
 10
207.894507
 20
221.837122
 30
0.0
 10
208.016695
 20
221.307927
 30
0.0
 10
208.016698
 20
220.613406
 30
0.0
  0
SPLINE
  5
2d5
100
AcDbEntity
  8
Calque_1
 62
7
100
AcDbSpline
 70
8
 71
3
 72
8
 73
4
 74
0
 40
0
 40
0
 40
0
 40
0
 40
1
 40
1
 40
1
 40
1
 10
208.016698
 20
220.613406
 30
0.0
 10
208.016695
 20
219.920720
 30
0.0
 10
207.894507
 20
219.391553
 30
0.0
 10
207.650139
 20
219.025906
 30
0.0
  0
SPLINE
  5
2d6
100
AcDbEntity
  8
Calque_1
 62
7
100
AcDbSpline
 70
8
 71
3
 72
8
 73
4
 74
0
 40
0
 40
0
 40
0
 40
0
 40
1
 40
1
 40
1
 40
1
 10
207.650139
 20
219.025906
 30
0.0
 10
207.407600
 20
218.662122
 30
0.0
 10
207.055743
 20
218.480201
 30
0.0
 10
206.594560
 20
218.480201
 30
0.0
  0
SPLINE
  5
2d7
100
AcDbEntity
  8
Calque_1
 62
7
100
AcDbSpline
 70
8
 71
3
 72
8
 73
4
 74
0
 40
0
 40
0
 40
0
 40
0
 40
1
 40
1
 40
1
 40
1
 10
206.594560
 20
218.480201
 30
0.0
 10
206.133375
 20
218.480201
 30
0.0
 10
205.780600
 20
218.662122
 30
0.0
 10
205.536227
 20
219.025906
 30
0.0
  0
SPLINE
  5
2d8
100
AcDbEntity
  8
Calque_1
 62
7
100
AcDbSpline
 70
8
 71
3
 72
8
 73
4
 74
0
 40
0
 40
0
 40
0
 40
0
 40
1
 40
1
 40
1
 40
1
 10
205.536227
 20
219.025906
 30
0.0
 10
205.293694
 20
219.391553
 30
0.0
 10
205.172426
 20
219.920720
 30
0.0
 10
205.172426
 20
220.613406
 30
0.0
  0
SPLINE
  5
2d9
100
AcDbEntity
  8
Calque_1
 62
7
100
AcDbSpline
 70
8
 71
3
 72
8
 73
4
 74
0
 40
0
 40
0
 40
0
 40
0
 40
1
 40
1
 40
1
 40
1
 10
205.172426
 20
220.613406
 30
0.0
 10
205.172426
 20
221.307927
 30
0.0
 10
205.293694
 20
221.837122
 30
0.0
 10
205.536227
 20
222.200906
 30
0.0
  0
SPLINE
  5
2da
100
AcDbEntity
  8
Calque_1
 62
7
100
AcDbSpline
 70
8
 71
3
 72
8
 73
4
 74
0
 40
0
 40
0
 40
0
 40
0
 40
1
 40
1
 40
1
 40
1
 10
205.536227
 20
222.200906
 30
0.0
 10
205.780600
 20
222.566553
 30
0.0
 10
206.133375
 20
222.749377
 30
0.0
 10
206.594560
 20
222.749377
 30
0.0
  0
LWPOLYLINE
  5
2db
100
AcDbEntity
  8
Calque_1
 62
7
100
AcDbPolyline
 90
2
 70
0
 10
204.203732
 20
298.604881
 30
0.0
 10
204.203732
 20
299.167121
 30
0.0
  0
SPLINE
  5
2dc
100
AcDbEntity
  8
Calque_1
 62
7
100
AcDbSpline
 70
8
 71
3
 72
8
 73
4
 74
0
 40
0
 40
0
 40
0
 40
0
 40
1
 40
1
 40
1
 40
1
 10
249.334542
 20
208.026267
 30
0.0
 10
247.191036
 20
213.234057
 30
0.0
 10
242.116201
 20
216.633141
 30
0.0
 10
236.484527
 20
216.633141
 30
0.0
  0
SPLINE
  5
2dd
100
AcDbEntity
  8
Calque_1
 62
7
100
AcDbSpline
 70
8
 71
3
 72
8
 73
4
 74
0
 40
0
 40
0
 40
0
 40
0
 40
1
 40
1
 40
1
 40
1
 10
236.484527
 20
216.633141
 30
0.0
 10
230.852839
 20
216.633141
 30
0.0
 10
225.778026
 20
213.234057
 30
0.0
 10
223.634517
 20
208.026267
 30
0.0
  0
LWPOLYLINE
  5
2de
100
AcDbEntity
  8
Calque_1
 62
7
100
AcDbPolyline
 90
23
 70
0
 10
230.134499
 20
246.026247
 30
0.0
 10
242.834513
 20
246.026247
 30
0.0
 10
242.834513
 20
237.025306
 30
0.0
 10
244.834537
 20
237.025306
 30
0.0
 10
244.834537
 20
234.025312
 30
0.0
 10
242.834513
 20
234.025312
 30
0.0
 10
242.834513
 20
232.026247
 30
0.0
 10
249.334542
 20
232.026247
 30
0.0
 10
249.334542
 20
222.026267
 30
0.0
 10
252.334533
 20
222.026267
 30
0.0
 10
252.334533
 20
232.026247
 30
0.0
 10
276.234525
 20
232.026247
 30
0.0
 10
276.234525
 20
223.026265
 30
0.0
 10
279.234519
 20
223.026265
 30
0.0
 10
279.234519
 20
227.026257
 30
0.0
 10
285.234493
 20
227.026257
 30
0.0
 10
285.234493
 20
223.026265
 30
0.0
 10
288.234515
 20
223.026265
 30
0.0
 10
288.234515
 20
232.026247
 30
0.0
 10
295.234501
 20
232.026247
 30
0.0
 10
295.234501
 20
202.026250
 30
0.0
 10
249.334542
 20
202.026250
 30
0.0
 10
249.334542
 20
208.026267
 30
0.0
  0
SPLINE
  5
2df
100
AcDbEntity
  8
Calque_1
 62
7
100
AcDbSpline
 70
8
 71
3
 72
8
 73
4
 74
0
 40
0
 40
0
 40
0
 40
0
 40
1
 40
1
 40
1
 40
1
 10
246.399967
 20
289.374523
 30
0.0
 10
246.113334
 20
289.374523
 30
0.0
 10
245.897442
 20
289.233045
 30
0.0
 10
245.752290
 20
288.950089
 30
0.0
  0
SPLINE
  5
2e0
100
AcDbEntity
  8
Calque_1
 62
7
100
AcDbSpline
 70
8
 71
3
 72
8
 73
4
 74
0
 40
0
 40
0
 40
0
 40
0
 40
1
 40
1
 40
1
 40
1
 10
245.752290
 20
288.950089
 30
0.0
 10
245.608975
 20
288.668970
 30
0.0
 10
245.537315
 20
288.245448
 30
0.0
 10
245.537315
 20
287.679536
 30
0.0
  0
SPLINE
  5
2e1
100
AcDbEntity
  8
Calque_1
 62
7
100
AcDbSpline
 70
8
 71
3
 72
8
 73
4
 74
0
 40
0
 40
0
 40
0
 40
0
 40
1
 40
1
 40
1
 40
1
 10
245.537315
 20
287.679536
 30
0.0
 10
245.537315
 20
287.115464
 30
0.0
 10
245.608975
 20
286.691947
 30
0.0
 10
245.752290
 20
286.408991
 30
0.0
  0
SPLINE
  5
2e2
100
AcDbEntity
  8
Calque_1
 62
7
100
AcDbSpline
 70
8
 71
3
 72
8
 73
4
 74
0
 40
0
 40
0
 40
0
 40
0
 40
1
 40
1
 40
1
 40
1
 10
245.752290
 20
286.408991
 30
0.0
 10
245.897442
 20
286.127870
 30
0.0
 10
246.113334
 20
285.987306
 30
0.0
 10
246.399967
 20
285.987306
 30
0.0
  0
SPLINE
  5
2e3
100
AcDbEntity
  8
Calque_1
 62
7
100
AcDbSpline
 70
8
 71
3
 72
8
 73
4
 74
0
 40
0
 40
0
 40
0
 40
0
 40
1
 40
1
 40
1
 40
1
 10
246.399967
 20
285.987306
 30
0.0
 10
246.688435
 20
285.987306
 30
0.0
 10
246.904329
 20
286.127870
 30
0.0
 10
247.047647
 20
286.408991
 30
0.0
  0
SPLINE
  5
2e4
100
AcDbEntity
  8
Calque_1
 62
7
100
AcDbSpline
 70
8
 71
3
 72
8
 73
4
 74
0
 40
0
 40
0
 40
0
 40
0
 40
1
 40
1
 40
1
 40
1
 10
247.047647
 20
286.408991
 30
0.0
 10
247.192797
 20
286.691947
 30
0.0
 10
247.265373
 20
287.115464
 30
0.0
 10
247.265376
 20
287.679536
 30
0.0
  0
SPLINE
  5
2e5
100
AcDbEntity
  8
Calque_1
 62
7
100
AcDbSpline
 70
8
 71
3
 72
8
 73
4
 74
0
 40
0
 40
0
 40
0
 40
0
 40
1
 40
1
 40
1
 40
1
 10
247.265376
 20
287.679536
 30
0.0
 10
247.265373
 20
288.245448
 30
0.0
 10
247.192797
 20
288.668970
 30
0.0
 10
247.047647
 20
288.950089
 30
0.0
  0
SPLINE
  5
2e6
100
AcDbEntity
  8
Calque_1
 62
7
100
AcDbSpline
 70
8
 71
3
 72
8
 73
4
 74
0
 40
0
 40
0
 40
0
 40
0
 40
1
 40
1
 40
1
 40
1
 10
247.047647
 20
288.950089
 30
0.0
 10
246.904329
 20
289.233045
 30
0.0
 10
246.688435
 20
289.374523
 30
0.0
 10
246.399967
 20
289.374523
 30
0.0
  0
SPLINE
  5
2e7
100
AcDbEntity
  8
Calque_1
 62
7
100
AcDbSpline
 70
8
 71
3
 72
8
 73
4
 74
0
 40
0
 40
0
 40
0
 40
0
 40
1
 40
1
 40
1
 40
1
 10
246.399967
 20
289.815498
 30
0.0
 10
246.861149
 20
289.815498
 30
0.0
 10
247.213007
 20
289.632677
 30
0.0
 10
247.455546
 20
289.267036
 30
0.0
  0
SPLINE
  5
2e8
100
AcDbEntity
  8
Calque_1
 62
7
100
AcDbSpline
 70
8
 71
3
 72
8
 73
4
 74
0
 40
0
 40
0
 40
0
 40
0
 40
1
 40
1
 40
1
 40
1
 10
247.455546
 20
289.267036
 30
0.0
 10
247.699914
 20
288.903237
 30
0.0
 10
247.822102
 20
288.374065
 30
0.0
 10
247.822105
 20
287.679536
 30
0.0
  0
SPLINE
  5
2e9
100
AcDbEntity
  8
Calque_1
 62
7
100
AcDbSpline
 70
8
 71
3
 72
8
 73
4
 74
0
 40
0
 40
0
 40
0
 40
0
 40
1
 40
1
 40
1
 40
1
 10
247.822105
 20
287.679536
 30
0.0
 10
247.822102
 20
286.986844
 30
0.0
 10
247.699914
 20
286.457680
 30
0.0
 10
247.455546
 20
286.092036
 30
0.0
  0
SPLINE
  5
2ea
100
AcDbEntity
  8
Calque_1
 62
7
100
AcDbSpline
 70
8
 71
3
 72
8
 73
4
 74
0
 40
0
 40
0
 40
0
 40
0
 40
1
 40
1
 40
1
 40
1
 10
247.455546
 20
286.092036
 30
0.0
 10
247.213007
 20
285.728240
 30
0.0
 10
246.861149
 20
285.546337
 30
0.0
 10
246.399967
 20
285.546337
 30
0.0
  0
SPLINE
  5
2eb
100
AcDbEntity
  8
Calque_1
 62
7
100
AcDbSpline
 70
8
 71
3
 72
8
 73
4
 74
0
 40
0
 40
0
 40
0
 40
0
 40
1
 40
1
 40
1
 40
1
 10
246.399967
 20
285.546337
 30
0.0
 10
245.938782
 20
285.546337
 30
0.0
 10
245.586007
 20
285.728240
 30
0.0
 10
245.341634
 20
286.092036
 30
0.0
  0
SPLINE
  5
2ec
100
AcDbEntity
  8
Calque_1
 62
7
100
AcDbSpline
 70
8
 71
3
 72
8
 73
4
 74
0
 40
0
 40
0
 40
0
 40
0
 40
1
 40
1
 40
1
 40
1
 10
245.341634
 20
286.092036
 30
0.0
 10
245.099101
 20
286.457680
 30
0.0
 10
244.977833
 20
286.986844
 30
0.0
 10
244.977833
 20
287.679536
 30
0.0
  0
SPLINE
  5
2ed
100
AcDbEntity
  8
Calque_1
 62
7
100
AcDbSpline
 70
8
 71
3
 72
8
 73
4
 74
0
 40
0
 40
0
 40
0
 40
0
 40
1
 40
1
 40
1
 40
1
 10
244.977833
 20
287.679536
 30
0.0
 10
244.977833
 20
288.374065
 30
0.0
 10
245.099101
 20
288.903237
 30
0.0
 10
245.341634
 20
289.267036
 30
0.0
  0
SPLINE
  5
2ee
100
AcDbEntity
  8
Calque_1
 62
7
100
AcDbSpline
 70
8
 71
3
 72
8
 73
4
 74
0
 40
0
 40
0
 40
0
 40
0
 40
1
 40
1
 40
1
 40
1
 10
245.341634
 20
289.267036
 30
0.0
 10
245.586007
 20
289.632677
 30
0.0
 10
245.938782
 20
289.815498
 30
0.0
 10
246.399967
 20
289.815498
 30
0.0
  0
LWPOLYLINE
  5
2ef
100
AcDbEntity
  8
Calque_1
 62
7
100
AcDbPolyline
 90
23
 70
0
 10
223.634517
 20
208.026267
 30
0.0
 10
223.634517
 20
202.026250
 30
0.0
 10
177.734519
 20
202.026250
 30
0.0
 10
177.734519
 20
232.026247
 30
0.0
 10
184.734516
 20
232.026247
 30
0.0
 10
184.734516
 20
223.026265
 30
0.0
 10
187.734516
 20
223.026265
 30
0.0
 10
187.734516
 20
227.026257
 30
0.0
 10
193.734518
 20
227.026257
 30
0.0
 10
193.734518
 20
223.026265
 30
0.0
 10
196.734515
 20
223.026265
 30
0.0
 10
196.734515
 20
232.026247
 30
0.0
 10
220.634515
 20
232.026247
 30
0.0
 10
220.634515
 20
222.026267
 30
0.0
 10
223.634517
 20
222.026267
 30
0.0
 10
223.634517
 20
232.026247
 30
0.0
 10
230.134527
 20
232.026247
 30
0.0
 10
230.134527
 20
234.025820
 30
0.0
 10
228.134517
 20
234.025820
 30
0.0
 10
228.134517
 20
237.025814
 30
0.0
 10
230.134527
 20
237.025814
 30
0.0
 10
230.134527
 20
246.026247
 30
0.0
 10
230.134499
 20
246.026247
 30
0.0
  0
SPLINE
  5
2f0
100
AcDbEntity
  8
Calque_1
 62
7
100
AcDbSpline
 70
8
 71
3
 72
8
 73
4
 74
0
 40
0
 40
0
 40
0
 40
0
 40
1
 40
1
 40
1
 40
1
 10
289.139940
 20
275.092385
 30
0.0
 10
286.996434
 20
280.300189
 30
0.0
 10
281.921627
 20
283.699282
 30
0.0
 10
276.289920
 20
283.699282
 30
0.0
  0
SPLINE
  5
2f1
100
AcDbEntity
  8
Calque_1
 62
7
100
AcDbSpline
 70
8
 71
3
 72
8
 73
4
 74
0
 40
0
 40
0
 40
0
 40
0
 40
1
 40
1
 40
1
 40
1
 10
276.289920
 20
283.699282
 30
0.0
 10
270.658243
 20
283.699282
 30
0.0
 10
265.583433
 20
280.300189
 30
0.0
 10
263.439924
 20
275.092385
 30
0.0
  0
LWPOLYLINE
  5
2f2
100
AcDbEntity
  8
Calque_1
 62
7
100
AcDbPolyline
 90
23
 70
0
 10
269.939920
 20
313.092388
 30
0.0
 10
282.639939
 20
313.092388
 30
0.0
 10
282.639939
 20
304.091438
 30
0.0
 10
284.639935
 20
304.091438
 30
0.0
 10
284.639935
 20
301.091436
 30
0.0
 10
282.639939
 20
301.091436
 30
0.0
 10
282.639939
 20
299.092385
 30
0.0
 10
289.139940
 20
299.092385
 30
0.0
 10
289.139940
 20
289.092388
 30
0.0
 10
292.139934
 20
289.092388
 30
0.0
 10
292.139934
 20
299.092385
 30
0.0
 10
316.039923
 20
299.092385
 30
0.0
 10
316.039923
 20
290.092381
 30
0.0
 10
319.039946
 20
290.092381
 30
0.0
 10
319.039946
 20
294.092384
 30
0.0
 10
325.039905
 20
294.092384
 30
0.0
 10
325.039905
 20
290.092381
 30
0.0
 10
328.039928
 20
290.092381
 30
0.0
 10
328.039928
 20
299.092385
 30
0.0
 10
335.039914
 20
299.092385
 30
0.0
 10
335.039914
 20
269.092383
 30
0.0
 10
289.139940
 20
269.092383
 30
0.0
 10
289.139940
 20
275.092385
 30
0.0
  0
LWPOLYLINE
  5
2f3
100
AcDbEntity
  8
Calque_1
 62
7
100
AcDbPolyline
 90
23
 70
0
 10
263.439924
 20
275.092385
 30
0.0
 10
263.439924
 20
269.092383
 30
0.0
 10
217.539926
 20
269.092383
 30
0.0
 10
217.539926
 20
299.092388
 30
0.0
 10
224.539923
 20
299.092388
 30
0.0
 10
224.539923
 20
290.092386
 30
0.0
 10
227.539923
 20
290.092386
 30
0.0
 10
227.539923
 20
294.092384
 30
0.0
 10
233.539925
 20
294.092384
 30
0.0
 10
233.539925
 20
290.092386
 30
0.0
 10
236.539921
 20
290.092386
 30
0.0
 10
236.539921
 20
299.092388
 30
0.0
 10
260.439922
 20
299.092388
 30
0.0
 10
260.439922
 20
289.092388
 30
0.0
 10
263.439924
 20
289.092388
 30
0.0
 10
263.439924
 20
299.092388
 30
0.0
 10
269.939922
 20
299.092388
 30
0.0
 10
269.939922
 20
301.091949
 30
0.0
 10
267.939924
 20
301.091949
 30
0.0
 10
267.939924
 20
304.091949
 30
0.0
 10
269.939922
 20
304.091949
 30
0.0
 10
269.939922
 20
313.092385
 30
0.0
 10
269.939920
 20
313.092388
 30
0.0
  0
ENDSEC
  0
SECTION
  2
OBJECTS
  0
DICTIONARY
  5
C
330
0
100
AcDbDictionary
  3
ACAD_GROUP
350
D
  3
ACAD_MLINESTYLE
350
17
  0
DICTIONARY
  5
D
330
C
100
AcDbDictionary
  0
DICTIONARY
  5
1A
330
C
100
AcDbDictionary
  0
DICTIONARY
  5
17
330
C
100
AcDbDictionary
  3
STANDARD
350
18
  0
DICTIONARY
  5
19
330
C
100
AcDbDictionary
  0
ENDSEC
  0
EOF
