  0
SECTION
  2
HEADER
  9
$ACADVER
  1
AC1004
  9
$INSBASE
 10
0.0
 20
0.0
  9
$EXTMIN
 10
-3.2515
 20
-7.5015
  9
$EXTMAX
 10
3.2515
 20
7.5015
  9
$LIMMIN
 10
0.0
 20
0.0
  9
$LIMMAX
 10
12.0
 20
9.0
  9
$ORTHOMODE
 70
     0
  9
$REGENMODE
 70
     1
  9
$FILLMODE
 70
     1
  9
$QTEXTMODE
 70
     0
  9
$DRAGMODE
 70
     2
  9
$LTSCALE
 40
1.0
  9
$OSMODE
 70
    37
  9
$ATTMODE
 70
     1
  9
$TEXTSIZE
 40
0.2
  9
$TRACEWID
 40
0.05
  9
$TEXTSTYLE
  7
STANDARD
  9
$CLAYER
  8
0
  9
$CELTYPE
  6
BYLAYER
  9
$CECOLOR
 62
   256
  9
$DIMSCALE
 40
1.0
  9
$DIMASZ
 40
0.18
  9
$DIMEXO
 40
0.0625
  9
$DIMDLI
 40
0.38
  9
$DIMRND
 40
0.0
  9
$DIMDLE
 40
0.0
  9
$DIMEXE
 40
0.18
  9
$DIMTP
 40
0.0
  9
$DIMTM
 40
0.0
  9
$DIMTXT
 40
0.18
  9
$DIMCEN
 40
0.09
  9
$DIMTSZ
 40
0.0
  9
$DIMTOL
 70
     0
  9
$DIMLIM
 70
     0
  9
$DIMTIH
 70
     1
  9
$DIMTOH
 70
     1
  9
$DIMSE1
 70
     0
  9
$DIMSE2
 70
     0
  9
$DIMTAD
 70
     0
  9
$DIMZIN
 70
     0
  9
$DIMBLK
  1

  9
$DIMASO
 70
     1
  9
$DIMSHO
 70
     1
  9
$DIMPOST
  1

  9
$DIMAPOST
  1

  9
$DIMALT
 70
     0
  9
$DIMALTD
 70
     2
  9
$DIMALTF
 40
25.4
  9
$DIMLFAC
 40
1.0
  9
$DIMTOFL
 70
     0
  9
$DIMTVP
 40
0.0
  9
$DIMTIX
 70
     0
  9
$DIMSOXD
 70
     0
  9
$DIMSAH
 70
     0
  9
$DIMBLK1
  1

  9
$DIMBLK2
  1

  9
$LUNITS
 70
     2
  9
$LUPREC
 70
     4
  9
$SKETCHINC
 40
0.1
  9
$FILLETRAD
 40
0.5
  9
$AUNITS
 70
     0
  9
$AUPREC
 70
     0
  9
$MENU
  1
.
  9
$ELEVATION
 40
0.0
  9
$THICKNESS
 40
0.0
  9
$LIMCHECK
 70
     0
  9
$CHAMFERA
 40
0.5
  9
$CHAMFERB
 40
0.5
  9
$SKPOLY
 70
     0
  9
$TDCREATE
 40
2456131.513233901
  9
$TDUPDATE
 40
2456131.513233912
  9
$TDINDWG
 40
0.0000000116
  9
$TDUSRTIMER
 40
0.0000000116
  9
$USRTIMER
 70
     1
  9
$ANGBASE
 50
0.0
  9
$ANGDIR
 70
     0
  9
$PDMODE
 70
     0
  9
$PDSIZE
 40
0.0
  9
$PLINEWID
 40
0.0
  9
$COORDS
 70
     1
  9
$SPLFRAME
 70
     0
  9
$SPLINETYPE
 70
     6
  9
$SPLINESEGS
 70
     8
  9
$ATTDIA
 70
     0
  9
$ATTREQ
 70
     1
  9
$SURFTAB1
 70
     6
  9
$SURFTAB2
 70
     6
  9
$SURFTYPE
 70
     6
  9
$SURFU
 70
     6
  9
$SURFV
 70
     6
  9
$UCSNAME
  2

  9
$UCSORG
 10
0.0
 20
0.0
 30
0.0
  9
$UCSXDIR
 10
1.0
 20
0.0
 30
0.0
  9
$UCSYDIR
 10
0.0
 20
1.0
 30
0.0
  9
$USERI1
 70
     0
  9
$USERI2
 70
     0
  9
$USERI3
 70
     0
  9
$USERI4
 70
     0
  9
$USERI5
 70
     0
  9
$USERR1
 40
0.0
  9
$USERR2
 40
0.0
  9
$USERR3
 40
0.0
  9
$USERR4
 40
0.0
  9
$USERR5
 40
0.0
  9
$WORLDVIEW
 70
     1
  0
ENDSEC
  0
SECTION
  2
TABLES
  0
TABLE
  2
LTYPE
 70
     1
  0
LTYPE
  2
CONTINUOUS
 70
     0
  3
Solid line
 72
    65
 73
     0
 40
0.0
  0
ENDTAB
  0
TABLE
  2
LAYER
 70
     1
  0
LAYER
  2
0
 70
     0
 62
     7
  6
CONTINUOUS
  0
ENDTAB
  0
TABLE
  2
STYLE
 70
     1
  0
STYLE
  2
STANDARD
 70
     0
 40
0.0
 41
1.0
 50
0.0
 71
     0
 42
0.2
  3
txt
  4

  0
ENDTAB
  0
TABLE
  2
VIEW
 70
     0
  0
ENDTAB
  0
ENDSEC
  0
SECTION
  2
BLOCKS
  0
ENDSEC
  0
SECTION
  2
ENTITIES
  0
POLYLINE
  8
0
 66
     1
  0
VERTEX
  8
0
 10
-3.25
 20
4.25
  0
VERTEX
  8
0
 10
-3.25
 20
6.75
  0
SEQEND
  8
0
  0
POLYLINE
  8
0
 66
     1
  0
VERTEX
  8
0
 10
-2.5
 20
7.5
  0
VERTEX
  8
0
 10
-1.75
 20
7.5
  0
SEQEND
  8
0
  0
POLYLINE
  8
0
 66
     1
  0
VERTEX
  8
0
 10
-1.75
 20
3.5
  0
VERTEX
  8
0
 10
-2.5
 20
3.5
  0
SEQEND
  8
0
  0
POLYLINE
  8
0
 66
     1
  0
VERTEX
  8
0
 10
-3.25
 20
4.25
  0
VERTEX
  8
0
 10
-3.246330708661417
 20
4.175870078740157
  0
VERTEX
  8
0
 10
-3.235456692913386
 20
4.103
  0
VERTEX
  8
0
 10
-3.217582677165354
 20
4.031874015748032
  0
VERTEX
  8
0
 10
-3.192909448818898
 20
3.962988188976378
  0
VERTEX
  8
0
 10
-3.161645669291338
 20
3.896830708661417
  0
VERTEX
  8
0
 10
-3.123992125984252
 20
3.833897637795276
  0
VERTEX
  8
0
 10
-3.080153543307087
 20
3.774681102362205
  0
VERTEX
  8
0
 10
-3.030330708661417
 20
3.719669291338583
  0
VERTEX
  8
0
 10
-2.975318897637795
 20
3.669846456692913
  0
VERTEX
  8
0
 10
-2.916102362204724
 20
3.626007874015748
  0
VERTEX
  8
0
 10
-2.853169291338583
 20
3.588354330708662
  0
VERTEX
  8
0
 10
-2.787011811023622
 20
3.557090551181102
  0
VERTEX
  8
0
 10
-2.718125984251968
 20
3.532417322834646
  0
VERTEX
  8
0
 10
-2.647
 20
3.514543307086614
  0
VERTEX
  8
0
 10
-2.574129921259842
 20
3.503669291338583
  0
VERTEX
  8
0
 10
-2.5
 20
3.5
  0
SEQEND
  8
0
  0
POLYLINE
  8
0
 66
     1
  0
VERTEX
  8
0
 10
-2.5
 20
7.5
  0
VERTEX
  8
0
 10
-2.574129921259842
 20
7.496330708661417
  0
VERTEX
  8
0
 10
-2.647
 20
7.485456692913385
  0
VERTEX
  8
0
 10
-2.718125984251968
 20
7.467582677165354
  0
VERTEX
  8
0
 10
-2.787011811023622
 20
7.442909448818898
  0
VERTEX
  8
0
 10
-2.853169291338583
 20
7.411645669291339
  0
VERTEX
  8
0
 10
-2.916102362204724
 20
7.373992125984252
  0
VERTEX
  8
0
 10
-2.975318897637795
 20
7.330153543307087
  0
VERTEX
  8
0
 10
-3.030330708661417
 20
7.280330708661418
  0
VERTEX
  8
0
 10
-3.080153543307087
 20
7.225318897637795
  0
VERTEX
  8
0
 10
-3.123992125984252
 20
7.166102362204724
  0
VERTEX
  8
0
 10
-3.161645669291338
 20
7.103169291338583
  0
VERTEX
  8
0
 10
-3.192909448818898
 20
7.037011811023622
  0
VERTEX
  8
0
 10
-3.217582677165354
 20
6.968125984251968
  0
VERTEX
  8
0
 10
-3.235456692913386
 20
6.897
  0
VERTEX
  8
0
 10
-3.246330708661417
 20
6.824129921259843
  0
VERTEX
  8
0
 10
-3.25
 20
6.75
  0
SEQEND
  8
0
  0
POLYLINE
  8
0
 66
     1
 70
     1
  0
VERTEX
  8
0
 10
-2.425
 20
6.75
  0
VERTEX
  8
0
 10
-2.426523622047244
 20
6.765114173228347
  0
VERTEX
  8
0
 10
-2.430893700787402
 20
6.779192913385827
  0
VERTEX
  8
0
 10
-2.437807086614173
 20
6.791933070866142
  0
VERTEX
  8
0
 10
-2.446968503937008
 20
6.803031496062992
  0
VERTEX
  8
0
 10
-2.458066929133858
 20
6.812192913385827
  0
VERTEX
  8
0
 10
-2.470807086614173
 20
6.819106299212598
  0
VERTEX
  8
0
 10
-2.484885826771654
 20
6.823476377952756
  0
VERTEX
  8
0
 10
-2.5
 20
6.825
  0
VERTEX
  8
0
 10
-2.515114173228346
 20
6.823476377952756
  0
VERTEX
  8
0
 10
-2.529192913385827
 20
6.819106299212598
  0
VERTEX
  8
0
 10
-2.541933070866142
 20
6.812192913385827
  0
VERTEX
  8
0
 10
-2.553031496062992
 20
6.803031496062992
  0
VERTEX
  8
0
 10
-2.562192913385827
 20
6.791933070866142
  0
VERTEX
  8
0
 10
-2.569106299212598
 20
6.779192913385827
  0
VERTEX
  8
0
 10
-2.573476377952756
 20
6.765114173228347
  0
VERTEX
  8
0
 10
-2.575
 20
6.75
  0
VERTEX
  8
0
 10
-2.573476377952756
 20
6.734885826771653
  0
VERTEX
  8
0
 10
-2.569106299212598
 20
6.720807086614173
  0
VERTEX
  8
0
 10
-2.562192913385827
 20
6.708066929133858
  0
VERTEX
  8
0
 10
-2.553031496062992
 20
6.696968503937008
  0
VERTEX
  8
0
 10
-2.541933070866142
 20
6.687807086614173
  0
VERTEX
  8
0
 10
-2.529192913385827
 20
6.680893700787402
  0
VERTEX
  8
0
 10
-2.515114173228346
 20
6.676523622047244
  0
VERTEX
  8
0
 10
-2.5
 20
6.675
  0
VERTEX
  8
0
 10
-2.484885826771654
 20
6.676523622047244
  0
VERTEX
  8
0
 10
-2.470807086614173
 20
6.680893700787402
  0
VERTEX
  8
0
 10
-2.458066929133858
 20
6.687807086614173
  0
VERTEX
  8
0
 10
-2.446968503937008
 20
6.696968503937008
  0
VERTEX
  8
0
 10
-2.437807086614173
 20
6.708066929133858
  0
VERTEX
  8
0
 10
-2.430893700787402
 20
6.720807086614173
  0
VERTEX
  8
0
 10
-2.426523622047244
 20
6.734885826771653
  0
VERTEX
  8
0
 10
-2.425
 20
6.75
  0
SEQEND
  8
0
  0
POLYLINE
  8
0
 66
     1
 70
     1
  0
VERTEX
  8
0
 10
-2.425
 20
4.25
  0
VERTEX
  8
0
 10
-2.426523622047244
 20
4.265114173228347
  0
VERTEX
  8
0
 10
-2.430893700787402
 20
4.279192913385827
  0
VERTEX
  8
0
 10
-2.437807086614173
 20
4.291933070866142
  0
VERTEX
  8
0
 10
-2.446968503937008
 20
4.303031496062992
  0
VERTEX
  8
0
 10
-2.458066929133858
 20
4.312192913385827
  0
VERTEX
  8
0
 10
-2.470807086614173
 20
4.319106299212598
  0
VERTEX
  8
0
 10
-2.484885826771654
 20
4.323476377952756
  0
VERTEX
  8
0
 10
-2.5
 20
4.325
  0
VERTEX
  8
0
 10
-2.515114173228346
 20
4.323476377952756
  0
VERTEX
  8
0
 10
-2.529192913385827
 20
4.319106299212598
  0
VERTEX
  8
0
 10
-2.541933070866142
 20
4.312192913385827
  0
VERTEX
  8
0
 10
-2.553031496062992
 20
4.303031496062992
  0
VERTEX
  8
0
 10
-2.562192913385827
 20
4.291933070866142
  0
VERTEX
  8
0
 10
-2.569106299212598
 20
4.279192913385827
  0
VERTEX
  8
0
 10
-2.573476377952756
 20
4.265114173228347
  0
VERTEX
  8
0
 10
-2.575
 20
4.25
  0
VERTEX
  8
0
 10
-2.573476377952756
 20
4.234885826771653
  0
VERTEX
  8
0
 10
-2.569106299212598
 20
4.220807086614173
  0
VERTEX
  8
0
 10
-2.562192913385827
 20
4.208066929133858
  0
VERTEX
  8
0
 10
-2.553031496062992
 20
4.196968503937008
  0
VERTEX
  8
0
 10
-2.541933070866142
 20
4.187807086614173
  0
VERTEX
  8
0
 10
-2.529192913385827
 20
4.180893700787402
  0
VERTEX
  8
0
 10
-2.515114173228346
 20
4.176523622047244
  0
VERTEX
  8
0
 10
-2.5
 20
4.175
  0
VERTEX
  8
0
 10
-2.484885826771654
 20
4.176523622047244
  0
VERTEX
  8
0
 10
-2.470807086614173
 20
4.180893700787402
  0
VERTEX
  8
0
 10
-2.458066929133858
 20
4.187807086614173
  0
VERTEX
  8
0
 10
-2.446968503937008
 20
4.196968503937008
  0
VERTEX
  8
0
 10
-2.437807086614173
 20
4.208066929133858
  0
VERTEX
  8
0
 10
-2.430893700787402
 20
4.220807086614173
  0
VERTEX
  8
0
 10
-2.426523622047244
 20
4.234885826771653
  0
VERTEX
  8
0
 10
-2.425
 20
4.25
  0
SEQEND
  8
0
  0
POLYLINE
  8
0
 66
     1
  0
VERTEX
  8
0
 10
0.5025118110236221
 20
-0.2474881889763779
  0
VERTEX
  8
0
 10
0.5574173228346456
 20
-0.2923385826771653
  0
VERTEX
  8
0
 10
0.6182952755905512
 20
-0.3243700787401575
  0
VERTEX
  8
0
 10
0.6831535433070867
 20
-0.3435905511811024
  0
VERTEX
  8
0
 10
0.75
 20
-0.35
  0
VERTEX
  8
0
 10
0.8168464566929133
 20
-0.3435905511811024
  0
VERTEX
  8
0
 10
0.8817047244094488
 20
-0.3243700787401575
  0
VERTEX
  8
0
 10
0.9425826771653544
 20
-0.2923385826771653
  0
VERTEX
  8
0
 10
0.9974881889763779
 20
-0.2474881889763779
  0
VERTEX
  8
0
 10
1.042338582677165
 20
-0.1925826771653543
  0
VERTEX
  8
0
 10
1.074370078740158
 20
-0.1317086614173228
  0
VERTEX
  8
0
 10
1.093590551181102
 20
-0.0668503937007874
  0
VERTEX
  8
0
 10
1.1
 20
-0.000003937007874
  0
VERTEX
  8
0
 10
1.093590551181102
 20
0.0668464566929134
  0
VERTEX
  8
0
 10
1.074370078740158
 20
0.1317047244094488
  0
VERTEX
  8
0
 10
1.042338582677165
 20
0.1925787401574803
  0
VERTEX
  8
0
 10
0.9974881889763779
 20
0.2474842519685039
  0
SEQEND
  8
0
  0
POLYLINE
  8
0
 66
     1
  0
VERTEX
  8
0
 10
0.5025118110236221
 20
-5.247488188976378
  0
VERTEX
  8
0
 10
0.5574173228346456
 20
-5.292338582677165
  0
VERTEX
  8
0
 10
0.6182952755905512
 20
-5.324370078740158
  0
VERTEX
  8
0
 10
0.6831535433070867
 20
-5.343590551181102
  0
VERTEX
  8
0
 10
0.75
 20
-5.35
  0
VERTEX
  8
0
 10
0.8168464566929133
 20
-5.343590551181102
  0
VERTEX
  8
0
 10
0.8817047244094488
 20
-5.324370078740158
  0
VERTEX
  8
0
 10
0.9425826771653544
 20
-5.292338582677165
  0
VERTEX
  8
0
 10
0.9974881889763779
 20
-5.247488188976378
  0
VERTEX
  8
0
 10
1.042338582677165
 20
-5.192582677165355
  0
VERTEX
  8
0
 10
1.074370078740158
 20
-5.131708661417322
  0
VERTEX
  8
0
 10
1.093590551181102
 20
-5.066850393700787
  0
VERTEX
  8
0
 10
1.1
 20
-5.000003937007874
  0
VERTEX
  8
0
 10
1.093590551181102
 20
-4.933153543307086
  0
VERTEX
  8
0
 10
1.074370078740158
 20
-4.868295275590551
  0
VERTEX
  8
0
 10
1.042338582677165
 20
-4.80742125984252
  0
VERTEX
  8
0
 10
0.9974881889763779
 20
-4.752515748031496
  0
SEQEND
  8
0
  0
POLYLINE
  8
0
 66
     1
  0
VERTEX
  8
0
 10
-1.75
 20
7.5
  0
VERTEX
  8
0
 10
0.6286811023622048
 20
7.5
  0
SEQEND
  8
0
  0
POLYLINE
  8
0
 66
     1
  0
VERTEX
  8
0
 10
3.25
 20
5.0
  0
VERTEX
  8
0
 10
3.25
 20
4.121318897637796
  0
SEQEND
  8
0
  0
POLYLINE
  8
0
 66
     1
  0
VERTEX
  8
0
 10
0.75
 20
-7.5
  0
VERTEX
  8
0
 10
0.75
 20
-7.5
  0
SEQEND
  8
0
  0
POLYLINE
  8
0
 66
     1
  0
VERTEX
  8
0
 10
-1.75
 20
-5.0
  0
VERTEX
  8
0
 10
-1.75
 20
3.5
  0
SEQEND
  8
0
  0
POLYLINE
  8
0
 66
     1
  0
VERTEX
  8
0
 10
3.25
 20
5.0
  0
VERTEX
  8
0
 10
3.240720472440945
 20
5.215236220472441
  0
VERTEX
  8
0
 10
3.213145669291339
 20
5.427704724409449
  0
VERTEX
  8
0
 10
3.167673228346457
 20
5.636287401574803
  0
VERTEX
  8
0
 10
3.104696850393701
 20
5.839877952755906
  0
VERTEX
  8
0
 10
3.024614173228346
 20
6.037370078740158
  0
VERTEX
  8
0
 10
2.927818897637795
 20
6.227645669291339
  0
VERTEX
  8
0
 10
2.814708661417323
 20
6.409602362204724
  0
VERTEX
  8
0
 10
2.685681102362205
 20
6.582129921259843
  0
SEQEND
  8
0
  0
POLYLINE
  8
0
 66
     1
  0
VERTEX
  8
0
 10
0.75
 20
-7.5
  0
VERTEX
  8
0
 10
1.253834645669291
 20
-7.449208661417323
  0
VERTEX
  8
0
 10
1.723110236220472
 20
-7.30353937007874
  0
VERTEX
  8
0
 10
2.147771653543307
 20
-7.073043307086614
  0
VERTEX
  8
0
 10
2.517763779527559
 20
-6.767771653543307
  0
VERTEX
  8
0
 10
2.823035433070866
 20
-6.397779527559055
  0
VERTEX
  8
0
 10
3.053535433070866
 20
-5.973122047244095
  0
VERTEX
  8
0
 10
3.199204724409449
 20
-5.503846456692913
  0
VERTEX
  8
0
 10
3.25
 20
-5.000011811023622
  0
SEQEND
  8
0
  0
POLYLINE
  8
0
 66
     1
  0
VERTEX
  8
0
 10
-1.75
 20
-5.0
  0
VERTEX
  8
0
 10
-1.737767716535433
 20
-5.247094488188976
  0
VERTEX
  8
0
 10
-1.70151968503937
 20
-5.490003937007874
  0
VERTEX
  8
0
 10
-1.641937007874016
 20
-5.727086614173229
  0
VERTEX
  8
0
 10
-1.559696850393701
 20
-5.956708661417323
  0
VERTEX
  8
0
 10
-1.455484251968504
 20
-6.177224409448819
  0
VERTEX
  8
0
 10
-1.329968503937008
 20
-6.387
  0
VERTEX
  8
0
 10
-1.183838582677165
 20
-6.584393700787402
  0
VERTEX
  8
0
 10
-1.017767716535433
 20
-6.767767716535433
  0
VERTEX
  8
0
 10
-0.8343937007874016
 20
-6.933838582677166
  0
VERTEX
  8
0
 10
-0.637
 20
-7.079968503937008
  0
VERTEX
  8
0
 10
-0.4272244094488189
 20
-7.205484251968504
  0
VERTEX
  8
0
 10
-0.2067086614173228
 20
-7.309696850393701
  0
VERTEX
  8
0
 10
0.0229133858267717
 20
-7.391937007874016
  0
VERTEX
  8
0
 10
0.259996062992126
 20
-7.45151968503937
  0
VERTEX
  8
0
 10
0.5029055118110236
 20
-7.487767716535433
  0
VERTEX
  8
0
 10
0.75
 20
-7.5
  0
SEQEND
  8
0
  0
POLYLINE
  8
0
 66
     1
  0
VERTEX
  8
0
 10
0.5025118110236221
 20
4.752511811023622
  0
VERTEX
  8
0
 10
0.5574173228346456
 20
4.707661417322835
  0
VERTEX
  8
0
 10
0.6182952755905512
 20
4.675629921259842
  0
VERTEX
  8
0
 10
0.6831535433070867
 20
4.656409448818898
  0
VERTEX
  8
0
 10
0.75
 20
4.65
  0
VERTEX
  8
0
 10
0.8168464566929133
 20
4.656409448818898
  0
VERTEX
  8
0
 10
0.8817047244094488
 20
4.675629921259842
  0
VERTEX
  8
0
 10
0.9425826771653544
 20
4.707661417322835
  0
VERTEX
  8
0
 10
0.9974881889763779
 20
4.752511811023622
  0
VERTEX
  8
0
 10
1.042338582677165
 20
4.807417322834645
  0
VERTEX
  8
0
 10
1.074370078740158
 20
4.868291338582678
  0
VERTEX
  8
0
 10
1.093590551181102
 20
4.933149606299213
  0
VERTEX
  8
0
 10
1.1
 20
5.0
  0
VERTEX
  8
0
 10
1.093590551181102
 20
5.066846456692914
  0
VERTEX
  8
0
 10
1.074370078740158
 20
5.131704724409449
  0
VERTEX
  8
0
 10
1.042338582677165
 20
5.19257874015748
  0
VERTEX
  8
0
 10
0.9974881889763779
 20
5.247484251968504
  0
SEQEND
  8
0
  0
POLYLINE
  8
0
 66
     1
  0
VERTEX
  8
0
 10
0.5025118110236221
 20
4.752511811023622
  0
VERTEX
  8
0
 10
0.4671574803149606
 20
4.787866141732284
  0
SEQEND
  8
0
  0
POLYLINE
  8
0
 66
     1
  0
VERTEX
  8
0
 10
0.9974881889763779
 20
5.247488188976378
  0
VERTEX
  8
0
 10
0.9621338582677166
 20
5.282842519685039
  0
SEQEND
  8
0
  0
POLYLINE
  8
0
 66
     1
  0
VERTEX
  8
0
 10
0.4671574803149606
 20
6.131370078740157
  0
VERTEX
  8
0
 10
0.9822322834645669
 20
6.646444881889764
  0
SEQEND
  8
0
  0
POLYLINE
  8
0
 66
     1
  0
VERTEX
  8
0
 10
0.9621338582677166
 20
5.636397637795276
  0
VERTEX
  8
0
 10
1.944992125984252
 20
6.619255905511811
  0
SEQEND
  8
0
  0
POLYLINE
  8
0
 66
     1
  0
VERTEX
  8
0
 10
0.9621338582677166
 20
5.636397637795276
  0
VERTEX
  8
0
 10
0.9455275590551181
 20
5.618059055118111
  0
VERTEX
  8
0
 10
0.9309133858267716
 20
5.598318897637795
  0
VERTEX
  8
0
 10
0.9183622047244094
 20
5.57734251968504
  0
VERTEX
  8
0
 10
0.9079409448818898
 20
5.555291338582677
  0
VERTEX
  8
0
 10
0.8997165354330708
 20
5.532326771653543
  0
VERTEX
  8
0
 10
0.893755905511811
 20
5.50861811023622
  0
VERTEX
  8
0
 10
0.8901338582677165
 20
5.484326771653543
  0
VERTEX
  8
0
 10
0.8889094488188977
 20
5.459618110236221
  0
VERTEX
  8
0
 10
0.8901338582677165
 20
5.434909448818898
  0
VERTEX
  8
0
 10
0.893755905511811
 20
5.410618110236221
  0
VERTEX
  8
0
 10
0.8997165354330708
 20
5.386909448818898
  0
VERTEX
  8
0
 10
0.9079409448818898
 20
5.363948818897637
  0
VERTEX
  8
0
 10
0.9183622047244094
 20
5.341897637795276
  0
VERTEX
  8
0
 10
0.9309133858267716
 20
5.320921259842519
  0
VERTEX
  8
0
 10
0.9455275590551181
 20
5.301181102362205
  0
VERTEX
  8
0
 10
0.9621338582677166
 20
5.282842519685039
  0
SEQEND
  8
0
  0
POLYLINE
  8
0
 66
     1
  0
VERTEX
  8
0
 10
0.4671574803149606
 20
6.131370078740157
  0
VERTEX
  8
0
 10
0.4040511811023622
 20
6.061688976377953
  0
VERTEX
  8
0
 10
0.3485196850393701
 20
5.986681102362205
  0
VERTEX
  8
0
 10
0.3008228346456693
 20
5.906964566929134
  0
VERTEX
  8
0
 10
0.2612244094488189
 20
5.823169291338583
  0
VERTEX
  8
0
 10
0.2299724409448819
 20
5.735913385826771
  0
VERTEX
  8
0
 10
0.2073307086614173
 20
5.645818897637795
  0
VERTEX
  8
0
 10
0.1935590551181102
 20
5.553515748031496
  0
VERTEX
  8
0
 10
0.1889094488188976
 20
5.459618110236221
  0
VERTEX
  8
0
 10
0.1935590551181102
 20
5.365724409448819
  0
VERTEX
  8
0
 10
0.2073307086614173
 20
5.273417322834645
  0
VERTEX
  8
0
 10
0.2299724409448819
 20
5.183326771653543
  0
VERTEX
  8
0
 10
0.2612244094488189
 20
5.096070866141733
  0
VERTEX
  8
0
 10
0.3008228346456693
 20
5.012271653543307
  0
VERTEX
  8
0
 10
0.3485196850393701
 20
4.93255905511811
  0
VERTEX
  8
0
 10
0.4040511811023622
 20
4.857547244094488
  0
VERTEX
  8
0
 10
0.4671574803149606
 20
4.787866141732284
  0
SEQEND
  8
0
  0
POLYLINE
  8
0
 66
     1
  0
VERTEX
  8
0
 10
0.5025118110236221
 20
-0.2474881889763779
  0
VERTEX
  8
0
 10
0.4671574803149606
 20
-0.2121338582677165
  0
SEQEND
  8
0
  0
POLYLINE
  8
0
 66
     1
  0
VERTEX
  8
0
 10
0.9974881889763779
 20
0.2474881889763779
  0
VERTEX
  8
0
 10
0.9621338582677166
 20
0.2828425196850394
  0
SEQEND
  8
0
  0
POLYLINE
  8
0
 66
     1
  0
VERTEX
  8
0
 10
0.4671574803149606
 20
1.131370078740157
  0
VERTEX
  8
0
 10
3.103555118110236
 20
3.767767716535433
  0
SEQEND
  8
0
  0
POLYLINE
  8
0
 66
     1
  0
VERTEX
  8
0
 10
0.4671574803149606
 20
1.131370078740157
  0
VERTEX
  8
0
 10
0.4040511811023622
 20
1.061688976377953
  0
VERTEX
  8
0
 10
0.3485196850393701
 20
0.9866811023622047
  0
VERTEX
  8
0
 10
0.3008228346456693
 20
0.9069645669291339
  0
VERTEX
  8
0
 10
0.2612244094488189
 20
0.8231692913385826
  0
VERTEX
  8
0
 10
0.2299724409448819
 20
0.7359133858267717
  0
VERTEX
  8
0
 10
0.2073307086614173
 20
0.6458188976377953
  0
VERTEX
  8
0
 10
0.1935590551181102
 20
0.5535157480314961
  0
VERTEX
  8
0
 10
0.1889094488188976
 20
0.4596181102362205
  0
VERTEX
  8
0
 10
0.1935590551181102
 20
0.3657244094488189
  0
VERTEX
  8
0
 10
0.2073307086614173
 20
0.2734173228346456
  0
VERTEX
  8
0
 10
0.2299724409448819
 20
0.1833267716535433
  0
VERTEX
  8
0
 10
0.2612244094488189
 20
0.0960708661417323
  0
VERTEX
  8
0
 10
0.3008228346456693
 20
0.0122716535433071
  0
VERTEX
  8
0
 10
0.3485196850393701
 20
-0.0674409448818898
  0
VERTEX
  8
0
 10
0.4040511811023622
 20
-0.1424527559055118
  0
VERTEX
  8
0
 10
0.4671574803149606
 20
-0.2121338582677165
  0
SEQEND
  8
0
  0
POLYLINE
  8
0
 66
     1
  0
VERTEX
  8
0
 10
0.9621338582677166
 20
0.6363976377952756
  0
VERTEX
  8
0
 10
2.396444881889764
 20
2.070712598425197
  0
SEQEND
  8
0
  0
POLYLINE
  8
0
 66
     1
  0
VERTEX
  8
0
 10
0.9621338582677166
 20
0.6363976377952756
  0
VERTEX
  8
0
 10
0.9455275590551181
 20
0.6180590551181102
  0
VERTEX
  8
0
 10
0.9309133858267716
 20
0.5983188976377952
  0
VERTEX
  8
0
 10
0.9183622047244094
 20
0.5773425196850394
  0
VERTEX
  8
0
 10
0.9079409448818898
 20
0.5552913385826772
  0
VERTEX
  8
0
 10
0.8997165354330708
 20
0.5323267716535434
  0
VERTEX
  8
0
 10
0.893755905511811
 20
0.5086181102362205
  0
VERTEX
  8
0
 10
0.8901338582677165
 20
0.4843267716535433
  0
VERTEX
  8
0
 10
0.8889094488188977
 20
0.4596181102362205
  0
VERTEX
  8
0
 10
0.8901338582677165
 20
0.4349094488188976
  0
VERTEX
  8
0
 10
0.893755905511811
 20
0.4106181102362205
  0
VERTEX
  8
0
 10
0.8997165354330708
 20
0.3869094488188977
  0
VERTEX
  8
0
 10
0.9079409448818898
 20
0.3639488188976378
  0
VERTEX
  8
0
 10
0.9183622047244094
 20
0.3418976377952756
  0
VERTEX
  8
0
 10
0.9309133858267716
 20
0.3209212598425197
  0
VERTEX
  8
0
 10
0.9455275590551181
 20
0.3011811023622047
  0
VERTEX
  8
0
 10
0.9621338582677166
 20
0.2828425196850394
  0
SEQEND
  8
0
  0
POLYLINE
  8
0
 66
     1
  0
VERTEX
  8
0
 10
0.5025118110236221
 20
-5.247488188976378
  0
VERTEX
  8
0
 10
0.4671574803149606
 20
-5.212133858267716
  0
SEQEND
  8
0
  0
POLYLINE
  8
0
 66
     1
  0
VERTEX
  8
0
 10
0.9974881889763779
 20
-4.752511811023622
  0
VERTEX
  8
0
 10
0.9621338582677166
 20
-4.717157480314961
  0
SEQEND
  8
0
  0
POLYLINE
  8
0
 66
     1
  0
VERTEX
  8
0
 10
0.4671574803149606
 20
-3.868629921259843
  0
VERTEX
  8
0
 10
3.103555118110236
 20
-1.232232283464567
  0
SEQEND
  8
0
  0
POLYLINE
  8
0
 66
     1
  0
VERTEX
  8
0
 10
0.4671574803149606
 20
-3.868629921259843
  0
VERTEX
  8
0
 10
0.4040511811023622
 20
-3.938311023622047
  0
VERTEX
  8
0
 10
0.3485196850393701
 20
-4.013318897637795
  0
VERTEX
  8
0
 10
0.3008228346456693
 20
-4.093035433070866
  0
VERTEX
  8
0
 10
0.2612244094488189
 20
-4.176830708661417
  0
VERTEX
  8
0
 10
0.2299724409448819
 20
-4.264086614173229
  0
VERTEX
  8
0
 10
0.2073307086614173
 20
-4.354181102362205
  0
VERTEX
  8
0
 10
0.1935590551181102
 20
-4.446484251968504
  0
VERTEX
  8
0
 10
0.1889094488188976
 20
-4.540381889763779
  0
VERTEX
  8
0
 10
0.1935590551181102
 20
-4.634275590551181
  0
VERTEX
  8
0
 10
0.2073307086614173
 20
-4.726582677165355
  0
VERTEX
  8
0
 10
0.2299724409448819
 20
-4.816673228346457
  0
VERTEX
  8
0
 10
0.2612244094488189
 20
-4.903929133858267
  0
VERTEX
  8
0
 10
0.3008228346456693
 20
-4.987728346456693
  0
VERTEX
  8
0
 10
0.3485196850393701
 20
-5.06744094488189
  0
VERTEX
  8
0
 10
0.4040511811023622
 20
-5.142452755905512
  0
VERTEX
  8
0
 10
0.4671574803149606
 20
-5.212133858267716
  0
SEQEND
  8
0
  0
POLYLINE
  8
0
 66
     1
  0
VERTEX
  8
0
 10
0.9621338582677166
 20
-4.363602362204724
  0
VERTEX
  8
0
 10
2.396444881889764
 20
-2.929287401574803
  0
SEQEND
  8
0
  0
POLYLINE
  8
0
 66
     1
  0
VERTEX
  8
0
 10
0.9621338582677166
 20
-4.363602362204724
  0
VERTEX
  8
0
 10
0.9455275590551181
 20
-4.381940944881889
  0
VERTEX
  8
0
 10
0.9309133858267716
 20
-4.401681102362205
  0
VERTEX
  8
0
 10
0.9183622047244094
 20
-4.42265748031496
  0
VERTEX
  8
0
 10
0.9079409448818898
 20
-4.444708661417323
  0
VERTEX
  8
0
 10
0.8997165354330708
 20
-4.467673228346457
  0
VERTEX
  8
0
 10
0.893755905511811
 20
-4.49138188976378
  0
VERTEX
  8
0
 10
0.8901338582677165
 20
-4.515673228346457
  0
VERTEX
  8
0
 10
0.8889094488188977
 20
-4.540381889763779
  0
VERTEX
  8
0
 10
0.8901338582677165
 20
-4.565090551181102
  0
VERTEX
  8
0
 10
0.893755905511811
 20
-4.589381889763779
  0
VERTEX
  8
0
 10
0.8997165354330708
 20
-4.613090551181102
  0
VERTEX
  8
0
 10
0.9079409448818898
 20
-4.636051181102363
  0
VERTEX
  8
0
 10
0.9183622047244094
 20
-4.658102362204724
  0
VERTEX
  8
0
 10
0.9309133858267716
 20
-4.679078740157481
  0
VERTEX
  8
0
 10
0.9455275590551181
 20
-4.698818897637795
  0
VERTEX
  8
0
 10
0.9621338582677166
 20
-4.717157480314961
  0
SEQEND
  8
0
  0
POLYLINE
  8
0
 66
     1
  0
VERTEX
  8
0
 10
3.25
 20
-3.282842519685039
  0
VERTEX
  8
0
 10
3.25
 20
-5.0
  0
SEQEND
  8
0
  0
POLYLINE
  8
0
 66
     1
  0
VERTEX
  8
0
 10
3.25
 20
1.717157480314961
  0
VERTEX
  8
0
 10
3.25
 20
-0.8786811023622048
  0
SEQEND
  8
0
  0
POLYLINE
  8
0
 66
     1
  0
VERTEX
  8
0
 10
0.9822322834645669
 20
6.646444881889764
  0
VERTEX
  8
0
 10
1.031122047244095
 20
6.703251968503937
  0
VERTEX
  8
0
 10
1.070377952755905
 20
6.76563779527559
  0
VERTEX
  8
0
 10
1.099771653543307
 20
6.832433070866141
  0
VERTEX
  8
0
 10
1.119070866141732
 20
6.902452755905512
  0
VERTEX
  8
0
 10
1.12803937007874
 20
6.974531496062992
  0
VERTEX
  8
0
 10
1.12644094488189
 20
7.047488188976378
  0
VERTEX
  8
0
 10
1.114047244094488
 20
7.120149606299212
  0
VERTEX
  8
0
 10
1.09061811023622
 20
7.191338582677165
  0
VERTEX
  8
0
 10
1.056846456692913
 20
7.258244094488189
  0
VERTEX
  8
0
 10
1.014232283464567
 20
7.318389763779527
  0
VERTEX
  8
0
 10
0.9637716535433071
 20
7.371106299212599
  0
VERTEX
  8
0
 10
0.9064645669291339
 20
7.415732283464567
  0
VERTEX
  8
0
 10
0.8433070866141732
 20
7.451602362204724
  0
VERTEX
  8
0
 10
0.7752913385826772
 20
7.478047244094488
  0
VERTEX
  8
0
 10
0.7034173228346456
 20
7.49440157480315
  0
VERTEX
  8
0
 10
0.6286811023622048
 20
7.5
  0
SEQEND
  8
0
  0
POLYLINE
  8
0
 66
     1
  0
VERTEX
  8
0
 10
2.685681102362205
 20
6.582129921259843
  0
VERTEX
  8
0
 10
2.650236220472441
 20
6.621114173228347
  0
VERTEX
  8
0
 10
2.611224409448819
 20
6.655877952755906
  0
VERTEX
  8
0
 10
2.569023622047244
 20
6.686232283464567
  0
VERTEX
  8
0
 10
2.52401968503937
 20
6.71198031496063
  0
VERTEX
  8
0
 10
2.476590551181102
 20
6.732929133858268
  0
VERTEX
  8
0
 10
2.427122047244095
 20
6.748893700787401
  0
VERTEX
  8
0
 10
2.375988188976378
 20
6.759673228346457
  0
VERTEX
  8
0
 10
2.32357874015748
 20
6.765074803149607
  0
VERTEX
  8
0
 10
2.270889763779528
 20
6.764937007874016
  0
VERTEX
  8
0
 10
2.218937007874016
 20
6.759326771653543
  0
VERTEX
  8
0
 10
2.16811811023622
 20
6.748393700787402
  0
VERTEX
  8
0
 10
2.118830708661418
 20
6.732287401574803
  0
VERTEX
  8
0
 10
2.071476377952756
 20
6.711169291338583
  0
VERTEX
  8
0
 10
2.026452755905512
 20
6.685188976377953
  0
VERTEX
  8
0
 10
1.984157480314961
 20
6.6545
  0
VERTEX
  8
0
 10
1.944992125984252
 20
6.619255905511811
  0
SEQEND
  8
0
  0
POLYLINE
  8
0
 66
     1
  0
VERTEX
  8
0
 10
3.103555118110236
 20
3.767767716535433
  0
VERTEX
  8
0
 10
3.136767716535433
 20
3.80444094488189
  0
VERTEX
  8
0
 10
3.165996062992126
 20
3.84392125984252
  0
VERTEX
  8
0
 10
3.19109842519685
 20
3.885874015748032
  0
VERTEX
  8
0
 10
3.21194094488189
 20
3.929976377952756
  0
VERTEX
  8
0
 10
3.228389763779528
 20
3.975901574803149
  0
VERTEX
  8
0
 10
3.240303149606299
 20
4.023318897637795
  0
VERTEX
  8
0
 10
3.247555118110236
 20
4.071897637795276
  0
VERTEX
  8
0
 10
3.25
 20
4.121318897637796
  0
SEQEND
  8
0
  0
POLYLINE
  8
0
 66
     1
  0
VERTEX
  8
0
 10
3.25
 20
1.717157480314961
  0
VERTEX
  8
0
 10
3.244401574803149
 20
1.791893700787402
  0
VERTEX
  8
0
 10
3.228047244094488
 20
1.863767716535433
  0
VERTEX
  8
0
 10
3.201602362204724
 20
1.931783464566929
  0
VERTEX
  8
0
 10
3.165736220472441
 20
1.99494094488189
  0
VERTEX
  8
0
 10
3.121110236220472
 20
2.052248031496063
  0
VERTEX
  8
0
 10
3.068389763779527
 20
2.102708661417323
  0
VERTEX
  8
0
 10
3.008248031496063
 20
2.145322834645669
  0
VERTEX
  8
0
 10
2.94134251968504
 20
2.17909842519685
  0
VERTEX
  8
0
 10
2.870149606299213
 20
2.202527559055118
  0
VERTEX
  8
0
 10
2.797488188976378
 20
2.21492125984252
  0
VERTEX
  8
0
 10
2.724531496062992
 20
2.216515748031496
  0
VERTEX
  8
0
 10
2.652452755905512
 20
2.207551181102362
  0
VERTEX
  8
0
 10
2.582433070866142
 20
2.188251968503937
  0
VERTEX
  8
0
 10
2.515637795275591
 20
2.158858267716536
  0
VERTEX
  8
0
 10
2.453251968503937
 20
2.11959842519685
  0
VERTEX
  8
0
 10
2.396444881889764
 20
2.070712598425197
  0
SEQEND
  8
0
  0
POLYLINE
  8
0
 66
     1
  0
VERTEX
  8
0
 10
3.103555118110236
 20
-1.232232283464567
  0
VERTEX
  8
0
 10
3.136767716535433
 20
-1.19555905511811
  0
VERTEX
  8
0
 10
3.165996062992126
 20
-1.15607874015748
  0
VERTEX
  8
0
 10
3.19109842519685
 20
-1.114125984251968
  0
VERTEX
  8
0
 10
3.21194094488189
 20
-1.070023622047244
  0
VERTEX
  8
0
 10
3.228389763779528
 20
-1.02409842519685
  0
VERTEX
  8
0
 10
3.240303149606299
 20
-0.9766811023622047
  0
VERTEX
  8
0
 10
3.247555118110236
 20
-0.9281023622047244
  0
VERTEX
  8
0
 10
3.25
 20
-0.8786811023622048
  0
SEQEND
  8
0
  0
POLYLINE
  8
0
 66
     1
  0
VERTEX
  8
0
 10
3.25
 20
-3.282842519685039
  0
VERTEX
  8
0
 10
3.244401574803149
 20
-3.208106299212599
  0
VERTEX
  8
0
 10
3.228047244094488
 20
-3.136232283464567
  0
VERTEX
  8
0
 10
3.201602362204724
 20
-3.068216535433071
  0
VERTEX
  8
0
 10
3.165736220472441
 20
-3.00505905511811
  0
VERTEX
  8
0
 10
3.121110236220472
 20
-2.947751968503937
  0
VERTEX
  8
0
 10
3.068389763779527
 20
-2.897291338582677
  0
VERTEX
  8
0
 10
3.008248031496063
 20
-2.854677165354331
  0
VERTEX
  8
0
 10
2.94134251968504
 20
-2.82090157480315
  0
VERTEX
  8
0
 10
2.870149606299213
 20
-2.797472440944882
  0
VERTEX
  8
0
 10
2.797488188976378
 20
-2.78507874015748
  0
VERTEX
  8
0
 10
2.724531496062992
 20
-2.783484251968504
  0
VERTEX
  8
0
 10
2.652452755905512
 20
-2.792448818897638
  0
VERTEX
  8
0
 10
2.582433070866142
 20
-2.811748031496063
  0
VERTEX
  8
0
 10
2.515637795275591
 20
-2.841141732283464
  0
VERTEX
  8
0
 10
2.453251968503937
 20
-2.88040157480315
  0
VERTEX
  8
0
 10
2.396444881889764
 20
-2.929287401574803
  0
SEQEND
  8
0
  0
ENDSEC
  0
EOF
