  0
SECTION
  2
HEADER
  9
$ACADVER
  1
AC1003
  9
$EXTMIN
 10
0.309145
 20
0.458472
  9
$EXTMAX
 10
7.117339
 20
2.431821
  0
ENDSEC
  0
TABLE
  2
LAYER
 70
	256
  0
LAYER
  2
1
 70
	0
  6
CONTINUOUS
 62
1
  0
ENDTAB
  0
SECTION
  2
ENTITIES
  0
LINE
  8
1
  6
CONTINUOUS
 10
1.5269
 11
1.4659
 20
1.0021
 21
0.9382
 30
0.0000
 31
0.0000
 62
5
  0
LINE
  8
1
  6
CONTINUOUS
 10
7.1173
 11
7.0173
 20
1.3472
 21
1.3465
 30
0.0000
 31
0.0000
 62
5
  0
LINE
  8
1
  6
CONTINUOUS
 10
7.0173
 11
7.0973
 20
1.3465
 21
1.3471
 30
0.0000
 31
0.0000
 62
5
  0
ARC
  8
1
  6
CONTINUOUS
 10
17.0950
 20
-27.2211
 30
0.0000
 40
32.2058
 50
119.0314
 51
120.3335
 62
5
  0
ARC
  8
1
  6
CONTINUOUS
 10
3.5955
 20
11.0979
 30
0.0000
 40
10.8795
 50
255.2747
 51
257.4744
 62
5
  0
ARC
  8
1
  6
CONTINUOUS
 10
1.4449
 20
1.6214
 30
0.0000
 40
1.1629
 50
259.6497
 51
275.9524
 62
5
  0
ARC
  8
1
  6
CONTINUOUS
 10
1.4816
 20
1.0329
 30
0.0000
 40
0.5743
 50
278.4057
 51
325.9816
 62
5
  0
ARC
  8
1
  6
CONTINUOUS
 10
2.3016
 20
0.3492
 30
0.0000
 40
0.4996
 50
98.6317
 51
133.5114
 62
5
  0
ARC
  8
1
  6
CONTINUOUS
 10
2.5979
 20
-0.7292
 30
0.0000
 40
1.6156
 50
96.6339
 51
103.2857
 62
5
  0
ARC
  8
1
  6
CONTINUOUS
 10
2.4866
 20
0.3189
 30
0.0000
 40
0.5618
 50
89.1131
 51
97.7136
 62
5
  0
ARC
  8
1
  6
CONTINUOUS
 10
-8.1958
 20
970.3595
 30
0.0000
 40
969.5378
 50
270.6318
 51
270.8971
 62
5
  0
ARC
  8
1
  6
CONTINUOUS
 10
6.9458
 20
0.9964
 30
0.0000
 40
0.0678
 50
304.7437
 51
2.8490
 62
5
  0
ARC
  8
1
  6
CONTINUOUS
 10
6.3036
 20
1.0716
 30
0.0000
 40
0.7135
 50
354.2240
 51
2.2578
 62
5
  0
ARC
  8
1
  6
CONTINUOUS
 10
-6.0962
 20
1.2630
 30
0.0000
 40
13.1138
 50
359.2862
 51
0.3648
 62
5
  0
ARC
  8
1
  6
CONTINUOUS
 10
6.8953
 20
1.5489
 30
0.0000
 40
0.1263
 50
20.6153
 51
88.3537
 62
5
  0
ARC
  8
1
  6
CONTINUOUS
 10
80.5577
 20
1354.3988
 30
0.0000
 40
1354.7277
 50
266.6848
 51
266.8832
 62
5
  0
ARC
  8
1
  6
CONTINUOUS
 10
2.8252
 20
4.2237
 30
0.0000
 40
2.3652
 50
249.7754
 51
255.0827
 62
5
  0
ARC
  8
1
  6
CONTINUOUS
 10
6.3600
 20
9.7416
 30
0.0000
 40
8.8775
 50
238.0434
 51
240.6409
 62
5
  0
ARC
  8
1
  6
CONTINUOUS
 10
-0.2439
 20
-0.3476
 30
0.0000
 40
3.1890
 50
53.3105
 51
57.7130
 62
5
  0
ARC
  8
1
  6
CONTINUOUS
 10
1.1747
 20
1.9046
 30
0.0000
 40
0.5272
 50
57.3051
 51
102.9412
 62
5
  0
ARC
  8
1
  6
CONTINUOUS
 10
1.2499
 20
1.5289
 30
0.0000
 40
0.9103
 50
102.2587
 51
120.0865
 62
5
  0
ARC
  8
1
  6
CONTINUOUS
 10
1.2069
 20
1.5210
 30
0.0000
 40
0.8965
 50
117.4553
 51
132.9731
 62
5
  0
ARC
  8
1
  6
CONTINUOUS
 10
1.2365
 20
1.5961
 30
0.0000
 40
0.8648
 50
137.8030
 51
153.1313
 62
5
  0
ARC
  8
1
  6
CONTINUOUS
 10
2.6538
 20
0.8353
 30
0.0000
 40
2.4732
 50
152.2482
 51
160.6461
 62
5
  0
ARC
  8
1
  6
CONTINUOUS
 10
0.4613
 20
1.5972
 30
0.0000
 40
0.1524
 50
157.7235
 51
177.0449
 62
5
  0
ARC
  8
1
  6
CONTINUOUS
 10
29.5982
 20
-62.0319
 30
0.0000
 40
70.0536
 50
114.0892
 51
114.7144
 62
5
  0
ARC
  8
1
  6
CONTINUOUS
 10
1.0353
 20
1.7417
 30
0.0000
 40
0.1816
 50
54.9509
 51
99.5100
 62
5
  0
ARC
  8
1
  6
CONTINUOUS
 10
0.8353
 20
1.4413
 30
0.0000
 40
0.5424
 50
34.1576
 51
55.8779
 62
5
  0
ARC
  8
1
  6
CONTINUOUS
 10
0.0300
 20
0.8461
 30
0.0000
 40
1.5436
 50
24.0529
 51
35.6549
 62
5
  0
ARC
  8
1
  6
CONTINUOUS
 10
0.4265
 20
0.9613
 30
0.0000
 40
1.1360
 50
9.4455
 51
26.9017
 62
5
  0
ARC
  8
1
  6
CONTINUOUS
 10
1.2833
 20
1.1100
 30
0.0000
 40
0.2665
 50
336.1208
 51
8.1377
 62
5
  0
ARC
  8
1
  6
CONTINUOUS
 10
-6.0962
 20
1.2630
 30
0.0000
 40
13.1138
 50
0.3648
 51
1.4435
 62
5
  0
ENDSEC
  0
EOF
