ISO-10303-21;
HEADER;
/* Generated by software containing ST-Developer
 * from STEP Tools, Inc. (www.steptools.com) 
 */

FILE_DESCRIPTION(
/* description */ (''),
/* implementation_level */ '2;1');

FILE_NAME(
/* name */ 
'C:\\Users\\Eddie the Computer\\Documents\\Course\\Third Year\\FYP\\3D
 Printing\\STEP Files\\Elevation Potentiometer Holder.stp',
/* time_stamp */ '2018-04-22T20:04:28+01:00',
/* author */ ('Eddie the Computer'),
/* organization */ (''),
/* preprocessor_version */ 'ST-DEVELOPER v15.2',
/* originating_system */ 'Autodesk Inventor 2014',
/* authorisation */ '');

FILE_SCHEMA (('AUTOMOTIVE_DESIGN { 1 0 10303 214 3 1 1 }'));
ENDSEC;

DATA;
#10=SHAPE_REPRESENTATION_RELATIONSHIP('SRR','None',#545,#11);
#11=ADVANCED_BREP_SHAPE_REPRESENTATION($,(#318),#536);
#12=STYLED_ITEM($,(#553),#318);
#13=FACE_BOUND($,#58,.T.);
#14=FACE_BOUND($,#60,.T.);
#15=FACE_BOUND($,#66,.T.);
#16=FACE_BOUND($,#67,.T.);
#17=FACE_BOUND($,#68,.T.);
#18=TOROIDAL_SURFACE($,#333,8.,2.);
#19=PLANE($,#323);
#20=PLANE($,#324);
#21=PLANE($,#325);
#22=PLANE($,#326);
#23=PLANE($,#327);
#24=PLANE($,#330);
#25=PLANE($,#340);
#26=PLANE($,#341);
#27=PLANE($,#343);
#28=PLANE($,#344);
#29=PLANE($,#347);
#30=PLANE($,#350);
#31=PLANE($,#351);
#32=FACE_OUTER_BOUND($,#50,.T.);
#33=FACE_OUTER_BOUND($,#51,.T.);
#34=FACE_OUTER_BOUND($,#52,.T.);
#35=FACE_OUTER_BOUND($,#53,.T.);
#36=FACE_OUTER_BOUND($,#54,.T.);
#37=FACE_OUTER_BOUND($,#55,.T.);
#38=FACE_OUTER_BOUND($,#56,.T.);
#39=FACE_OUTER_BOUND($,#57,.T.);
#40=FACE_OUTER_BOUND($,#59,.T.);
#41=FACE_OUTER_BOUND($,#61,.T.);
#42=FACE_OUTER_BOUND($,#62,.T.);
#43=FACE_OUTER_BOUND($,#63,.T.);
#44=FACE_OUTER_BOUND($,#64,.T.);
#45=FACE_OUTER_BOUND($,#65,.T.);
#46=FACE_OUTER_BOUND($,#69,.T.);
#47=FACE_OUTER_BOUND($,#70,.T.);
#48=FACE_OUTER_BOUND($,#71,.T.);
#49=FACE_OUTER_BOUND($,#72,.T.);
#50=EDGE_LOOP($,(#211,#212,#213,#214));
#51=EDGE_LOOP($,(#215,#216,#217,#218));
#52=EDGE_LOOP($,(#219,#220,#221,#222));
#53=EDGE_LOOP($,(#223,#224,#225,#226));
#54=EDGE_LOOP($,(#227,#228,#229,#230));
#55=EDGE_LOOP($,(#231,#232,#233,#234,#235,#236,#237,#238,#239,#240,#241,
#242));
#56=EDGE_LOOP($,(#243,#244,#245,#246,#247,#248,#249,#250,#251,#252,#253,
#254));
#57=EDGE_LOOP($,(#255,#256));
#58=EDGE_LOOP($,(#257));
#59=EDGE_LOOP($,(#258,#259,#260,#261));
#60=EDGE_LOOP($,(#262));
#61=EDGE_LOOP($,(#263));
#62=EDGE_LOOP($,(#264));
#63=EDGE_LOOP($,(#265,#266,#267,#268));
#64=EDGE_LOOP($,(#269,#270,#271,#272));
#65=EDGE_LOOP($,(#273));
#66=EDGE_LOOP($,(#274));
#67=EDGE_LOOP($,(#275));
#68=EDGE_LOOP($,(#276));
#69=EDGE_LOOP($,(#277,#278,#279,#280));
#70=EDGE_LOOP($,(#281,#282,#283,#284));
#71=EDGE_LOOP($,(#285,#286,#287,#288));
#72=EDGE_LOOP($,(#289,#290,#291,#292));
#73=LINE($,#452,#101);
#74=LINE($,#455,#102);
#75=LINE($,#458,#103);
#76=LINE($,#460,#104);
#77=LINE($,#461,#105);
#78=LINE($,#464,#106);
#79=LINE($,#466,#107);
#80=LINE($,#467,#108);
#81=LINE($,#470,#109);
#82=LINE($,#472,#110);
#83=LINE($,#473,#111);
#84=LINE($,#476,#112);
#85=LINE($,#478,#113);
#86=LINE($,#479,#114);
#87=LINE($,#484,#115);
#88=LINE($,#486,#116);
#89=LINE($,#490,#117);
#90=LINE($,#492,#118);
#91=LINE($,#493,#119);
#92=LINE($,#498,#120);
#93=LINE($,#500,#121);
#94=LINE($,#502,#122);
#95=LINE($,#506,#123);
#96=LINE($,#507,#124);
#97=LINE($,#522,#125);
#98=LINE($,#524,#126);
#99=LINE($,#531,#127);
#100=LINE($,#533,#128);
#101=VECTOR($,#358,20.);
#102=VECTOR($,#361,20.);
#103=VECTOR($,#364,3.01464437469236);
#104=VECTOR($,#365,20.);
#105=VECTOR($,#366,3.01464437469236);
#106=VECTOR($,#369,2.);
#107=VECTOR($,#370,20.);
#108=VECTOR($,#371,2.);
#109=VECTOR($,#374,5.);
#110=VECTOR($,#375,20.);
#111=VECTOR($,#376,5.);
#112=VECTOR($,#379,28.);
#113=VECTOR($,#380,20.);
#114=VECTOR($,#381,28.);
#115=VECTOR($,#386,3.);
#116=VECTOR($,#387,35.);
#117=VECTOR($,#390,15.);
#118=VECTOR($,#391,3.);
#119=VECTOR($,#392,15.);
#120=VECTOR($,#397,15.);
#121=VECTOR($,#398,3.);
#122=VECTOR($,#399,15.);
#123=VECTOR($,#402,35.);
#124=VECTOR($,#403,3.00000000000001);
#125=VECTOR($,#426,20.);
#126=VECTOR($,#429,20.);
#127=VECTOR($,#440,20.);
#128=VECTOR($,#443,20.);
#129=CIRCLE($,#321,5.00000000000001);
#130=CIRCLE($,#322,5.00000000000001);
#131=CIRCLE($,#328,23.);
#132=CIRCLE($,#329,20.);
#133=CIRCLE($,#331,23.);
#134=CIRCLE($,#332,20.);
#135=CIRCLE($,#334,10.);
#136=CIRCLE($,#335,10.);
#137=CIRCLE($,#336,8.);
#138=CIRCLE($,#338,10.);
#139=CIRCLE($,#339,10.);
#140=CIRCLE($,#342,8.25);
#141=CIRCLE($,#346,8.25);
#142=VERTEX_POINT($,#448);
#143=VERTEX_POINT($,#449);
#144=VERTEX_POINT($,#451);
#145=VERTEX_POINT($,#453);
#146=VERTEX_POINT($,#457);
#147=VERTEX_POINT($,#459);
#148=VERTEX_POINT($,#463);
#149=VERTEX_POINT($,#465);
#150=VERTEX_POINT($,#469);
#151=VERTEX_POINT($,#471);
#152=VERTEX_POINT($,#475);
#153=VERTEX_POINT($,#477);
#154=VERTEX_POINT($,#481);
#155=VERTEX_POINT($,#483);
#156=VERTEX_POINT($,#485);
#157=VERTEX_POINT($,#487);
#158=VERTEX_POINT($,#489);
#159=VERTEX_POINT($,#491);
#160=VERTEX_POINT($,#495);
#161=VERTEX_POINT($,#497);
#162=VERTEX_POINT($,#499);
#163=VERTEX_POINT($,#501);
#164=VERTEX_POINT($,#503);
#165=VERTEX_POINT($,#505);
#166=VERTEX_POINT($,#511);
#167=VERTEX_POINT($,#515);
#168=VERTEX_POINT($,#519);
#169=VERTEX_POINT($,#526);
#170=EDGE_CURVE($,#142,#143,#129,.T.);
#171=EDGE_CURVE($,#143,#144,#73,.T.);
#172=EDGE_CURVE($,#145,#144,#130,.F.);
#173=EDGE_CURVE($,#145,#142,#74,.T.);
#174=EDGE_CURVE($,#146,#145,#75,.T.);
#175=EDGE_CURVE($,#146,#147,#76,.T.);
#176=EDGE_CURVE($,#142,#147,#77,.T.);
#177=EDGE_CURVE($,#148,#146,#78,.T.);
#178=EDGE_CURVE($,#148,#149,#79,.T.);
#179=EDGE_CURVE($,#147,#149,#80,.T.);
#180=EDGE_CURVE($,#150,#148,#81,.T.);
#181=EDGE_CURVE($,#151,#150,#82,.T.);
#182=EDGE_CURVE($,#149,#151,#83,.T.);
#183=EDGE_CURVE($,#152,#150,#84,.T.);
#184=EDGE_CURVE($,#153,#152,#85,.T.);
#185=EDGE_CURVE($,#151,#153,#86,.T.);
#186=EDGE_CURVE($,#154,#143,#131,.T.);
#187=EDGE_CURVE($,#155,#153,#87,.T.);
#188=EDGE_CURVE($,#155,#156,#88,.T.);
#189=EDGE_CURVE($,#156,#157,#132,.T.);
#190=EDGE_CURVE($,#157,#158,#89,.T.);
#191=EDGE_CURVE($,#158,#159,#90,.T.);
#192=EDGE_CURVE($,#154,#159,#91,.T.);
#193=EDGE_CURVE($,#144,#160,#133,.T.);
#194=EDGE_CURVE($,#160,#161,#92,.T.);
#195=EDGE_CURVE($,#162,#161,#93,.T.);
#196=EDGE_CURVE($,#163,#162,#94,.T.);
#197=EDGE_CURVE($,#163,#164,#134,.T.);
#198=EDGE_CURVE($,#165,#164,#95,.T.);
#199=EDGE_CURVE($,#152,#165,#96,.T.);
#200=EDGE_CURVE($,#159,#161,#135,.T.);
#201=EDGE_CURVE($,#159,#161,#136,.T.);
#202=EDGE_CURVE($,#166,#166,#137,.T.);
#203=EDGE_CURVE($,#158,#162,#138,.T.);
#204=EDGE_CURVE($,#167,#167,#139,.T.);
#205=EDGE_CURVE($,#168,#168,#140,.T.);
#206=EDGE_CURVE($,#160,#154,#97,.T.);
#207=EDGE_CURVE($,#163,#157,#98,.T.);
#208=EDGE_CURVE($,#169,#169,#141,.T.);
#209=EDGE_CURVE($,#164,#156,#99,.T.);
#210=EDGE_CURVE($,#165,#155,#100,.T.);
#211=ORIENTED_EDGE($,*,*,#170,.T.);
#212=ORIENTED_EDGE($,*,*,#171,.T.);
#213=ORIENTED_EDGE($,*,*,#172,.F.);
#214=ORIENTED_EDGE($,*,*,#173,.T.);
#215=ORIENTED_EDGE($,*,*,#173,.F.);
#216=ORIENTED_EDGE($,*,*,#174,.F.);
#217=ORIENTED_EDGE($,*,*,#175,.T.);
#218=ORIENTED_EDGE($,*,*,#176,.F.);
#219=ORIENTED_EDGE($,*,*,#177,.F.);
#220=ORIENTED_EDGE($,*,*,#178,.T.);
#221=ORIENTED_EDGE($,*,*,#179,.F.);
#222=ORIENTED_EDGE($,*,*,#175,.F.);
#223=ORIENTED_EDGE($,*,*,#180,.F.);
#224=ORIENTED_EDGE($,*,*,#181,.F.);
#225=ORIENTED_EDGE($,*,*,#182,.F.);
#226=ORIENTED_EDGE($,*,*,#178,.F.);
#227=ORIENTED_EDGE($,*,*,#181,.T.);
#228=ORIENTED_EDGE($,*,*,#183,.F.);
#229=ORIENTED_EDGE($,*,*,#184,.F.);
#230=ORIENTED_EDGE($,*,*,#185,.F.);
#231=ORIENTED_EDGE($,*,*,#186,.T.);
#232=ORIENTED_EDGE($,*,*,#170,.F.);
#233=ORIENTED_EDGE($,*,*,#176,.T.);
#234=ORIENTED_EDGE($,*,*,#179,.T.);
#235=ORIENTED_EDGE($,*,*,#182,.T.);
#236=ORIENTED_EDGE($,*,*,#185,.T.);
#237=ORIENTED_EDGE($,*,*,#187,.F.);
#238=ORIENTED_EDGE($,*,*,#188,.T.);
#239=ORIENTED_EDGE($,*,*,#189,.T.);
#240=ORIENTED_EDGE($,*,*,#190,.T.);
#241=ORIENTED_EDGE($,*,*,#191,.T.);
#242=ORIENTED_EDGE($,*,*,#192,.F.);
#243=ORIENTED_EDGE($,*,*,#193,.T.);
#244=ORIENTED_EDGE($,*,*,#194,.T.);
#245=ORIENTED_EDGE($,*,*,#195,.F.);
#246=ORIENTED_EDGE($,*,*,#196,.F.);
#247=ORIENTED_EDGE($,*,*,#197,.T.);
#248=ORIENTED_EDGE($,*,*,#198,.F.);
#249=ORIENTED_EDGE($,*,*,#199,.F.);
#250=ORIENTED_EDGE($,*,*,#183,.T.);
#251=ORIENTED_EDGE($,*,*,#180,.T.);
#252=ORIENTED_EDGE($,*,*,#177,.T.);
#253=ORIENTED_EDGE($,*,*,#174,.T.);
#254=ORIENTED_EDGE($,*,*,#172,.T.);
#255=ORIENTED_EDGE($,*,*,#200,.F.);
#256=ORIENTED_EDGE($,*,*,#201,.T.);
#257=ORIENTED_EDGE($,*,*,#202,.T.);
#258=ORIENTED_EDGE($,*,*,#201,.F.);
#259=ORIENTED_EDGE($,*,*,#191,.F.);
#260=ORIENTED_EDGE($,*,*,#203,.T.);
#261=ORIENTED_EDGE($,*,*,#195,.T.);
#262=ORIENTED_EDGE($,*,*,#204,.T.);
#263=ORIENTED_EDGE($,*,*,#202,.F.);
#264=ORIENTED_EDGE($,*,*,#205,.T.);
#265=ORIENTED_EDGE($,*,*,#200,.T.);
#266=ORIENTED_EDGE($,*,*,#194,.F.);
#267=ORIENTED_EDGE($,*,*,#206,.T.);
#268=ORIENTED_EDGE($,*,*,#192,.T.);
#269=ORIENTED_EDGE($,*,*,#203,.F.);
#270=ORIENTED_EDGE($,*,*,#190,.F.);
#271=ORIENTED_EDGE($,*,*,#207,.F.);
#272=ORIENTED_EDGE($,*,*,#196,.T.);
#273=ORIENTED_EDGE($,*,*,#205,.F.);
#274=ORIENTED_EDGE($,*,*,#208,.F.);
#275=ORIENTED_EDGE($,*,*,#208,.T.);
#276=ORIENTED_EDGE($,*,*,#204,.F.);
#277=ORIENTED_EDGE($,*,*,#171,.F.);
#278=ORIENTED_EDGE($,*,*,#186,.F.);
#279=ORIENTED_EDGE($,*,*,#206,.F.);
#280=ORIENTED_EDGE($,*,*,#193,.F.);
#281=ORIENTED_EDGE($,*,*,#197,.F.);
#282=ORIENTED_EDGE($,*,*,#207,.T.);
#283=ORIENTED_EDGE($,*,*,#189,.F.);
#284=ORIENTED_EDGE($,*,*,#209,.F.);
#285=ORIENTED_EDGE($,*,*,#184,.T.);
#286=ORIENTED_EDGE($,*,*,#199,.T.);
#287=ORIENTED_EDGE($,*,*,#210,.T.);
#288=ORIENTED_EDGE($,*,*,#187,.T.);
#289=ORIENTED_EDGE($,*,*,#210,.F.);
#290=ORIENTED_EDGE($,*,*,#198,.T.);
#291=ORIENTED_EDGE($,*,*,#209,.T.);
#292=ORIENTED_EDGE($,*,*,#188,.F.);
#293=CYLINDRICAL_SURFACE($,#320,5.00000000000001);
#294=CYLINDRICAL_SURFACE($,#337,10.);
#295=CYLINDRICAL_SURFACE($,#345,8.25);
#296=CYLINDRICAL_SURFACE($,#348,23.);
#297=CYLINDRICAL_SURFACE($,#349,20.);
#298=ADVANCED_FACE($,(#32),#293,.F.);
#299=ADVANCED_FACE($,(#33),#19,.T.);
#300=ADVANCED_FACE($,(#34),#20,.T.);
#301=ADVANCED_FACE($,(#35),#21,.T.);
#302=ADVANCED_FACE($,(#36),#22,.T.);
#303=ADVANCED_FACE($,(#37),#23,.T.);
#304=ADVANCED_FACE($,(#38),#24,.T.);
#305=ADVANCED_FACE($,(#39,#13),#18,.T.);
#306=ADVANCED_FACE($,(#40,#14),#294,.T.);
#307=ADVANCED_FACE($,(#41),#25,.T.);
#308=ADVANCED_FACE($,(#42),#26,.F.);
#309=ADVANCED_FACE($,(#43),#27,.T.);
#310=ADVANCED_FACE($,(#44),#28,.T.);
#311=ADVANCED_FACE($,(#45,#15),#295,.F.);
#312=ADVANCED_FACE($,(#16,#17),#29,.F.);
#313=ADVANCED_FACE($,(#46),#296,.T.);
#314=ADVANCED_FACE($,(#47),#297,.F.);
#315=ADVANCED_FACE($,(#48),#30,.F.);
#316=ADVANCED_FACE($,(#49),#31,.T.);
#317=CLOSED_SHELL($,(#298,#299,#300,#301,#302,#303,#304,#305,#306,#307,
#308,#309,#310,#311,#312,#313,#314,#315,#316));
#318=MANIFOLD_SOLID_BREP('Solid1',#317);
#319=AXIS2_PLACEMENT_3D('placement',#446,#352,#353);
#320=AXIS2_PLACEMENT_3D($,#447,#354,#355);
#321=AXIS2_PLACEMENT_3D($,#450,#356,#357);
#322=AXIS2_PLACEMENT_3D($,#454,#359,#360);
#323=AXIS2_PLACEMENT_3D($,#456,#362,#363);
#324=AXIS2_PLACEMENT_3D($,#462,#367,#368);
#325=AXIS2_PLACEMENT_3D($,#468,#372,#373);
#326=AXIS2_PLACEMENT_3D($,#474,#377,#378);
#327=AXIS2_PLACEMENT_3D($,#480,#382,#383);
#328=AXIS2_PLACEMENT_3D($,#482,#384,#385);
#329=AXIS2_PLACEMENT_3D($,#488,#388,#389);
#330=AXIS2_PLACEMENT_3D($,#494,#393,#394);
#331=AXIS2_PLACEMENT_3D($,#496,#395,#396);
#332=AXIS2_PLACEMENT_3D($,#504,#400,#401);
#333=AXIS2_PLACEMENT_3D($,#508,#404,#405);
#334=AXIS2_PLACEMENT_3D($,#509,#406,#407);
#335=AXIS2_PLACEMENT_3D($,#510,#408,#409);
#336=AXIS2_PLACEMENT_3D($,#512,#410,#411);
#337=AXIS2_PLACEMENT_3D($,#513,#412,#413);
#338=AXIS2_PLACEMENT_3D($,#514,#414,#415);
#339=AXIS2_PLACEMENT_3D($,#516,#416,#417);
#340=AXIS2_PLACEMENT_3D($,#517,#418,#419);
#341=AXIS2_PLACEMENT_3D($,#518,#420,#421);
#342=AXIS2_PLACEMENT_3D($,#520,#422,#423);
#343=AXIS2_PLACEMENT_3D($,#521,#424,#425);
#344=AXIS2_PLACEMENT_3D($,#523,#427,#428);
#345=AXIS2_PLACEMENT_3D($,#525,#430,#431);
#346=AXIS2_PLACEMENT_3D($,#527,#432,#433);
#347=AXIS2_PLACEMENT_3D($,#528,#434,#435);
#348=AXIS2_PLACEMENT_3D($,#529,#436,#437);
#349=AXIS2_PLACEMENT_3D($,#530,#438,#439);
#350=AXIS2_PLACEMENT_3D($,#532,#441,#442);
#351=AXIS2_PLACEMENT_3D($,#534,#444,#445);
#352=DIRECTION('axis',(0.,0.,1.));
#353=DIRECTION('refdir',(1.,0.,0.));
#354=DIRECTION('center_axis',(0.,0.,-1.));
#355=DIRECTION('ref_axis',(0.514495755427526,0.857492925712545,0.));
#356=DIRECTION('center_axis',(-1.38777878078145E-016,0.,-1.));
#357=DIRECTION('ref_axis',(0.514495755427526,0.857492925712545,0.));
#358=DIRECTION($,(0.,0.,1.));
#359=DIRECTION('center_axis',(0.,0.,1.));
#360=DIRECTION('ref_axis',(0.514495755427526,0.857492925712545,0.));
#361=DIRECTION($,(0.,0.,-1.));
#362=DIRECTION('center_axis',(0.514495755427526,0.857492925712545,0.));
#363=DIRECTION('ref_axis',(0.857492925712545,-0.514495755427526,0.));
#364=DIRECTION($,(-0.857492925712545,0.514495755427526,0.));
#365=DIRECTION($,(0.,0.,-1.));
#366=DIRECTION($,(0.857492925712545,-0.514495755427526,0.));
#367=DIRECTION('center_axis',(1.,1.11022302462516E-015,0.));
#368=DIRECTION('ref_axis',(1.06581410364015E-015,-1.,0.));
#369=DIRECTION($,(-1.11022302462516E-015,1.,0.));
#370=DIRECTION($,(0.,0.,-1.));
#371=DIRECTION($,(1.11022302462516E-015,-1.,0.));
#372=DIRECTION('center_axis',(8.88178419700125E-016,-1.,0.));
#373=DIRECTION('ref_axis',(-1.,-1.06581410364015E-015,0.));
#374=DIRECTION($,(1.,8.88178419700125E-016,0.));
#375=DIRECTION($,(0.,0.,1.));
#376=DIRECTION($,(-1.,-8.88178419700125E-016,0.));
#377=DIRECTION('center_axis',(1.,0.,0.));
#378=DIRECTION('ref_axis',(0.,-1.,0.));
#379=DIRECTION($,(-2.69948454633557E-016,1.,0.));
#380=DIRECTION($,(-4.16333634234434E-016,-2.77555756156289E-016,1.));
#381=DIRECTION($,(2.69948454633557E-016,-1.,-3.74628737245193E-032));
#382=DIRECTION('center_axis',(-1.38777878078145E-016,0.,-1.));
#383=DIRECTION('ref_axis',(-1.,0.,1.77635683940025E-016));
#384=DIRECTION('center_axis',(-1.38777878078145E-016,0.,-1.));
#385=DIRECTION('ref_axis',(-1.,-9.65411325761006E-016,0.));
#386=DIRECTION($,(1.,0.,-1.38777878078145E-016));
#387=DIRECTION($,(0.,1.,0.));
#388=DIRECTION('center_axis',(0.,0.,1.));
#389=DIRECTION('ref_axis',(-1.,0.,0.));
#390=DIRECTION($,(-1.,0.,0.));
#391=DIRECTION($,(0.,1.,0.));
#392=DIRECTION($,(-1.,0.,0.));
#393=DIRECTION('center_axis',(0.,0.,1.));
#394=DIRECTION('ref_axis',(1.,0.,0.));
#395=DIRECTION('center_axis',(0.,0.,1.));
#396=DIRECTION('ref_axis',(1.,0.,0.));
#397=DIRECTION($,(-1.,0.,0.));
#398=DIRECTION($,(0.,1.,0.));
#399=DIRECTION($,(-1.,0.,0.));
#400=DIRECTION('center_axis',(0.,0.,-1.));
#401=DIRECTION('ref_axis',(-1.,0.,0.));
#402=DIRECTION($,(0.,1.,0.));
#403=DIRECTION($,(-1.,0.,0.));
#404=DIRECTION('center_axis',(0.,1.,0.));
#405=DIRECTION('ref_axis',(0.,0.,1.));
#406=DIRECTION('center_axis',(0.,-1.,0.));
#407=DIRECTION('ref_axis',(-1.,0.,0.));
#408=DIRECTION('center_axis',(0.,1.,0.));
#409=DIRECTION('ref_axis',(-1.,0.,0.));
#410=DIRECTION('center_axis',(0.,-1.,0.));
#411=DIRECTION('ref_axis',(-1.,0.,0.));
#412=DIRECTION('center_axis',(0.,1.,0.));
#413=DIRECTION('ref_axis',(-1.,0.,0.));
#414=DIRECTION('center_axis',(0.,-1.,0.));
#415=DIRECTION('ref_axis',(-1.,0.,0.));
#416=DIRECTION('center_axis',(0.,1.,0.));
#417=DIRECTION('ref_axis',(-1.,0.,0.));
#418=DIRECTION('center_axis',(0.,1.,0.));
#419=DIRECTION('ref_axis',(0.,0.,1.));
#420=DIRECTION('center_axis',(0.,1.,0.));
#421=DIRECTION('ref_axis',(0.,0.,1.));
#422=DIRECTION('center_axis',(0.,-1.,0.));
#423=DIRECTION('ref_axis',(-1.,0.,0.));
#424=DIRECTION('center_axis',(0.,1.,0.));
#425=DIRECTION('ref_axis',(0.,0.,1.));
#426=DIRECTION($,(0.,0.,-1.));
#427=DIRECTION('center_axis',(0.,-1.,0.));
#428=DIRECTION('ref_axis',(0.,0.,1.));
#429=DIRECTION($,(0.,0.,-1.));
#430=DIRECTION('center_axis',(0.,1.,0.));
#431=DIRECTION('ref_axis',(-1.,0.,0.));
#432=DIRECTION('center_axis',(0.,1.,0.));
#433=DIRECTION('ref_axis',(-1.,0.,0.));
#434=DIRECTION('center_axis',(0.,1.,0.));
#435=DIRECTION('ref_axis',(0.,0.,1.));
#436=DIRECTION('center_axis',(0.,0.,-1.));
#437=DIRECTION('ref_axis',(1.,0.,0.));
#438=DIRECTION('center_axis',(0.,0.,-1.));
#439=DIRECTION('ref_axis',(-1.,0.,0.));
#440=DIRECTION($,(0.,0.,-1.));
#441=DIRECTION('center_axis',(0.,1.,0.));
#442=DIRECTION('ref_axis',(0.,0.,1.));
#443=DIRECTION($,(2.22044604925031E-016,0.,-1.));
#444=DIRECTION('center_axis',(-1.,0.,-2.22044604925031E-016));
#445=DIRECTION('ref_axis',(-3.5527136788005E-016,0.,1.));
#446=CARTESIAN_POINT('',(0.,0.,0.));
#447=CARTESIAN_POINT('Origin',(-8.01255744770019,35.8384863634654,10.));
#448=CARTESIAN_POINT('',(-10.5850362248378,31.5510217349027,-10.));
#449=CARTESIAN_POINT('',(-13.0103150463252,35.6887566557037,-10.));
#450=CARTESIAN_POINT('Origin',(-8.01255744770019,35.8384863634654,-10.));
#451=CARTESIAN_POINT('',(-13.0103150463252,35.6887566557037,10.));
#452=CARTESIAN_POINT($,(-13.0103150463252,35.6887566557037,10.));
#453=CARTESIAN_POINT('',(-10.5850362248378,31.5510217349027,10.));
#454=CARTESIAN_POINT('Origin',(-8.01255744770019,35.8384863634654,10.));
#455=CARTESIAN_POINT($,(-10.5850362248378,31.5510217349027,10.));
#456=CARTESIAN_POINT('Origin',(-13.,33.,10.));
#457=CARTESIAN_POINT('',(-8.00000000000001,30.,10.));
#458=CARTESIAN_POINT($,(-8.00000000000001,30.,10.));
#459=CARTESIAN_POINT('',(-8.00000000000001,30.,-10.));
#460=CARTESIAN_POINT($,(-8.00000000000001,30.,10.));
#461=CARTESIAN_POINT($,(-8.00000000000001,30.,-10.));
#462=CARTESIAN_POINT('Origin',(-8.00000000000001,30.,10.));
#463=CARTESIAN_POINT('',(-8.00000000000001,28.,10.));
#464=CARTESIAN_POINT($,(-8.00000000000001,28.,10.));
#465=CARTESIAN_POINT('',(-8.00000000000001,28.,-10.));
#466=CARTESIAN_POINT($,(-8.00000000000001,28.,10.));
#467=CARTESIAN_POINT($,(-8.00000000000001,28.,-10.));
#468=CARTESIAN_POINT('Origin',(-8.00000000000001,28.,10.));
#469=CARTESIAN_POINT('',(-13.,28.,10.));
#470=CARTESIAN_POINT($,(-13.,28.,10.));
#471=CARTESIAN_POINT('',(-13.,28.,-10.));
#472=CARTESIAN_POINT($,(-13.,28.,10.));
#473=CARTESIAN_POINT($,(-13.,28.,-10.));
#474=CARTESIAN_POINT('Origin',(-13.,35.,10.));
#475=CARTESIAN_POINT('',(-13.,0.,10.));
#476=CARTESIAN_POINT($,(-13.,4.04922681950337E-016,10.));
#477=CARTESIAN_POINT('',(-13.,0.,-10.));
#478=CARTESIAN_POINT($,(-13.,-3.79260050587024E-032,-8.00000000000002));
#479=CARTESIAN_POINT($,(-13.,-3.91425259218658E-015,-10.));
#480=CARTESIAN_POINT('Origin',(16.,0.,-10.));
#481=CARTESIAN_POINT('',(-36.,58.,-10.));
#482=CARTESIAN_POINT('Origin',(-36.,35.,-10.));
#483=CARTESIAN_POINT('',(-16.,0.,-10.));
#484=CARTESIAN_POINT($,(-16.,0.,-10.));
#485=CARTESIAN_POINT('',(-16.,35.,-10.));
#486=CARTESIAN_POINT($,(-16.,0.,-10.));
#487=CARTESIAN_POINT('',(-36.,55.,-10.));
#488=CARTESIAN_POINT('Origin',(-36.,35.,-10.));
#489=CARTESIAN_POINT('',(-51.,55.,-10.));
#490=CARTESIAN_POINT($,(-36.,55.,-10.));
#491=CARTESIAN_POINT('',(-51.,58.,-10.));
#492=CARTESIAN_POINT($,(-51.,52.,-10.));
#493=CARTESIAN_POINT($,(-36.,58.,-10.));
#494=CARTESIAN_POINT('Origin',(-16.,0.,10.));
#495=CARTESIAN_POINT('',(-36.,58.,10.));
#496=CARTESIAN_POINT('Origin',(-36.,35.,10.));
#497=CARTESIAN_POINT('',(-51.,58.,10.));
#498=CARTESIAN_POINT($,(-36.,58.,10.));
#499=CARTESIAN_POINT('',(-51.,55.,10.));
#500=CARTESIAN_POINT($,(-51.,52.,10.));
#501=CARTESIAN_POINT('',(-36.,55.,10.));
#502=CARTESIAN_POINT($,(-36.,55.,10.));
#503=CARTESIAN_POINT('',(-16.,35.,10.));
#504=CARTESIAN_POINT('Origin',(-36.,35.,10.));
#505=CARTESIAN_POINT('',(-16.,0.,10.));
#506=CARTESIAN_POINT($,(-16.,0.,10.));
#507=CARTESIAN_POINT($,(16.,0.,10.));
#508=CARTESIAN_POINT('Origin',(-51.,58.,0.));
#509=CARTESIAN_POINT('Origin',(-51.,58.,0.));
#510=CARTESIAN_POINT('Origin',(-51.,58.,0.));
#511=CARTESIAN_POINT('',(-43.,60.,9.79717439317883E-016));
#512=CARTESIAN_POINT('Origin',(-51.,60.,0.));
#513=CARTESIAN_POINT('Origin',(-51.,52.,0.));
#514=CARTESIAN_POINT('Origin',(-51.,55.,0.));
#515=CARTESIAN_POINT('',(-41.,52.,1.22464679914735E-015));
#516=CARTESIAN_POINT('Origin',(-51.,52.,0.));
#517=CARTESIAN_POINT('Origin',(-51.,60.,-1.85037170770859E-016));
#518=CARTESIAN_POINT('Origin',(-51.,58.,-1.85037170770859E-016));
#519=CARTESIAN_POINT('',(-42.75,58.,1.01033360929657E-015));
#520=CARTESIAN_POINT('Origin',(-51.,58.,0.));
#521=CARTESIAN_POINT('Origin',(-51.,58.,1.85037170770859E-016));
#522=CARTESIAN_POINT($,(-36.,58.,10.));
#523=CARTESIAN_POINT('Origin',(-36.,55.,-10.));
#524=CARTESIAN_POINT($,(-36.,55.,10.));
#525=CARTESIAN_POINT('Origin',(-51.,52.,0.));
#526=CARTESIAN_POINT('',(-42.75,52.,1.01033360929657E-015));
#527=CARTESIAN_POINT('Origin',(-51.,52.,0.));
#528=CARTESIAN_POINT('Origin',(-51.,52.,1.85037170770859E-016));
#529=CARTESIAN_POINT('Origin',(-36.,35.,10.));
#530=CARTESIAN_POINT('Origin',(-36.,35.,10.));
#531=CARTESIAN_POINT($,(-16.,35.,10.));
#532=CARTESIAN_POINT('Origin',(-6.4051328343759E-016,0.,6.4051328343759E-016));
#533=CARTESIAN_POINT($,(-16.,0.,10.));
#534=CARTESIAN_POINT('Origin',(-16.,0.,-10.));
#535=UNCERTAINTY_MEASURE_WITH_UNIT(LENGTH_MEASURE(0.01),#537,
'DISTANCE_ACCURACY_VALUE',
'Maximum model space distance between geometric entities at asserted c
onnectivities');
#536=(
GEOMETRIC_REPRESENTATION_CONTEXT(3)
GLOBAL_UNCERTAINTY_ASSIGNED_CONTEXT((#535))
GLOBAL_UNIT_ASSIGNED_CONTEXT((#537,#540,#538))
REPRESENTATION_CONTEXT('','3D')
);
#537=(
LENGTH_UNIT()
NAMED_UNIT(*)
SI_UNIT(.MILLI.,.METRE.)
);
#538=(
NAMED_UNIT(*)
SI_UNIT($,.STERADIAN.)
SOLID_ANGLE_UNIT()
);
#539=DIMENSIONAL_EXPONENTS(0.,0.,0.,0.,0.,0.,0.);
#540=(
CONVERSION_BASED_UNIT('degree',#542)
NAMED_UNIT(#539)
PLANE_ANGLE_UNIT()
);
#541=(
NAMED_UNIT(*)
PLANE_ANGLE_UNIT()
SI_UNIT($,.RADIAN.)
);
#542=PLANE_ANGLE_MEASURE_WITH_UNIT(PLANE_ANGLE_MEASURE(0.01745329252),#541);
#543=SHAPE_DEFINITION_REPRESENTATION(#544,#545);
#544=PRODUCT_DEFINITION_SHAPE('',$,#547);
#545=SHAPE_REPRESENTATION('',(#319),#536);
#546=PRODUCT_DEFINITION_CONTEXT('3D Mechanical Parts',#550,'design');
#547=PRODUCT_DEFINITION('Holder2','Holder2',#548,#546);
#548=PRODUCT_DEFINITION_FORMATION('',$,#552);
#549=APPLICATION_PROTOCOL_DEFINITION('international standard',
'automotive_design',2009,#550);
#550=APPLICATION_CONTEXT(
'Core Data for Automotive Mechanical Design Process');
#551=PRODUCT_CONTEXT('3D Mechanical Parts',#550,'mechanical');
#552=PRODUCT('Holder2','Holder2',$,(#551));
#553=PRESENTATION_STYLE_ASSIGNMENT((#554));
#554=SURFACE_STYLE_USAGE(.BOTH.,#555);
#555=SURFACE_SIDE_STYLE($,(#556));
#556=SURFACE_STYLE_FILL_AREA(#557);
#557=FILL_AREA_STYLE($,(#558));
#558=FILL_AREA_STYLE_COLOUR($,#559);
#559=COLOUR_RGB('',0.749019607843137,0.749019607843137,0.749019607843137);
ENDSEC;
END-ISO-10303-21;
