0
SECTION
2
HEADER
9
$INSUNITS
70
4
9
$ACADVER
1
AC1014
9
$HANDSEED
5
FFFF
0
ENDSEC
0
SECTION
2
TABLES
0
TABLE
2
VPORT
5
8
100
AcDbSymbolTable
0
ENDTAB
0
TABLE
2
LTYPE
5
5
100
AcDbSymbolTable
0
LTYPE
5
14
100
AcDbSymbolTableRecord
100
AcDbLinetypeTableRecord
2
BYBLOCK
70
0
0
LTYPE
5
15
100
AcDbSymbolTableRecord
100
AcDbLinetypeTableRecord
2
BYLAYER
70
0
0
ENDTAB
0
TABLE
2
LAYER
5
2
100
AcDbSymbolTable
70
2
0
LAYER
5
50
100
AcDbSymbolTableRecord
100
AcDbLayerTableRecord
2
0
70
0
6
CONTINUOUS
0
ENDTAB
0
TABLE
2
STYLE
5
3
100
AcDbSymbolTable
70
1
0
STYLE
5
11
100
AcDbSymbolTableRecord
100
AcDbTextStyleTableRecord
2
STANDARD
70
0
0
ENDTAB
0
TABLE
2
VIEW
5
6
100
AcDbSymbolTable
70
0
0
ENDTAB
0
TABLE
2
UCS
5
7
100
AcDbSymbolTable
70
0
0
ENDTAB
0
TABLE
2
APPID
5
9
100
AcDbSymbolTable
70
2
0
APPID
5
12
100
AcDbSymbolTableRecord
100
AcDbRegAppTableRecord
2
ACAD
70
0
0
ENDTAB
0
TABLE
2
DIMSTYLE
5
A
100
AcDbSymbolTable
70
1
0
ENDTAB
0
TABLE
2
BLOCK_RECORD
5
1
100
AcDbSymbolTable
70
1
0
BLOCK_RECORD
5
1F
100
AcDbSymbolTableRecord
100
AcDbBlockTableRecord
2
*MODEL_SPACE
0
BLOCK_RECORD
5
1B
100
AcDbSymbolTableRecord
100
AcDbBlockTableRecord
2
*PAPER_SPACE
0
ENDTAB
0
ENDSEC
0
SECTION
2
BLOCKS
0
BLOCK
5
20
100
AcDbEntity
100
AcDbBlockBegin
2
*MODEL_SPACE
0
ENDBLK
5
21
100
AcDbEntity
100
AcDbBlockEnd
0
BLOCK
5
1C
100
AcDbEntity
100
AcDbBlockBegin
2
*PAPER_SPACE
0
ENDBLK
5
1D
100
AcDbEntity
100
AcDbBlockEnd
0
ENDSEC
0
SECTION
2
ENTITIES
0
CIRCLE
5
100
100
AcDbEntity
8
0
100
AcDbCircle
10
0
20
0
30
0
40
67.5
0
CIRCLE
5
101
100
AcDbEntity
8
0
100
AcDbCircle
10
0
20
-5.500000074505806
30
0
40
0.97500000000000009
0
CIRCLE
5
102
100
AcDbEntity
8
0
100
AcDbCircle
10
4.7631397853383337
20
2.7500000372529021
30
0
40
0.97500000000000009
0
CIRCLE
5
103
100
AcDbEntity
8
0
100
AcDbCircle
10
-4.7631397853383319
20
2.7500000372529056
30
0
40
0.97500000000000009
0
CIRCLE
5
104
100
AcDbEntity
8
0
100
AcDbCircle
10
0
20
0
30
0
40
2.4750000000000001
0
LINE
5
105
100
AcDbEntity
8
0
100
AcDbLine
10
2.7662253601887206
20
15.29016881762626
30
0
11
24.137307952406665
21
52.222001012457504
31
0
0
LINE
5
106
100
AcDbEntity
8
0
100
AcDbLine
10
25.637307952406637
20
54.820077223810806
30
0
11
24.137307952406665
21
52.222001012457504
31
0
0
ARC
5
107
100
AcDbEntity
8
0
100
AcDbCircle
10
26.503333356191074
20
54.320077223810813
30
0
40
0.99999999999998757
100
AcDbArc
50
59.999999999999112
51
150.00000000000034
0
LINE
5
108
100
AcDbEntity
8
0
100
AcDbLine
10
34.364549288358852
20
50.936102627595233
30
0
11
27.003333356191082
21
55.186102627595233
31
0
0
ARC
5
109
100
AcDbEntity
8
0
100
AcDbCircle
10
33.864549288358852
20
50.070077223810799
30
0
40
0.99999999999999201
100
AcDbArc
50
-29.999999999999048
51
59.999999999999872
0
LINE
5
110
100
AcDbEntity
8
0
100
AcDbLine
10
33.230574692143279
20
46.972001012457497
30
0
11
34.730574692143286
21
49.57007722381082
31
0
0
LINE
5
111
100
AcDbEntity
8
0
100
AcDbLine
10
33.230574692143279
20
46.972001012457497
30
0
11
11.474587282592948
21
9.3750064392880699
31
0
0
LINE
5
112
100
AcDbEntity
8
0
100
AcDbLine
10
13.883228533573064
20
5.2031174153842485
30
0
11
11.440366622139386
21
9.4342783618621979
31
0
0
ARC
5
113
100
AcDbEntity
8
0
100
AcDbCircle
10
14.580671480125547
20
-0.00053702570306790598
30
0
40
5.2501853496751503
100
AcDbArc
50
89.518554086648209
51
97.63382770419085
0
LINE
5
114
100
AcDbEntity
8
0
100
AcDbLine
10
14.624787304311377
20
5.2494629742969314
30
0
11
57.190695467215519
21
5.2114419725836747
31
0
0
LINE
5
115
100
AcDbEntity
8
0
100
AcDbLine
10
60.190695467215498
20
5.2114419725836925
30
0
11
57.190695467215519
21
5.2114419725836747
31
0
0
ARC
5
116
100
AcDbEntity
8
0
100
AcDbCircle
10
60.190695467215477
20
4.211441972583696
30
0
40
1.0000000000000082
100
AcDbArc
50
0
51
89.999999999998778
0
LINE
5
117
100
AcDbEntity
8
0
100
AcDbLine
10
61.190695467215519
20
-4.2885580274163404
30
0
11
61.190695467215491
21
4.2114419725836827
31
0
0
ARC
5
118
100
AcDbEntity
8
0
100
AcDbCircle
10
60.190695467215534
20
-4.2885580274163404
30
0
40
0.99999999999999067
100
AcDbArc
50
-90.000000000000398
51
0
0
LINE
5
119
100
AcDbEntity
8
0
100
AcDbLine
10
57.190695467215534
20
-5.2885580274163191
30
0
11
60.190695467215527
21
-5.288558027416328
31
0
0
LINE
5
120
100
AcDbEntity
8
0
100
AcDbLine
10
57.190695467215534
20
-5.2885580274163191
30
0
11
14.624787304311385
21
-5.2505370257030668
31
0
0
ARC
5
121
100
AcDbEntity
8
0
100
AcDbCircle
10
14.580671480125547
20
-0.00053702570306790598
30
0
40
5.2501853496875315
100
AcDbArc
50
179.63895325280686
51
270.48144591335188
0
ARC
5
122
100
AcDbEntity
8
0
100
AcDbCircle
10
-0.048336664827803098
20
0.091648223564744113
30
0
40
9.3791132468034846
100
AcDbArc
50
-0.36104674719314861
51
28.181820862638308
0
ARC
5
123
100
AcDbEntity
8
0
100
AcDbCircle
10
12.665705843329329
20
7.3119285742543552
30
0
40
5.2500000000000089
100
AcDbArc
50
207.07203439189732
51
212.11228513784272
0
ARC
5
124
100
AcDbEntity
8
0
100
AcDbCircle
10
7.3426585173326133
20
12.716783563242323
30
0
40
5.2503382852237905
100
AcDbArc
50
149.23683745763114
51
239.65447958591039
0
ARC
5
125
100
AcDbEntity
8
0
100
AcDbCircle
10
-0.048336664827803098
20
0.091648223564744113
30
0
40
9.3791132468034828
100
AcDbArc
50
31.002498667101769
51
59.654479585910451
0
LWPOLYLINE
5
126
100
AcDbEntity
8
0
100
AcDbPolyline
90
6
70
1
43
0.0
10
46.962222375045997
20
33.145035738373601
10
49.560298586399263
20
34.645035738373593
42
-0.41421356237309681
10
50.926323990183711
20
34.279010334589152
10
55.176323990183739
20
26.917794402421404
42
-0.41421356237309603
10
54.810298586399313
20
25.551768998636991
10
52.212222375045997
20
24.051768998636991
0
ENDSEC
0
SECTION
2
OBJECTS
0
DICTIONARY
5
C
100
AcDbDictionary
3
ACAD_GROUP
350
D
3
ACAD_MLINESTYLE
350
17
0
DICTIONARY
5
D
100
AcDbDictionary
0
DICTIONARY
5
1A
330
C
100
AcDbDictionary
0
DICTIONARY
5
17
100
AcDbDictionary
0
ENDSEC
0
EOF
