  0
SECTION
  2
HEADER
  9
$ACADVER
  1
AC1024
  9
$ACADMAINTVER
 70
     6
  9
$DWGCODEPAGE
  3
ANSI_1252
  9
$INSBASE
 10
0.0
 20
0.0
 30
0.0
  9
$EXTMIN
 10
1.000000000000000E+20
 20
1.000000000000000E+20
 30
1.000000000000000E+20
  9
$EXTMAX
 10
-1.000000000000000E+20
 20
-1.000000000000000E+20
 30
-1.000000000000000E+20
  9
$LIMMIN
 10
0.0
 20
0.0
  9
$LIMMAX
 10
12.0
 20
9.0
  9
$ORTHOMODE
 70
     0
  9
$REGENMODE
 70
     1
  9
$FILLMODE
 70
     1
  9
$QTEXTMODE
 70
     0
  9
$MIRRTEXT
 70
     1
  9
$LTSCALE
 40
1.0
  9
$ATTMODE
 70
     1
  9
$TEXTSIZE
 40
0.2
  9
$TRACEWID
 40
0.05
  9
$TEXTSTYLE
  7
Standard
  9
$CLAYER
  8
0
  9
$CELTYPE
  6
ByLayer
  9
$CECOLOR
 62
   256
  9
$CELTSCALE
 40
1.0
  9
$DISPSILH
 70
     0
  9
$DIMSCALE
 40
1.0
  9
$DIMASZ
 40
0.18
  9
$DIMEXO
 40
0.0625
  9
$DIMDLI
 40
0.38
  9
$DIMRND
 40
0.0
  9
$DIMDLE
 40
0.0
  9
$DIMEXE
 40
0.18
  9
$DIMTP
 40
0.0
  9
$DIMTM
 40
0.0
  9
$DIMTXT
 40
0.18
  9
$DIMCEN
 40
0.09
  9
$DIMTSZ
 40
0.0
  9
$DIMTOL
 70
     0
  9
$DIMLIM
 70
     0
  9
$DIMTIH
 70
     1
  9
$DIMTOH
 70
     1
  9
$DIMSE1
 70
     0
  9
$DIMSE2
 70
     0
  9
$DIMTAD
 70
     0
  9
$DIMZIN
 70
     0
  9
$DIMBLK
  1

  9
$DIMASO
 70
     1
  9
$DIMSHO
 70
     1
  9
$DIMPOST
  1

  9
$DIMAPOST
  1

  9
$DIMALT
 70
     0
  9
$DIMALTD
 70
     2
  9
$DIMALTF
 40
25.4
  9
$DIMLFAC
 40
1.0
  9
$DIMTOFL
 70
     0
  9
$DIMTVP
 40
0.0
  9
$DIMTIX
 70
     0
  9
$DIMSOXD
 70
     0
  9
$DIMSAH
 70
     0
  9
$DIMBLK1
  1

  9
$DIMBLK2
  1

  9
$DIMSTYLE
  2
Standard
  9
$DIMCLRD
 70
     0
  9
$DIMCLRE
 70
     0
  9
$DIMCLRT
 70
     0
  9
$DIMTFAC
 40
1.0
  9
$DIMGAP
 40
0.09
  9
$DIMJUST
 70
     0
  9
$DIMSD1
 70
     0
  9
$DIMSD2
 70
     0
  9
$DIMTOLJ
 70
     1
  9
$DIMTZIN
 70
     0
  9
$DIMALTZ
 70
     0
  9
$DIMALTTZ
 70
     0
  9
$DIMUPT
 70
     0
  9
$DIMDEC
 70
     4
  9
$DIMTDEC
 70
     4
  9
$DIMALTU
 70
     2
  9
$DIMALTTD
 70
     2
  9
$DIMTXSTY
  7
Standard
  9
$DIMAUNIT
 70
     0
  9
$DIMADEC
 70
     0
  9
$DIMALTRND
 40
0.0
  9
$DIMAZIN
 70
     0
  9
$DIMDSEP
 70
    46
  9
$DIMATFIT
 70
     3
  9
$DIMFRAC
 70
     0
  9
$DIMLDRBLK
  1

  9
$DIMLUNIT
 70
     2
  9
$DIMLWD
 70
    -2
  9
$DIMLWE
 70
    -2
  9
$DIMTMOVE
 70
     0
  9
$DIMFXL
 40
1.0
  9
$DIMFXLON
 70
     0
  9
$DIMJOGANG
 40
0.7853981633974483
  9
$DIMTFILL
 70
     0
  9
$DIMTFILLCLR
 70
     0
  9
$DIMARCSYM
 70
     0
  9
$DIMLTYPE
  6

  9
$DIMLTEX1
  6

  9
$DIMLTEX2
  6

  9
$DIMTXTDIRECTION
 70
     0
  9
$LUNITS
 70
     2
  9
$LUPREC
 70
     4
  9
$SKETCHINC
 40
0.1
  9
$FILLETRAD
 40
0.5
  9
$AUNITS
 70
     0
  9
$AUPREC
 70
     0
  9
$MENU
  1
.
  9
$ELEVATION
 40
0.0
  9
$PELEVATION
 40
0.0
  9
$THICKNESS
 40
0.0
  9
$LIMCHECK
 70
     0
  9
$CHAMFERA
 40
0.5
  9
$CHAMFERB
 40
0.5
  9
$CHAMFERC
 40
1.0
  9
$CHAMFERD
 40
0.0
  9
$SKPOLY
 70
     0
  9
$TDCREATE
 40
2458290.519504711
  9
$TDUCREATE
 40
2458290.436171378
  9
$TDUPDATE
 40
2458290.519504757
  9
$TDUUPDATE
 40
2458290.436171424
  9
$TDINDWG
 40
0.0000000116
  9
$TDUSRTIMER
 40
0.0000000116
  9
$USRTIMER
 70
     1
  9
$ANGBASE
 50
0.0
  9
$ANGDIR
 70
     0
  9
$PDMODE
 70
     0
  9
$PDSIZE
 40
0.0
  9
$PLINEWID
 40
0.0
  9
$SPLFRAME
 70
     0
  9
$SPLINETYPE
 70
     6
  9
$SPLINESEGS
 70
     8
  9
$HANDSEED
  5
D8
  9
$SURFTAB1
 70
     6
  9
$SURFTAB2
 70
     6
  9
$SURFTYPE
 70
     6
  9
$SURFU
 70
     6
  9
$SURFV
 70
     6
  9
$UCSBASE
  2

  9
$UCSNAME
  2

  9
$UCSORG
 10
0.0
 20
0.0
 30
0.0
  9
$UCSXDIR
 10
1.0
 20
0.0
 30
0.0
  9
$UCSYDIR
 10
0.0
 20
1.0
 30
0.0
  9
$UCSORTHOREF
  2

  9
$UCSORTHOVIEW
 70
     0
  9
$UCSORGTOP
 10
0.0
 20
0.0
 30
0.0
  9
$UCSORGBOTTOM
 10
0.0
 20
0.0
 30
0.0
  9
$UCSORGLEFT
 10
0.0
 20
0.0
 30
0.0
  9
$UCSORGRIGHT
 10
0.0
 20
0.0
 30
0.0
  9
$UCSORGFRONT
 10
0.0
 20
0.0
 30
0.0
  9
$UCSORGBACK
 10
0.0
 20
0.0
 30
0.0
  9
$PUCSBASE
  2

  9
$PUCSNAME
  2

  9
$PUCSORG
 10
0.0
 20
0.0
 30
0.0
  9
$PUCSXDIR
 10
1.0
 20
0.0
 30
0.0
  9
$PUCSYDIR
 10
0.0
 20
1.0
 30
0.0
  9
$PUCSORTHOREF
  2

  9
$PUCSORTHOVIEW
 70
     0
  9
$PUCSORGTOP
 10
0.0
 20
0.0
 30
0.0
  9
$PUCSORGBOTTOM
 10
0.0
 20
0.0
 30
0.0
  9
$PUCSORGLEFT
 10
0.0
 20
0.0
 30
0.0
  9
$PUCSORGRIGHT
 10
0.0
 20
0.0
 30
0.0
  9
$PUCSORGFRONT
 10
0.0
 20
0.0
 30
0.0
  9
$PUCSORGBACK
 10
0.0
 20
0.0
 30
0.0
  9
$USERI1
 70
     0
  9
$USERI2
 70
     0
  9
$USERI3
 70
     0
  9
$USERI4
 70
     0
  9
$USERI5
 70
     0
  9
$USERR1
 40
0.0
  9
$USERR2
 40
0.0
  9
$USERR3
 40
0.0
  9
$USERR4
 40
0.0
  9
$USERR5
 40
0.0
  9
$WORLDVIEW
 70
     1
  9
$SHADEDGE
 70
     3
  9
$SHADEDIF
 70
    70
  9
$TILEMODE
 70
     1
  9
$MAXACTVP
 70
    64
  9
$PINSBASE
 10
0.0
 20
0.0
 30
0.0
  9
$PLIMCHECK
 70
     0
  9
$PEXTMIN
 10
1.000000000000000E+20
 20
1.000000000000000E+20
 30
1.000000000000000E+20
  9
$PEXTMAX
 10
-1.000000000000000E+20
 20
-1.000000000000000E+20
 30
-1.000000000000000E+20
  9
$PLIMMIN
 10
0.0
 20
0.0
  9
$PLIMMAX
 10
12.0
 20
9.0
  9
$UNITMODE
 70
     0
  9
$VISRETAIN
 70
     1
  9
$PLINEGEN
 70
     0
  9
$PSLTSCALE
 70
     1
  9
$TREEDEPTH
 70
  3020
  9
$CMLSTYLE
  2
Standard
  9
$CMLJUST
 70
     0
  9
$CMLSCALE
 40
1.0
  9
$PROXYGRAPHICS
 70
     1
  9
$MEASUREMENT
 70
     0
  9
$CELWEIGHT
370
    -1
  9
$ENDCAPS
280
     0
  9
$JOINSTYLE
280
     0
  9
$LWDISPLAY
290
     1
  9
$INSUNITS
 70
     1
  9
$HYPERLINKBASE
  1

  9
$STYLESHEET
  1

  9
$XEDIT
290
     1
  9
$CEPSNTYPE
380
     0
  9
$PSTYLEMODE
290
     1
  9
$FINGERPRINTGUID
  2
{25F03AAC-6BED-4AB3-BAB9-04B7CA5C128E}
  9
$VERSIONGUID
  2
{FAEB1C32-E019-11D5-929B-00C0DF256EC4}
  9
$EXTNAMES
290
     1
  9
$PSVPSCALE
 40
0.0
  9
$OLESTARTUP
290
     0
  9
$SORTENTS
280
   127
  9
$INDEXCTL
280
     0
  9
$HIDETEXT
280
     1
  9
$XCLIPFRAME
280
     2
  9
$HALOGAP
280
     0
  9
$OBSCOLOR
 70
   257
  9
$OBSLTYPE
280
     0
  9
$INTERSECTIONDISPLAY
280
     0
  9
$INTERSECTIONCOLOR
 70
   257
  9
$DIMASSOC
280
     2
  9
$PROJECTNAME
  1

  9
$CAMERADISPLAY
290
     0
  9
$LENSLENGTH
 40
50.0
  9
$CAMERAHEIGHT
 40
0.0
  9
$STEPSPERSEC
 40
2.0
  9
$STEPSIZE
 40
6.0
  9
$3DDWFPREC
 40
2.0
  9
$PSOLWIDTH
 40
0.25
  9
$PSOLHEIGHT
 40
4.0
  9
$LOFTANG1
 40
1.570796326794897
  9
$LOFTANG2
 40
1.570796326794897
  9
$LOFTMAG1
 40
0.0
  9
$LOFTMAG2
 40
0.0
  9
$LOFTPARAM
 70
     7
  9
$LOFTNORMALS
280
     1
  9
$LATITUDE
 40
37.795
  9
$LONGITUDE
 40
-122.394
  9
$NORTHDIRECTION
 40
0.0
  9
$TIMEZONE
 70
 -8000
  9
$LIGHTGLYPHDISPLAY
280
     1
  9
$TILEMODELIGHTSYNCH
280
     1
  9
$CMATERIAL
347
3C
  9
$SOLIDHIST
280
     1
  9
$SHOWHIST
280
     1
  9
$DWFFRAME
280
     2
  9
$DGNFRAME
280
     2
  9
$REALWORLDSCALE
290
     1
  9
$INTERFERECOLOR
 62
   256
  9
$CSHADOW
280
     0
  9
$SHADOWPLANELOCATION
 40
0.0
  0
ENDSEC
  0
SECTION
  2
CLASSES
  0
CLASS
  1
ACDBDICTIONARYWDFLT
  2
AcDbDictionaryWithDefault
  3
ObjectDBX Classes
 90
        0
 91
        4
280
     0
281
     0
  0
CLASS
  1
VISUALSTYLE
  2
AcDbVisualStyle
  3
ObjectDBX Classes
 90
     4095
 91
        4
280
     0
281
     0
  0
CLASS
  1
MATERIAL
  2
AcDbMaterial
  3
ObjectDBX Classes
 90
     1153
 91
        4
280
     0
281
     0
  0
CLASS
  1
SUN
  2
AcDbSun
  3
SCENEOE
 90
     1024
 91
        4
280
     0
281
     0
  0
ENDSEC
  0
SECTION
  2
TABLES
  0
TABLE
  2
VPORT
  5
8
330
0
100
AcDbSymbolTable
 70
     1
  0
VPORT
  5
29
330
8
100
AcDbSymbolTableRecord
100
AcDbViewportTableRecord
  2
*Active
 70
     0
 10
0.0
 20
0.0
 11
1.0
 21
1.0
 12
0.0
 22
0.0
 13
0.0
 23
0.0
 14
0.5
 24
0.5
 15
0.5
 25
0.5
 16
0.0
 26
0.0
 36
1.0
 17
599.999152627778
 27
-400.0006110111112
 37
0.0
 40
800.0012220222224
 41
1.499995590284514
 42
50.0
 43
0.0
 44
0.0
 50
0.0
 51
0.0
 71
     0
 72
   100
 73
     1
 74
     3
 75
     0
 76
     0
 77
     0
 78
     0
281
     0
 65
     1
110
0.0
120
0.0
130
0.0
111
1.0
121
0.0
131
0.0
112
0.0
122
1.0
132
0.0
 79
     0
146
0.0
 60
     3
 61
     5
292
     1
282
     1
141
0.0
142
0.0
 63
   250
361
3F
  0
ENDTAB
  0
TABLE
  2
LTYPE
  5
5
330
0
100
AcDbSymbolTable
 70
     1
  0
LTYPE
  5
14
330
5
100
AcDbSymbolTableRecord
100
AcDbLinetypeTableRecord
  2
ByBlock
 70
     0
  3

 72
    65
 73
     0
 40
0.0
  0
LTYPE
  5
15
330
5
100
AcDbSymbolTableRecord
100
AcDbLinetypeTableRecord
  2
ByLayer
 70
     0
  3

 72
    65
 73
     0
 40
0.0
  0
LTYPE
  5
16
330
5
100
AcDbSymbolTableRecord
100
AcDbLinetypeTableRecord
  2
Continuous
 70
     0
  3
Solid line
 72
    65
 73
     0
 40
0.0
  0
ENDTAB
  0
TABLE
  2
LAYER
  5
2
330
0
100
AcDbSymbolTable
 70
     4
  0
LAYER
  5
10
330
2
100
AcDbSymbolTableRecord
100
AcDbLayerTableRecord
  2
0
 70
     0
 62
     7
  6
Continuous
370
    -3
390
F
347
3E
  0
LAYER
  5
40
330
2
100
AcDbSymbolTableRecord
100
AcDbLayerTableRecord
  2
Calque 1
 70
     0
 62
     7
  6
Continuous
370
    -3
390
F
347
3E
  0
LAYER
  5
51
330
2
100
AcDbSymbolTableRecord
100
AcDbLayerTableRecord
  2
Calque 2
 70
     0
 62
     7
  6
Continuous
370
    -3
390
F
347
3E
  0
LAYER
  5
91
330
2
100
AcDbSymbolTableRecord
100
AcDbLayerTableRecord
  2
Calque 3
 70
     0
 62
     7
  6
Continuous
370
    -3
390
F
347
3E
  0
ENDTAB
  0
TABLE
  2
STYLE
  5
3
330
0
100
AcDbSymbolTable
 70
     1
  0
STYLE
  5
11
330
3
100
AcDbSymbolTableRecord
100
AcDbTextStyleTableRecord
  2
Standard
 70
     0
 40
0.0
 41
1.0
 50
0.0
 71
     0
 42
0.2
  3
txt
  4

  0
ENDTAB
  0
TABLE
  2
VIEW
  5
6
330
0
100
AcDbSymbolTable
 70
     0
  0
ENDTAB
  0
TABLE
  2
UCS
  5
7
330
0
100
AcDbSymbolTable
 70
     0
  0
ENDTAB
  0
TABLE
  2
APPID
  5
9
330
0
100
AcDbSymbolTable
 70
     1
  0
APPID
  5
12
330
9
100
AcDbSymbolTableRecord
100
AcDbRegAppTableRecord
  2
ACAD
 70
     0
  0
ENDTAB
  0
TABLE
  2
DIMSTYLE
  5
A
330
0
100
AcDbSymbolTable
 70
     1
100
AcDbDimStyleTable
  0
DIMSTYLE
105
27
330
A
100
AcDbSymbolTableRecord
100
AcDbDimStyleTableRecord
  2
Standard
 70
     0
178
     0
340
11
  0
ENDTAB
  0
TABLE
  2
BLOCK_RECORD
  5
1
330
0
100
AcDbSymbolTable
 70
     2
  0
BLOCK_RECORD
  5
1F
330
1
100
AcDbSymbolTableRecord
100
AcDbBlockTableRecord
  2
*Model_Space
340
22
 70
     0
280
     1
281
     0
  0
BLOCK_RECORD
  5
1B
330
1
100
AcDbSymbolTableRecord
100
AcDbBlockTableRecord
  2
*Paper_Space
340
1E
 70
     0
280
     1
281
     0
  0
BLOCK_RECORD
  5
23
330
1
100
AcDbSymbolTableRecord
100
AcDbBlockTableRecord
  2
*Paper_Space0
340
26
 70
     0
280
     1
281
     0
  0
BLOCK_RECORD
  5
92
330
1
100
AcDbSymbolTableRecord
100
AcDbBlockTableRecord
  2
block 2
340
0
102
{BLKREFS
331
93
102
}
 70
     0
280
     1
281
     0
  0
ENDTAB
  0
ENDSEC
  0
SECTION
  2
BLOCKS
  0
BLOCK
  5
20
330
1F
100
AcDbEntity
  8
0
100
AcDbBlockBegin
  2
*Model_Space
 70
     0
 10
0.0
 20
0.0
 30
0.0
  3
*Model_Space
  1

  0
ENDBLK
  5
21
330
1F
100
AcDbEntity
  8
0
100
AcDbBlockEnd
  0
BLOCK
  5
1C
330
1B
100
AcDbEntity
 67
     1
  8
0
100
AcDbBlockBegin
  2
*Paper_Space
 70
     0
 10
0.0
 20
0.0
 30
0.0
  3
*Paper_Space
  1

  0
ENDBLK
  5
1D
330
1B
100
AcDbEntity
 67
     1
  8
0
100
AcDbBlockEnd
  0
BLOCK
  5
24
330
23
100
AcDbEntity
  8
0
100
AcDbBlockBegin
  2
*Paper_Space0
 70
     0
 10
0.0
 20
0.0
 30
0.0
  3
*Paper_Space0
  1

  0
ENDBLK
  5
25
330
23
100
AcDbEntity
  8
0
100
AcDbBlockEnd
  0
BLOCK
  5
94
330
92
100
AcDbEntity
  8
0
100
AcDbBlockBegin
  2
block 2
 70
     0
 10
0.0
 20
0.0
 30
0.0
  3
block 2
  1

  0
SPLINE
  5
96
330
92
100
AcDbEntity
  8
Calque 3
370
     0
100
AcDbSpline
210
0.0
220
0.0
230
1.0
 70
    11
 71
     3
 72
   110
 73
   106
 74
     0
 42
0.0000000001
 43
0.0000000001
 12
1.0
 22
0.0
 32
0.0
 13
1.0
 23
0.0
 33
0.0
 40
0.0
 40
0.0
 40
0.0
 40
0.0
 40
1.0
 40
1.0
 40
1.0
 40
2.0
 40
2.0
 40
2.0
 40
3.0
 40
3.0
 40
3.0
 40
4.0
 40
4.0
 40
4.0
 40
5.0
 40
5.0
 40
5.0
 40
6.0
 40
6.0
 40
6.0
 40
7.0
 40
7.0
 40
7.0
 40
8.0
 40
8.0
 40
8.0
 40
9.0
 40
9.0
 40
9.0
 40
10.0
 40
10.0
 40
10.0
 40
11.0
 40
11.0
 40
11.0
 40
12.0
 40
12.0
 40
12.0
 40
13.0
 40
13.0
 40
13.0
 40
14.0
 40
14.0
 40
14.0
 40
15.0
 40
15.0
 40
15.0
 40
16.0
 40
16.0
 40
16.0
 40
17.0
 40
17.0
 40
17.0
 40
18.0
 40
18.0
 40
18.0
 40
19.0
 40
19.0
 40
19.0
 40
20.0
 40
20.0
 40
20.0
 40
21.0
 40
21.0
 40
21.0
 40
22.0
 40
22.0
 40
22.0
 40
23.0
 40
23.0
 40
23.0
 40
24.0
 40
24.0
 40
24.0
 40
25.0
 40
25.0
 40
25.0
 40
26.0
 40
26.0
 40
26.0
 40
27.0
 40
27.0
 40
27.0
 40
28.0
 40
28.0
 40
28.0
 40
29.0
 40
29.0
 40
29.0
 40
30.0
 40
30.0
 40
30.0
 40
31.0
 40
31.0
 40
31.0
 40
32.0
 40
32.0
 40
32.0
 40
33.0
 40
33.0
 40
33.0
 40
34.0
 40
34.0
 40
34.0
 40
35.0
 40
35.0
 40
35.0
 40
35.0
 10
171.3643767429952
 20
-613.0426593519466
 30
0.0
 10
171.3643767429952
 20
-613.0426593519466
 30
0.0
 10
173.2808833614397
 20
-612.8748832018148
 30
0.0
 10
173.2808833614397
 20
-612.8748832018148
 30
0.0
 10
173.3714893727017
 20
-613.6431394950256
 30
0.0
 10
173.5828459807218
 20
-614.2732474592777
 30
0.0
 10
173.9144364211771
 20
-614.7652070945715
 30
0.0
 10
174.2460268616324
 20
-615.2575112394136
 30
0.0
 10
174.7610686366773
 20
-615.65541976796
 30
0.0
 10
175.4592172367632
 20
-615.9592771897591
 30
0.0
 10
176.157365836849
 20
-616.263134611558
 30
0.0
 10
176.942847607486
 20
-616.4147188129091
 30
0.0
 10
177.8156625486741
 20
-616.4147188129091
 30
0.0
 10
178.5908090328552
 20
-616.4147188129091
 30
0.0
 10
179.2750049962259
 20
-616.2996526237017
 30
0.0
 10
179.8684226935602
 20
-616.0691757357384
 30
0.0
 10
180.4618403908945
 20
-615.8386988477753
 30
0.0
 10
180.9035016321035
 20
-615.5231281013264
 30
0.0
 10
181.193234162413
 20
-615.1214299677463
 30
0.0
 10
181.4829666927225
 20
-614.7200763437146
 30
0.0
 10
181.6280052126515
 20
-614.2818601979909
 30
0.0
 10
181.6280052126515
 20
-613.8071260401234
 30
0.0
 10
181.6280052126515
 20
-613.325157181737
 30
0.0
 10
181.4881343359504
 20
-612.9048555325365
 30
0.0
 10
181.2090816016451
 20
-612.5451875638764
 30
0.0
 10
180.9296843577914
 20
-612.1855195952163
 30
0.0
 10
180.4689028366392
 20
-611.8837292307085
 30
0.0
 10
179.8265647834144
 20
-611.6391274512557
 30
0.0
 10
179.4145313633785
 20
-611.4785860016431
 30
0.0
 10
178.5033036075299
 20
-611.229161088511
 30
0.0
 10
177.0930537706429
 20
-610.8901636927624
 30
0.0
 10
175.6826316789816
 20
-610.5518553161108
 30
0.0
 10
174.6947505485862
 20
-610.2321504550797
 30
0.0
 10
174.1292381246825
 20
-609.9320826383145
 30
0.0
 10
173.3961218054213
 20
-609.5479544917091
 30
0.0
 10
172.8497296614607
 20
-609.071497786099
 30
0.0
 10
172.4902339475748
 20
-608.5023680119357
 30
0.0
 10
172.1305659789148
 20
-607.933582747321
 30
0.0
 10
171.9507319945847
 20
-607.2962400825497
 30
0.0
 10
171.9507319945847
 20
-606.5910290367191
 30
0.0
 10
171.9507319945847
 20
-605.8162270620865
 30
0.0
 10
172.1707013413179
 20
-605.0917234815385
 30
0.0
 10
172.6106400347843
 20
-604.4178628046235
 30
0.0
 10
173.0504064734765
 20
-603.7443466372572
 30
0.0
 10
173.6927445267013
 20
-603.2327499576976
 30
0.0
 10
174.5376541944588
 20
-602.8837617850418
 30
0.0
 10
175.3823916074421
 20
-602.5344291028374
 30
0.0
 10
176.3215246367212
 20
-602.3601072712838
 30
0.0
 10
177.3548810275219
 20
-602.3601072712838
 30
0.0
 10
178.4929683210742
 20
-602.3601072712838
 30
0.0
 10
179.4966968907017
 20
-602.5433863510991
 30
0.0
 10
180.3658944816302
 20
-602.9099445107297
 30
0.0
 10
181.235264327333
 20
-603.2765026703603
 30
0.0
 10
181.9036128514715
 20
-603.8156601138019
 30
0.0
 10
182.3714568183684
 20
-604.527761350603
 30
0.0
 10
182.8393007852654
 20
-605.2402070969526
 30
0.0
 10
183.0906205009143
 20
-606.0463594405011
 30
0.0
 10
183.1255882200896
 20
-606.947251909894
 30
0.0
 10
183.1255882200896
 20
-606.947251909894
 30
0.0
 10
181.1775589779551
 20
-607.0936684680171
 30
0.0
 10
181.1775589779551
 20
-607.0936684680171
 30
0.0
 10
181.0728280752035
 20
-606.1235295793707
 30
0.0
 10
180.7185000045455
 20
-605.3904132601095
 30
0.0
 10
180.1145747659813
 20
-604.8943195102336
 30
0.0
 10
179.510649527417
 20
-604.3989147794547
 30
0.0
 10
178.6185420515115
 20
-604.1508679045166
 30
0.0
 10
177.4387691025877
 20
-604.1508679045166
 30
0.0
 10
176.2097312882248
 20
-604.1508679045166
 30
0.0
 10
175.3143509716084
 20
-604.376177149252
 30
0.0
 10
174.7522836431899
 20
-604.8264511291742
 30
0.0
 10
174.1902163147714
 20
-605.2767251090963
 30
0.0
 10
173.9092687779493
 20
-605.8196721575717
 30
0.0
 10
173.9092687779493
 20
-606.4549477650518
 30
0.0
 10
173.9092687779493
 20
-607.0065075522402
 30
0.0
 10
174.1082230422224
 20
-607.4602266276477
 30
0.0
 10
174.5063038255431
 20
-607.8164495008225
 30
0.0
 10
174.8971499083447
 20
-608.1726723739973
 30
0.0
 10
175.9182762101727
 20
-608.5375079858853
 30
0.0
 10
177.5696827310272
 20
-608.9109563364864
 30
0.0
 10
179.2207447423332
 20
-609.2844046870874
 30
0.0
 10
180.3536643926576
 20
-609.6109997390892
 30
0.0
 10
180.9680971724519
 20
-609.8900524733943
 30
0.0
 10
181.8617549413257
 20
-610.3020858934302
 30
0.0
 10
182.5216629815253
 20
-610.8240178594456
 30
0.0
 10
182.9474767835022
 20
-611.4558483714404
 30
0.0
 10
183.3732905854791
 20
-612.0876788834353
 30
0.0
 10
183.5863697412418
 20
-612.8156275594686
 30
0.0
 10
183.5863697412418
 20
-613.6393498899918
 30
0.0
 10
183.5863697412418
 20
-614.456526539093
 30
0.0
 10
183.3524477577933
 20
-615.2261608704979
 30
0.0
 10
182.8847760456707
 20
-615.9489419033033
 30
0.0
 10
182.4169320787737
 20
-616.6713784265602
 30
0.0
 10
181.7447939496015
 20
-617.233618009753
 30
0.0
 10
180.8687061677024
 20
-617.6349716337845
 30
0.0
 10
179.9922738762549
 20
-618.0363252578161
 30
0.0
 10
179.0061152936021
 20
-618.2371743246063
 30
0.0
 10
177.9100581649699
 20
-618.2371743246063
 30
0.0
 10
176.5204789009944
 20
-618.2371743246063
 30
0.0
 10
175.3562088817542
 20
-618.0346027100735
 30
0.0
 10
174.4172481072493
 20
-617.6298039905566
 30
0.0
 10
173.4781150779702
 20
-617.2250052710398
 30
0.0
 10
172.7415536632238
 20
-616.6155678796991
 30
0.0
 10
172.2073916082358
 20
-615.8021808356316
 30
0.0
 10
171.6732295532478
 20
-614.9887937915641
 30
0.0
 10
171.3921097616515
 20
-614.0689532970024
 30
0.0
 10
171.3643767429952
 20
-613.0426593519466
 30
0.0
  0
HATCH
  5
97
330
92
100
AcDbEntity
  8
Calque 3
 62
   250
420
  2565157
100
AcDbHatch
 10
0.0
 20
0.0
 30
0.0
210
0.0
220
0.0
230
1.0
  2
SOLID
 70
     1
 71
     0
 91
        1
 92
        1
 93
        1
 72
     4
 94
        3
 73
     0
 74
     1
 95
      110
 96
      106
 40
0.0
 40
0.0
 40
0.0
 40
0.0
 40
1.0
 40
1.0
 40
1.0
 40
2.0
 40
2.0
 40
2.0
 40
3.0
 40
3.0
 40
3.0
 40
4.0
 40
4.0
 40
4.0
 40
5.0
 40
5.0
 40
5.0
 40
6.0
 40
6.0
 40
6.0
 40
7.0
 40
7.0
 40
7.0
 40
8.0
 40
8.0
 40
8.0
 40
9.0
 40
9.0
 40
9.0
 40
10.0
 40
10.0
 40
10.0
 40
11.0
 40
11.0
 40
11.0
 40
12.0
 40
12.0
 40
12.0
 40
13.0
 40
13.0
 40
13.0
 40
14.0
 40
14.0
 40
14.0
 40
15.0
 40
15.0
 40
15.0
 40
16.0
 40
16.0
 40
16.0
 40
17.0
 40
17.0
 40
17.0
 40
18.0
 40
18.0
 40
18.0
 40
19.0
 40
19.0
 40
19.0
 40
20.0
 40
20.0
 40
20.0
 40
21.0
 40
21.0
 40
21.0
 40
22.0
 40
22.0
 40
22.0
 40
23.0
 40
23.0
 40
23.0
 40
24.0
 40
24.0
 40
24.0
 40
25.0
 40
25.0
 40
25.0
 40
26.0
 40
26.0
 40
26.0
 40
27.0
 40
27.0
 40
27.0
 40
28.0
 40
28.0
 40
28.0
 40
29.0
 40
29.0
 40
29.0
 40
30.0
 40
30.0
 40
30.0
 40
31.0
 40
31.0
 40
31.0
 40
32.0
 40
32.0
 40
32.0
 40
33.0
 40
33.0
 40
33.0
 40
34.0
 40
34.0
 40
34.0
 40
35.0
 40
35.0
 40
35.0
 40
35.0
 10
171.3643767429952
 20
-613.0426593519466
 10
171.3643767429952
 20
-613.0426593519466
 10
173.2808833614397
 20
-612.8748832018148
 10
173.2808833614397
 20
-612.8748832018148
 10
173.3714893727017
 20
-613.6431394950256
 10
173.5828459807218
 20
-614.2732474592777
 10
173.9144364211771
 20
-614.7652070945715
 10
174.2460268616324
 20
-615.2575112394136
 10
174.7610686366773
 20
-615.65541976796
 10
175.4592172367632
 20
-615.9592771897591
 10
176.157365836849
 20
-616.263134611558
 10
176.942847607486
 20
-616.4147188129091
 10
177.8156625486741
 20
-616.4147188129091
 10
178.5908090328552
 20
-616.4147188129091
 10
179.2750049962259
 20
-616.2996526237017
 10
179.8684226935602
 20
-616.0691757357384
 10
180.4618403908945
 20
-615.8386988477753
 10
180.9035016321035
 20
-615.5231281013264
 10
181.193234162413
 20
-615.1214299677463
 10
181.4829666927225
 20
-614.7200763437146
 10
181.6280052126515
 20
-614.2818601979909
 10
181.6280052126515
 20
-613.8071260401234
 10
181.6280052126515
 20
-613.325157181737
 10
181.4881343359504
 20
-612.9048555325365
 10
181.2090816016451
 20
-612.5451875638764
 10
180.9296843577914
 20
-612.1855195952163
 10
180.4689028366392
 20
-611.8837292307085
 10
179.8265647834144
 20
-611.6391274512557
 10
179.4145313633785
 20
-611.4785860016431
 10
178.5033036075299
 20
-611.229161088511
 10
177.0930537706429
 20
-610.8901636927624
 10
175.6826316789816
 20
-610.5518553161108
 10
174.6947505485862
 20
-610.2321504550797
 10
174.1292381246825
 20
-609.9320826383145
 10
173.3961218054213
 20
-609.5479544917091
 10
172.8497296614607
 20
-609.071497786099
 10
172.4902339475748
 20
-608.5023680119357
 10
172.1305659789148
 20
-607.933582747321
 10
171.9507319945847
 20
-607.2962400825497
 10
171.9507319945847
 20
-606.5910290367191
 10
171.9507319945847
 20
-605.8162270620865
 10
172.1707013413179
 20
-605.0917234815385
 10
172.6106400347843
 20
-604.4178628046235
 10
173.0504064734765
 20
-603.7443466372572
 10
173.6927445267013
 20
-603.2327499576976
 10
174.5376541944588
 20
-602.8837617850418
 10
175.3823916074421
 20
-602.5344291028374
 10
176.3215246367212
 20
-602.3601072712838
 10
177.3548810275219
 20
-602.3601072712838
 10
178.4929683210742
 20
-602.3601072712838
 10
179.4966968907017
 20
-602.5433863510991
 10
180.3658944816302
 20
-602.9099445107297
 10
181.235264327333
 20
-603.2765026703603
 10
181.9036128514715
 20
-603.8156601138019
 10
182.3714568183684
 20
-604.527761350603
 10
182.8393007852654
 20
-605.2402070969526
 10
183.0906205009143
 20
-606.0463594405011
 10
183.1255882200896
 20
-606.947251909894
 10
183.1255882200896
 20
-606.947251909894
 10
181.1775589779551
 20
-607.0936684680171
 10
181.1775589779551
 20
-607.0936684680171
 10
181.0728280752035
 20
-606.1235295793707
 10
180.7185000045455
 20
-605.3904132601095
 10
180.1145747659813
 20
-604.8943195102336
 10
179.510649527417
 20
-604.3989147794547
 10
178.6185420515115
 20
-604.1508679045166
 10
177.4387691025877
 20
-604.1508679045166
 10
176.2097312882248
 20
-604.1508679045166
 10
175.3143509716084
 20
-604.376177149252
 10
174.7522836431899
 20
-604.8264511291742
 10
174.1902163147714
 20
-605.2767251090963
 10
173.9092687779493
 20
-605.8196721575717
 10
173.9092687779493
 20
-606.4549477650518
 10
173.9092687779493
 20
-607.0065075522402
 10
174.1082230422224
 20
-607.4602266276477
 10
174.5063038255431
 20
-607.8164495008225
 10
174.8971499083447
 20
-608.1726723739973
 10
175.9182762101727
 20
-608.5375079858853
 10
177.5696827310272
 20
-608.9109563364864
 10
179.2207447423332
 20
-609.2844046870874
 10
180.3536643926576
 20
-609.6109997390892
 10
180.9680971724519
 20
-609.8900524733943
 10
181.8617549413257
 20
-610.3020858934302
 10
182.5216629815253
 20
-610.8240178594456
 10
182.9474767835022
 20
-611.4558483714404
 10
183.3732905854791
 20
-612.0876788834353
 10
183.5863697412418
 20
-612.8156275594686
 10
183.5863697412418
 20
-613.6393498899918
 10
183.5863697412418
 20
-614.456526539093
 10
183.3524477577933
 20
-615.2261608704979
 10
182.8847760456707
 20
-615.9489419033033
 10
182.4169320787737
 20
-616.6713784265602
 10
181.7447939496015
 20
-617.233618009753
 10
180.8687061677024
 20
-617.6349716337845
 10
179.9922738762549
 20
-618.0363252578161
 10
179.0061152936021
 20
-618.2371743246063
 10
177.9100581649699
 20
-618.2371743246063
 10
176.5204789009944
 20
-618.2371743246063
 10
175.3562088817542
 20
-618.0346027100735
 10
174.4172481072493
 20
-617.6298039905566
 10
173.4781150779702
 20
-617.2250052710398
 10
172.7415536632238
 20
-616.6155678796991
 10
172.2073916082358
 20
-615.8021808356316
 10
171.6732295532478
 20
-614.9887937915641
 10
171.3921097616515
 20
-614.0689532970024
 10
171.3643767429952
 20
-613.0426593519466
 97
        0
 97
        0
 75
     2
 76
     1
 98
        0
  0
SPLINE
  5
98
330
92
100
AcDbEntity
  8
Calque 3
370
     0
100
AcDbSpline
210
0.0
220
0.0
230
1.0
 70
    11
 71
     3
 72
    38
 73
    34
 74
     0
 42
0.0000000001
 43
0.0000000001
 12
1.0
 22
0.0
 32
0.0
 13
1.0
 23
0.0
 33
0.0
 40
0.0
 40
0.0
 40
0.0
 40
0.0
 40
1.0
 40
1.0
 40
1.0
 40
2.0
 40
2.0
 40
2.0
 40
3.0
 40
3.0
 40
3.0
 40
4.0
 40
4.0
 40
4.0
 40
5.0
 40
5.0
 40
5.0
 40
6.0
 40
6.0
 40
6.0
 40
7.0
 40
7.0
 40
7.0
 40
8.0
 40
8.0
 40
8.0
 40
9.0
 40
9.0
 40
9.0
 40
10.0
 40
10.0
 40
10.0
 40
11.0
 40
11.0
 40
11.0
 40
11.0
 10
187.2626311335519
 20
-617.9753470677272
 30
0.0
 10
187.2626311335519
 20
-617.9753470677272
 30
0.0
 10
187.2626311335519
 20
-602.6219345281628
 30
0.0
 10
187.2626311335519
 20
-602.6219345281628
 30
0.0
 10
187.2626311335519
 20
-602.6219345281628
 30
0.0
 10
193.0543534085797
 20
-602.6219345281628
 30
0.0
 10
193.0543534085797
 20
-602.6219345281628
 30
0.0
 10
194.0735849078908
 20
-602.6219345281628
 30
0.0
 10
194.8521764875573
 20
-602.6708548840534
 30
0.0
 10
195.3897836380305
 20
-602.7683510862859
 30
0.0
 10
196.1439150397517
 20
-602.8940970714975
 30
0.0
 10
196.7757455517465
 20
-603.1331866981739
 30
0.0
 10
197.2854474287892
 20
-603.4859644758635
 30
0.0
 10
197.7949770510577
 20
-603.8383977440045
 30
0.0
 10
198.2052879233509
 20
-604.3324244365893
 30
0.0
 10
198.5160355361205
 20
-604.9677000440694
 30
0.0
 10
198.8266108941158
 20
-605.603320161098
 30
0.0
 10
198.9821569552748
 20
-606.3012965064096
 30
0.0
 10
198.9821569552748
 20
-607.0623180991013
 30
0.0
 10
198.9821569552748
 20
-608.368009288011
 30
0.0
 10
198.5666784397536
 20
-609.4728514101306
 30
0.0
 10
197.7357214087114
 20
-610.3771889750087
 30
0.0
 10
196.9047643776691
 20
-611.2815265398868
 30
0.0
 10
195.4037362747458
 20
-611.7335230675516
 30
0.0
 10
193.2322925903928
 20
-611.7335230675516
 30
0.0
 10
193.2322925903928
 20
-611.7335230675516
 30
0.0
 10
189.2945484507522
 20
-611.7335230675516
 30
0.0
 10
189.2945484507522
 20
-611.7335230675516
 30
0.0
 10
189.2945484507522
 20
-611.7335230675516
 30
0.0
 10
189.2945484507522
 20
-617.9753470677272
 30
0.0
 10
189.2945484507522
 20
-617.9753470677272
 30
0.0
 10
189.2945484507522
 20
-617.9753470677272
 30
0.0
 10
187.2626311335519
 20
-617.9753470677272
 30
0.0
 10
187.2626311335519
 20
-617.9753470677272
 30
0.0
  0
SPLINE
  5
99
330
92
100
AcDbEntity
  8
Calque 3
370
     0
100
AcDbSpline
210
0.0
220
0.0
230
1.0
 70
    11
 71
     3
 72
    29
 73
    25
 74
     0
 42
0.0000000001
 43
0.0000000001
 12
1.0
 22
0.0
 32
0.0
 13
1.0
 23
0.0
 33
0.0
 40
0.0
 40
0.0
 40
0.0
 40
0.0
 40
1.0
 40
1.0
 40
1.0
 40
2.0
 40
2.0
 40
2.0
 40
3.0
 40
3.0
 40
3.0
 40
4.0
 40
4.0
 40
4.0
 40
5.0
 40
5.0
 40
5.0
 40
6.0
 40
6.0
 40
6.0
 40
7.0
 40
7.0
 40
7.0
 40
8.0
 40
8.0
 40
8.0
 40
8.0
 10
189.2945484507522
 20
-609.9214028423102
 30
0.0
 10
189.2945484507522
 20
-609.9214028423102
 30
0.0
 10
193.2638152140829
 20
-609.9214028423102
 30
0.0
 10
193.2638152140829
 20
-609.9214028423102
 30
0.0
 10
194.576396593963
 20
-609.9214028423102
 30
0.0
 10
195.5084671774974
 20
-609.677145572406
 30
0.0
 10
196.0600269646859
 20
-609.188286523049
 30
0.0
 10
196.6115867518744
 20
-608.6997719832406
 30
0.0
 10
196.8875389002429
 20
-608.0121309243847
 30
0.0
 10
196.8875389002429
 20
-607.1253633464814
 30
0.0
 10
196.8875389002429
 20
-606.4828530384823
 30
0.0
 10
196.7251026481134
 20
-605.9330157990364
 30
0.0
 10
196.4004023986286
 20
-605.4758516281438
 30
0.0
 10
196.075874403918
 20
-605.0183429477025
 30
0.0
 10
195.64799354465
 20
-604.7165525831947
 30
0.0
 10
195.1174488399215
 20
-604.5697915155231
 30
0.0
 10
194.7753508582362
 20
-604.479185504261
 30
0.0
 10
194.1435203462414
 20
-604.4337102438557
 30
0.0
 10
193.221957303937
 20
-604.4337102438557
 30
0.0
 10
193.221957303937
 20
-604.4337102438557
 30
0.0
 10
189.2945484507522
 20
-604.4337102438557
 30
0.0
 10
189.2945484507522
 20
-604.4337102438557
 30
0.0
 10
189.2945484507522
 20
-604.4337102438557
 30
0.0
 10
189.2945484507522
 20
-609.9214028423102
 30
0.0
 10
189.2945484507522
 20
-609.9214028423102
 30
0.0
  0
HATCH
  5
9A
330
92
100
AcDbEntity
  8
Calque 3
 62
   250
420
  2565157
100
AcDbHatch
 10
0.0
 20
0.0
 30
0.0
210
0.0
220
0.0
230
1.0
  2
SOLID
 70
     1
 71
     0
 91
        2
 92
        1
 93
        1
 72
     4
 94
        3
 73
     0
 74
     1
 95
       38
 96
       34
 40
0.0
 40
0.0
 40
0.0
 40
0.0
 40
1.0
 40
1.0
 40
1.0
 40
2.0
 40
2.0
 40
2.0
 40
3.0
 40
3.0
 40
3.0
 40
4.0
 40
4.0
 40
4.0
 40
5.0
 40
5.0
 40
5.0
 40
6.0
 40
6.0
 40
6.0
 40
7.0
 40
7.0
 40
7.0
 40
8.0
 40
8.0
 40
8.0
 40
9.0
 40
9.0
 40
9.0
 40
10.0
 40
10.0
 40
10.0
 40
11.0
 40
11.0
 40
11.0
 40
11.0
 10
187.2626311335519
 20
-617.9753470677272
 10
187.2626311335519
 20
-617.9753470677272
 10
187.2626311335519
 20
-602.6219345281628
 10
187.2626311335519
 20
-602.6219345281628
 10
187.2626311335519
 20
-602.6219345281628
 10
193.0543534085797
 20
-602.6219345281628
 10
193.0543534085797
 20
-602.6219345281628
 10
194.0735849078908
 20
-602.6219345281628
 10
194.8521764875573
 20
-602.6708548840534
 10
195.3897836380305
 20
-602.7683510862859
 10
196.1439150397517
 20
-602.8940970714975
 10
196.7757455517465
 20
-603.1331866981739
 10
197.2854474287892
 20
-603.4859644758635
 10
197.7949770510577
 20
-603.8383977440045
 10
198.2052879233509
 20
-604.3324244365893
 10
198.5160355361205
 20
-604.9677000440694
 10
198.8266108941158
 20
-605.603320161098
 10
198.9821569552748
 20
-606.3012965064096
 10
198.9821569552748
 20
-607.0623180991013
 10
198.9821569552748
 20
-608.368009288011
 10
198.5666784397536
 20
-609.4728514101306
 10
197.7357214087114
 20
-610.3771889750087
 10
196.9047643776691
 20
-611.2815265398868
 10
195.4037362747458
 20
-611.7335230675516
 10
193.2322925903928
 20
-611.7335230675516
 10
193.2322925903928
 20
-611.7335230675516
 10
189.2945484507522
 20
-611.7335230675516
 10
189.2945484507522
 20
-611.7335230675516
 10
189.2945484507522
 20
-611.7335230675516
 10
189.2945484507522
 20
-617.9753470677272
 10
189.2945484507522
 20
-617.9753470677272
 10
189.2945484507522
 20
-617.9753470677272
 10
187.2626311335519
 20
-617.9753470677272
 10
187.2626311335519
 20
-617.9753470677272
 97
        0
 97
        0
 92
        1
 93
        1
 72
     4
 94
        3
 73
     0
 74
     1
 95
       29
 96
       25
 40
0.0
 40
0.0
 40
0.0
 40
0.0
 40
1.0
 40
1.0
 40
1.0
 40
2.0
 40
2.0
 40
2.0
 40
3.0
 40
3.0
 40
3.0
 40
4.0
 40
4.0
 40
4.0
 40
5.0
 40
5.0
 40
5.0
 40
6.0
 40
6.0
 40
6.0
 40
7.0
 40
7.0
 40
7.0
 40
8.0
 40
8.0
 40
8.0
 40
8.0
 10
189.2945484507522
 20
-609.9214028423102
 10
189.2945484507522
 20
-609.9214028423102
 10
193.2638152140829
 20
-609.9214028423102
 10
193.2638152140829
 20
-609.9214028423102
 10
194.576396593963
 20
-609.9214028423102
 10
195.5084671774974
 20
-609.677145572406
 10
196.0600269646859
 20
-609.188286523049
 10
196.6115867518744
 20
-608.6997719832406
 10
196.8875389002429
 20
-608.0121309243847
 10
196.8875389002429
 20
-607.1253633464814
 10
196.8875389002429
 20
-606.4828530384823
 10
196.7251026481134
 20
-605.9330157990364
 10
196.4004023986286
 20
-605.4758516281438
 10
196.075874403918
 20
-605.0183429477025
 10
195.64799354465
 20
-604.7165525831947
 10
195.1174488399215
 20
-604.5697915155231
 10
194.7753508582362
 20
-604.479185504261
 10
194.1435203462414
 20
-604.4337102438557
 10
193.221957303937
 20
-604.4337102438557
 10
193.221957303937
 20
-604.4337102438557
 10
189.2945484507522
 20
-604.4337102438557
 10
189.2945484507522
 20
-604.4337102438557
 10
189.2945484507522
 20
-604.4337102438557
 10
189.2945484507522
 20
-609.9214028423102
 10
189.2945484507522
 20
-609.9214028423102
 97
        0
 97
        0
 75
     2
 76
     1
 98
        0
  0
POLYLINE
  5
9B
330
92
100
AcDbEntity
  8
Calque 3
370
     0
100
AcDb2dPolyline
 66
     1
 10
0.0
 20
0.0
 30
0.0
  0
VERTEX
  5
9C
330
9B
100
AcDbEntity
  8
Calque 3
370
     0
100
AcDbVertex
100
AcDb2dVertex
 10
202.815342446938
 20
-617.9753470677272
 30
0.0
  0
VERTEX
  5
9D
330
9B
100
AcDbEntity
  8
Calque 3
370
     0
100
AcDbVertex
100
AcDb2dVertex
 10
202.815342446938
 20
-602.6219345281628
 30
0.0
  0
VERTEX
  5
9E
330
9B
100
AcDbEntity
  8
Calque 3
370
     0
100
AcDbVertex
100
AcDb2dVertex
 10
204.8470875093641
 20
-602.6219345281628
 30
0.0
  0
VERTEX
  5
9F
330
9B
100
AcDbEntity
  8
Calque 3
370
     0
100
AcDbVertex
100
AcDb2dVertex
 10
204.8470875093641
 20
-617.9753470677272
 30
0.0
  0
VERTEX
  5
A0
330
9B
100
AcDbEntity
  8
Calque 3
370
     0
100
AcDbVertex
100
AcDb2dVertex
 10
202.815342446938
 20
-617.9753470677272
 30
0.0
  0
SEQEND
  5
A1
330
9B
100
AcDbEntity
  8
Calque 3
370
     0
  0
HATCH
  5
A2
330
92
100
AcDbEntity
  8
Calque 3
 62
   250
420
  2565157
100
AcDbHatch
 10
0.0
 20
0.0
 30
0.0
210
0.0
220
0.0
230
1.0
  2
SOLID
 70
     1
 71
     0
 91
        1
 92
        1
 93
        4
 72
     1
 10
202.815342446938
 20
-617.9753470677272
 11
202.815342446938
 21
-602.6219345281628
 72
     1
 10
202.815342446938
 20
-602.6219345281628
 11
204.8470875093641
 21
-602.6219345281628
 72
     1
 10
204.8470875093641
 20
-602.6219345281628
 11
204.8470875093641
 21
-617.9753470677272
 72
     1
 10
204.8470875093641
 20
-617.9753470677272
 11
202.815342446938
 21
-617.9753470677272
 97
        0
 75
     2
 76
     1
 98
        0
  0
POLYLINE
  5
A3
330
92
100
AcDbEntity
  8
Calque 3
370
     0
100
AcDb2dPolyline
 66
     1
 10
0.0
 20
0.0
 30
0.0
  0
VERTEX
  5
A4
330
A3
100
AcDbEntity
  8
Calque 3
370
     0
100
AcDbVertex
100
AcDb2dVertex
 10
209.3088306723112
 20
-617.9753470677272
 30
0.0
  0
VERTEX
  5
A5
330
A3
100
AcDbEntity
  8
Calque 3
370
     0
100
AcDbVertex
100
AcDb2dVertex
 10
209.3088306723112
 20
-602.6219345281628
 30
0.0
  0
VERTEX
  5
A6
330
A3
100
AcDbEntity
  8
Calque 3
370
     0
100
AcDbVertex
100
AcDb2dVertex
 10
211.3929411861131
 20
-602.6219345281628
 30
0.0
  0
VERTEX
  5
A7
330
A3
100
AcDbEntity
  8
Calque 3
370
     0
100
AcDbVertex
100
AcDb2dVertex
 10
219.4572206979859
 20
-614.676323631052
 30
0.0
  0
VERTEX
  5
A8
330
A3
100
AcDbEntity
  8
Calque 3
370
     0
100
AcDbVertex
100
AcDb2dVertex
 10
219.4572206979859
 20
-602.6219345281628
 30
0.0
  0
VERTEX
  5
A9
330
A3
100
AcDbEntity
  8
Calque 3
370
     0
100
AcDbVertex
100
AcDb2dVertex
 10
221.4052499401204
 20
-602.6219345281628
 30
0.0
  0
VERTEX
  5
AA
330
A3
100
AcDbEntity
  8
Calque 3
370
     0
100
AcDbVertex
100
AcDb2dVertex
 10
221.4052499401204
 20
-617.9753470677272
 30
0.0
  0
VERTEX
  5
AB
330
A3
100
AcDbEntity
  8
Calque 3
370
     0
100
AcDbVertex
100
AcDb2dVertex
 10
219.3211394263185
 20
-617.9753470677272
 30
0.0
  0
VERTEX
  5
AC
330
A3
100
AcDbEntity
  8
Calque 3
370
     0
100
AcDbVertex
100
AcDb2dVertex
 10
211.2568599144457
 20
-605.9102781688338
 30
0.0
  0
VERTEX
  5
AD
330
A3
100
AcDbEntity
  8
Calque 3
370
     0
100
AcDbVertex
100
AcDb2dVertex
 10
211.2568599144457
 20
-617.9753470677272
 30
0.0
  0
VERTEX
  5
AE
330
A3
100
AcDbEntity
  8
Calque 3
370
     0
100
AcDbVertex
100
AcDb2dVertex
 10
209.3088306723112
 20
-617.9753470677272
 30
0.0
  0
SEQEND
  5
AF
330
A3
100
AcDbEntity
  8
Calque 3
370
     0
  0
HATCH
  5
B0
330
92
100
AcDbEntity
  8
Calque 3
 62
   250
420
  2565157
100
AcDbHatch
 10
0.0
 20
0.0
 30
0.0
210
0.0
220
0.0
230
1.0
  2
SOLID
 70
     1
 71
     0
 91
        1
 92
        1
 93
       10
 72
     1
 10
209.3088306723112
 20
-617.9753470677272
 11
209.3088306723112
 21
-602.6219345281628
 72
     1
 10
209.3088306723112
 20
-602.6219345281628
 11
211.3929411861131
 21
-602.6219345281628
 72
     1
 10
211.3929411861131
 20
-602.6219345281628
 11
219.4572206979859
 21
-614.676323631052
 72
     1
 10
219.4572206979859
 20
-614.676323631052
 11
219.4572206979859
 21
-602.6219345281628
 72
     1
 10
219.4572206979859
 20
-602.6219345281628
 11
221.4052499401204
 21
-602.6219345281628
 72
     1
 10
221.4052499401204
 20
-602.6219345281628
 11
221.4052499401204
 21
-617.9753470677272
 72
     1
 10
221.4052499401204
 20
-617.9753470677272
 11
219.3211394263185
 21
-617.9753470677272
 72
     1
 10
219.3211394263185
 20
-617.9753470677272
 11
211.2568599144457
 21
-605.9102781688338
 72
     1
 10
211.2568599144457
 20
-605.9102781688338
 11
211.2568599144457
 21
-617.9753470677272
 72
     1
 10
211.2568599144457
 20
-617.9753470677272
 11
209.3088306723112
 21
-617.9753470677272
 97
        0
 75
     2
 76
     1
 98
        0
  0
SPLINE
  5
B1
330
92
100
AcDbEntity
  8
Calque 3
370
     0
100
AcDbSpline
210
0.0
220
0.0
230
1.0
 70
    11
 71
     3
 72
    92
 73
    88
 74
     0
 42
0.0000000001
 43
0.0000000001
 12
1.0
 22
0.0
 32
0.0
 13
1.0
 23
0.0
 33
0.0
 40
0.0
 40
0.0
 40
0.0
 40
0.0
 40
1.0
 40
1.0
 40
1.0
 40
2.0
 40
2.0
 40
2.0
 40
3.0
 40
3.0
 40
3.0
 40
4.0
 40
4.0
 40
4.0
 40
5.0
 40
5.0
 40
5.0
 40
6.0
 40
6.0
 40
6.0
 40
7.0
 40
7.0
 40
7.0
 40
8.0
 40
8.0
 40
8.0
 40
9.0
 40
9.0
 40
9.0
 40
10.0
 40
10.0
 40
10.0
 40
11.0
 40
11.0
 40
11.0
 40
12.0
 40
12.0
 40
12.0
 40
13.0
 40
13.0
 40
13.0
 40
14.0
 40
14.0
 40
14.0
 40
15.0
 40
15.0
 40
15.0
 40
16.0
 40
16.0
 40
16.0
 40
17.0
 40
17.0
 40
17.0
 40
18.0
 40
18.0
 40
18.0
 40
19.0
 40
19.0
 40
19.0
 40
20.0
 40
20.0
 40
20.0
 40
21.0
 40
21.0
 40
21.0
 40
22.0
 40
22.0
 40
22.0
 40
23.0
 40
23.0
 40
23.0
 40
24.0
 40
24.0
 40
24.0
 40
25.0
 40
25.0
 40
25.0
 40
26.0
 40
26.0
 40
26.0
 40
27.0
 40
27.0
 40
27.0
 40
28.0
 40
28.0
 40
28.0
 40
29.0
 40
29.0
 40
29.0
 40
29.0
 10
232.9048064151101
 20
-611.9533201595106
 30
0.0
 10
232.9048064151101
 20
-611.9533201595106
 30
0.0
 10
232.9048064151101
 20
-610.1518797302733
 30
0.0
 10
232.9048064151101
 20
-610.1518797302733
 30
0.0
 10
232.9048064151101
 20
-610.1518797302733
 30
0.0
 10
239.408629926939
 20
-610.1415444438176
 30
0.0
 10
239.408629926939
 20
-610.1415444438176
 30
0.0
 10
239.408629926939
 20
-610.1415444438176
 30
0.0
 10
239.408629926939
 20
-615.8386988477753
 30
0.0
 10
239.408629926939
 20
-615.8386988477753
 30
0.0
 10
238.4100690005394
 20
-616.6348604144165
 30
0.0
 10
237.3803299599982
 20
-617.233618009753
 30
0.0
 10
236.319068295767
 20
-617.6349716337845
 30
0.0
 10
235.2576343767615
 20
-618.0363252578161
 30
0.0
 10
234.1684674390997
 20
-618.2371743246063
 30
0.0
 10
233.0513952280075
 20
-618.2371743246063
 30
0.0
 10
231.5433046793394
 20
-618.2371743246063
 30
0.0
 10
230.1730179500812
 20
-617.9143688776383
 30
0.0
 10
228.9407072950074
 20
-617.2684134741539
 30
0.0
 10
227.7083966399335
 20
-616.6228025802181
 30
0.0
 10
226.7780486041418
 20
-615.6888371941669
 30
0.0
 10
226.1496631876322
 20
-614.4668618255488
 30
0.0
 10
225.5212777711226
 20
-613.2452309664792
 30
0.0
 10
225.2070850628679
 20
-611.8799396256746
 30
0.0
 10
225.2070850628679
 20
-610.3720213317808
 30
0.0
 10
225.2070850628679
 20
-608.877883419828
 30
0.0
 10
225.51955522338
 20
-607.4829642578503
 30
0.0
 10
226.1444955444044
 20
-606.1879528649449
 30
0.0
 10
226.7692636106544
 20
-604.8929414720395
 30
0.0
 10
227.6682612775303
 20
-603.9310708125578
 30
0.0
 10
228.8413162902579
 20
-603.3026853960482
 30
0.0
 10
230.0141990482112
 20
-602.6742999795385
 30
0.0
 10
231.3653654975262
 20
-602.3601072712838
 30
0.0
 10
232.8942988738801
 20
-602.3601072712838
 30
0.0
 10
234.0044808940019
 20
-602.3601072712838
 30
0.0
 10
235.0082094636294
 20
-602.5399412556138
 30
0.0
 10
235.9053123279884
 20
-602.8992647147254
 30
0.0
 10
236.8024151923475
 20
-603.2589326833855
 30
0.0
 10
237.5059036904355
 20
-603.7598495669408
 30
0.0
 10
238.0157778222525
 20
-604.4023598749399
 30
0.0
 10
238.5253074445209
 20
-605.0445256733905
 30
0.0
 10
238.9128806866115
 20
-605.8823728954033
 30
0.0
 10
239.1781530389758
 20
-606.9159015409782
 30
0.0
 10
239.1781530389758
 20
-606.9159015409782
 30
0.0
 10
237.3453622408229
 20
-607.4185409722761
 30
0.0
 10
237.3453622408229
 20
-607.4185409722761
 30
0.0
 10
237.1150576076339
 20
-606.6365042971245
 30
0.0
 10
236.8285979180354
 20
-606.0222437721044
 30
0.0
 10
236.4866721911243
 20
-605.575070378119
 30
0.0
 10
236.1444019546648
 20
-605.1285860032306
 30
0.0
 10
235.6557151600821
 20
-604.7706405823131
 30
0.0
 10
235.020439552602
 20
-604.501578624915
 30
0.0
 10
234.3849916903477
 20
-604.2328611770656
 30
0.0
 10
233.6797806445171
 20
-604.0985024531409
 30
0.0
 10
232.9048064151101
 20
-604.0985024531409
 30
0.0
 10
231.976180927061
 20
-604.0985024531409
 30
0.0
 10
231.1731291694493
 20
-604.2397513680361
 30
0.0
 10
230.4959956518234
 20
-604.5225937073751
 30
0.0
 10
229.8186898794233
 20
-604.8054360467141
 30
0.0
 10
229.2722977354627
 20
-605.1771618495726
 30
0.0
 10
228.8569914747158
 20
-605.638115625499
 30
0.0
 10
228.4415129591947
 20
-606.0987248918769
 30
0.0
 10
228.1187075122268
 20
-606.6051539282087
 30
0.0
 10
227.8882306242635
 20
-607.1567137153971
 30
0.0
 10
227.4972122866877
 20
-608.106182031132
 30
0.0
 10
227.3017031178998
 20
-609.1359210716732
 30
0.0
 10
227.3017031178998
 20
-610.2462753465692
 30
0.0
 10
227.3017031178998
 20
-611.6146672733105
 30
0.0
 10
227.5373476490909
 20
-612.7598170126075
 30
0.0
 10
228.008636711473
 20
-613.6813800549119
 30
0.0
 10
228.4799257738552
 20
-614.6029430972162
 30
0.0
 10
229.1660165397427
 20
-615.2874835701354
 30
0.0
 10
230.066564499587
 20
-615.7339679450237
 30
0.0
 10
230.9672847142056
 20
-616.1811413390091
 30
0.0
 10
231.9238154756852
 20
-616.4043835264533
 30
0.0
 10
232.9363290388001
 20
-616.4043835264533
 30
0.0
 10
233.8160341709587
 20
-616.4043835264533
 30
0.0
 10
234.6747242206572
 20
-616.2352293381275
 30
0.0
 10
235.51257144267
 20
-615.8965764519274
 30
0.0
 10
236.3504186646827
 20
-615.5579235657274
 30
0.0
 10
236.9856942721628
 20
-615.1965330493247
 30
0.0
 10
237.4187427746587
 20
-614.8124049027193
 30
0.0
 10
237.4187427746587
 20
-614.8124049027193
 30
0.0
 10
237.4187427746587
 20
-611.9533201595106
 30
0.0
 10
237.4187427746587
 20
-611.9533201595106
 30
0.0
 10
237.4187427746587
 20
-611.9533201595106
 30
0.0
 10
232.9048064151101
 20
-611.9533201595106
 30
0.0
 10
232.9048064151101
 20
-611.9533201595106
 30
0.0
  0
HATCH
  5
B2
330
92
100
AcDbEntity
  8
Calque 3
 62
   250
420
  2565157
100
AcDbHatch
 10
0.0
 20
0.0
 30
0.0
210
0.0
220
0.0
230
1.0
  2
SOLID
 70
     1
 71
     0
 91
        1
 92
        1
 93
        1
 72
     4
 94
        3
 73
     0
 74
     1
 95
       92
 96
       88
 40
0.0
 40
0.0
 40
0.0
 40
0.0
 40
1.0
 40
1.0
 40
1.0
 40
2.0
 40
2.0
 40
2.0
 40
3.0
 40
3.0
 40
3.0
 40
4.0
 40
4.0
 40
4.0
 40
5.0
 40
5.0
 40
5.0
 40
6.0
 40
6.0
 40
6.0
 40
7.0
 40
7.0
 40
7.0
 40
8.0
 40
8.0
 40
8.0
 40
9.0
 40
9.0
 40
9.0
 40
10.0
 40
10.0
 40
10.0
 40
11.0
 40
11.0
 40
11.0
 40
12.0
 40
12.0
 40
12.0
 40
13.0
 40
13.0
 40
13.0
 40
14.0
 40
14.0
 40
14.0
 40
15.0
 40
15.0
 40
15.0
 40
16.0
 40
16.0
 40
16.0
 40
17.0
 40
17.0
 40
17.0
 40
18.0
 40
18.0
 40
18.0
 40
19.0
 40
19.0
 40
19.0
 40
20.0
 40
20.0
 40
20.0
 40
21.0
 40
21.0
 40
21.0
 40
22.0
 40
22.0
 40
22.0
 40
23.0
 40
23.0
 40
23.0
 40
24.0
 40
24.0
 40
24.0
 40
25.0
 40
25.0
 40
25.0
 40
26.0
 40
26.0
 40
26.0
 40
27.0
 40
27.0
 40
27.0
 40
28.0
 40
28.0
 40
28.0
 40
29.0
 40
29.0
 40
29.0
 40
29.0
 10
232.9048064151101
 20
-611.9533201595106
 10
232.9048064151101
 20
-611.9533201595106
 10
232.9048064151101
 20
-610.1518797302733
 10
232.9048064151101
 20
-610.1518797302733
 10
232.9048064151101
 20
-610.1518797302733
 10
239.408629926939
 20
-610.1415444438176
 10
239.408629926939
 20
-610.1415444438176
 10
239.408629926939
 20
-610.1415444438176
 10
239.408629926939
 20
-615.8386988477753
 10
239.408629926939
 20
-615.8386988477753
 10
238.4100690005394
 20
-616.6348604144165
 10
237.3803299599982
 20
-617.233618009753
 10
236.319068295767
 20
-617.6349716337845
 10
235.2576343767615
 20
-618.0363252578161
 10
234.1684674390997
 20
-618.2371743246063
 10
233.0513952280075
 20
-618.2371743246063
 10
231.5433046793394
 20
-618.2371743246063
 10
230.1730179500812
 20
-617.9143688776383
 10
228.9407072950074
 20
-617.2684134741539
 10
227.7083966399335
 20
-616.6228025802181
 10
226.7780486041418
 20
-615.6888371941669
 10
226.1496631876322
 20
-614.4668618255488
 10
225.5212777711226
 20
-613.2452309664792
 10
225.2070850628679
 20
-611.8799396256746
 10
225.2070850628679
 20
-610.3720213317808
 10
225.2070850628679
 20
-608.877883419828
 10
225.51955522338
 20
-607.4829642578503
 10
226.1444955444044
 20
-606.1879528649449
 10
226.7692636106544
 20
-604.8929414720395
 10
227.6682612775303
 20
-603.9310708125578
 10
228.8413162902579
 20
-603.3026853960482
 10
230.0141990482112
 20
-602.6742999795385
 10
231.3653654975262
 20
-602.3601072712838
 10
232.8942988738801
 20
-602.3601072712838
 10
234.0044808940019
 20
-602.3601072712838
 10
235.0082094636294
 20
-602.5399412556138
 10
235.9053123279884
 20
-602.8992647147254
 10
236.8024151923475
 20
-603.2589326833855
 10
237.5059036904355
 20
-603.7598495669408
 10
238.0157778222525
 20
-604.4023598749399
 10
238.5253074445209
 20
-605.0445256733905
 10
238.9128806866115
 20
-605.8823728954033
 10
239.1781530389758
 20
-606.9159015409782
 10
239.1781530389758
 20
-606.9159015409782
 10
237.3453622408229
 20
-607.4185409722761
 10
237.3453622408229
 20
-607.4185409722761
 10
237.1150576076339
 20
-606.6365042971245
 10
236.8285979180354
 20
-606.0222437721044
 10
236.4866721911243
 20
-605.575070378119
 10
236.1444019546648
 20
-605.1285860032306
 10
235.6557151600821
 20
-604.7706405823131
 10
235.020439552602
 20
-604.501578624915
 10
234.3849916903477
 20
-604.2328611770656
 10
233.6797806445171
 20
-604.0985024531409
 10
232.9048064151101
 20
-604.0985024531409
 10
231.976180927061
 20
-604.0985024531409
 10
231.1731291694493
 20
-604.2397513680361
 10
230.4959956518234
 20
-604.5225937073751
 10
229.8186898794233
 20
-604.8054360467141
 10
229.2722977354627
 20
-605.1771618495726
 10
228.8569914747158
 20
-605.638115625499
 10
228.4415129591947
 20
-606.0987248918769
 10
228.1187075122268
 20
-606.6051539282087
 10
227.8882306242635
 20
-607.1567137153971
 10
227.4972122866877
 20
-608.106182031132
 10
227.3017031178998
 20
-609.1359210716732
 10
227.3017031178998
 20
-610.2462753465692
 10
227.3017031178998
 20
-611.6146672733105
 10
227.5373476490909
 20
-612.7598170126075
 10
228.008636711473
 20
-613.6813800549119
 10
228.4799257738552
 20
-614.6029430972162
 10
229.1660165397427
 20
-615.2874835701354
 10
230.066564499587
 20
-615.7339679450237
 10
230.9672847142056
 20
-616.1811413390091
 10
231.9238154756852
 20
-616.4043835264533
 10
232.9363290388001
 20
-616.4043835264533
 10
233.8160341709587
 20
-616.4043835264533
 10
234.6747242206572
 20
-616.2352293381275
 10
235.51257144267
 20
-615.8965764519274
 10
236.3504186646827
 20
-615.5579235657274
 10
236.9856942721628
 20
-615.1965330493247
 10
237.4187427746587
 20
-614.8124049027193
 10
237.4187427746587
 20
-614.8124049027193
 10
237.4187427746587
 20
-611.9533201595106
 10
237.4187427746587
 20
-611.9533201595106
 10
237.4187427746587
 20
-611.9533201595106
 10
232.9048064151101
 20
-611.9533201595106
 10
232.9048064151101
 20
-611.9533201595106
 97
        0
 97
        0
 75
     2
 76
     1
 98
        0
  0
SPLINE
  5
B3
330
92
100
AcDbEntity
  8
Calque 3
370
     0
100
AcDbSpline
210
0.0
220
0.0
230
1.0
 70
    11
 71
     3
 72
    62
 73
    58
 74
     0
 42
0.0000000001
 43
0.0000000001
 12
1.0
 22
0.0
 32
0.0
 13
1.0
 23
0.0
 33
0.0
 40
0.0
 40
0.0
 40
0.0
 40
0.0
 40
1.0
 40
1.0
 40
1.0
 40
2.0
 40
2.0
 40
2.0
 40
3.0
 40
3.0
 40
3.0
 40
4.0
 40
4.0
 40
4.0
 40
5.0
 40
5.0
 40
5.0
 40
6.0
 40
6.0
 40
6.0
 40
7.0
 40
7.0
 40
7.0
 40
8.0
 40
8.0
 40
8.0
 40
9.0
 40
9.0
 40
9.0
 40
10.0
 40
10.0
 40
10.0
 40
11.0
 40
11.0
 40
11.0
 40
12.0
 40
12.0
 40
12.0
 40
13.0
 40
13.0
 40
13.0
 40
14.0
 40
14.0
 40
14.0
 40
15.0
 40
15.0
 40
15.0
 40
16.0
 40
16.0
 40
16.0
 40
17.0
 40
17.0
 40
17.0
 40
18.0
 40
18.0
 40
18.0
 40
19.0
 40
19.0
 40
19.0
 40
19.0
 10
243.3362110348981
 20
-617.9753470677272
 30
0.0
 10
243.3362110348981
 20
-617.9753470677272
 30
0.0
 10
243.3362110348981
 20
-602.6219345281628
 30
0.0
 10
243.3362110348981
 20
-602.6219345281628
 30
0.0
 10
243.3362110348981
 20
-602.6219345281628
 30
0.0
 10
250.1435474589775
 20
-602.6219345281628
 30
0.0
 10
250.1435474589775
 20
-602.6219345281628
 30
0.0
 10
251.5119393857187
 20
-602.6219345281628
 30
0.0
 10
252.5523582222642
 20
-602.7597383475728
 30
0.0
 10
253.2648039686138
 20
-603.0353459863928
 30
0.0
 10
253.976905205415
 20
-603.3112981347613
 30
0.0
 10
254.5456904700297
 20
-603.7984346363756
 30
0.0
 10
254.9718487815551
 20
-604.4964109816872
 30
0.0
 10
255.397662583532
 20
-605.1947318365474
 30
0.0
 10
255.6105694845205
 20
-605.9664332252433
 30
0.0
 10
255.6105694845205
 20
-606.8111706382266
 30
0.0
 10
255.6105694845205
 20
-607.9001653211141
 30
0.0
 10
255.2581362163794
 20
-608.8182832679331
 30
0.0
 10
254.5529251705488
 20
-609.5655244786839
 30
0.0
 10
253.8477141247181
 20
-610.3127656894345
 30
0.0
 10
252.7583749322821
 20
-610.787499847302
 30
0.0
 10
251.2852521027893
 20
-610.9897269522861
 30
0.0
 10
251.8226869984883
 20
-611.2481091136799
 30
0.0
 10
252.2312753230389
 20
-611.5030461795883
 30
0.0
 10
252.5106725668927
 20
-611.7541936404631
 30
0.0
 10
253.1039180094527
 20
-612.2988632366811
 30
0.0
 10
253.6661575926454
 20
-612.9796141045664
 30
0.0
 10
254.1967022973739
 20
-613.7964462441191
 30
0.0
 10
254.1967022973739
 20
-613.7964462441191
 30
0.0
 10
256.8673403175396
 20
-617.9753470677272
 30
0.0
 10
256.8673403175396
 20
-617.9753470677272
 30
0.0
 10
256.8673403175396
 20
-617.9753470677272
 30
0.0
 10
254.3121129961298
 20
-617.9753470677272
 30
0.0
 10
254.3121129961298
 20
-617.9753470677272
 30
0.0
 10
254.3121129961298
 20
-617.9753470677272
 30
0.0
 10
252.2801956789295
 20
-614.7810545338036
 30
0.0
 10
252.2801956789295
 20
-614.7810545338036
 30
0.0
 10
251.6866057268209
 20
-613.8594914914993
 30
0.0
 10
251.197746677464
 20
-613.1542804456686
 30
0.0
 10
250.8139630404071
 20
-612.6654213963117
 30
0.0
 10
250.4298348938018
 20
-612.1769068565033
 30
0.0
 10
250.0860143643738
 20
-611.8348088748179
 30
0.0
 10
249.7825014521233
 20
-611.6391274512557
 30
0.0
 10
249.4786440303243
 20
-611.4437905372421
 30
0.0
 10
249.1696189652974
 20
-611.3077092655747
 30
0.0
 10
248.8554262570426
 20
-611.2305391267051
 30
0.0
 10
248.6249493690794
 20
-611.1819632803631
 30
0.0
 10
248.248055922993
 20
-611.1575031024178
 30
0.0
 10
247.7244014092351
 20
-611.1575031024178
 30
0.0
 10
247.7244014092351
 20
-611.1575031024178
 30
0.0
 10
245.3679560973242
 20
-611.1575031024178
 30
0.0
 10
245.3679560973242
 20
-611.1575031024178
 30
0.0
 10
245.3679560973242
 20
-611.1575031024178
 30
0.0
 10
245.3679560973242
 20
-617.9753470677272
 30
0.0
 10
245.3679560973242
 20
-617.9753470677272
 30
0.0
 10
245.3679560973242
 20
-617.9753470677272
 30
0.0
 10
243.3362110348981
 20
-617.9753470677272
 30
0.0
 10
243.3362110348981
 20
-617.9753470677272
 30
0.0
  0
SPLINE
  5
B4
330
92
100
AcDbEntity
  8
Calque 3
370
     0
100
AcDbSpline
210
0.0
220
0.0
230
1.0
 70
    11
 71
     3
 72
    29
 73
    25
 74
     0
 42
0.0000000001
 43
0.0000000001
 12
1.0
 22
0.0
 32
0.0
 13
1.0
 23
0.0
 33
0.0
 40
0.0
 40
0.0
 40
0.0
 40
0.0
 40
1.0
 40
1.0
 40
1.0
 40
2.0
 40
2.0
 40
2.0
 40
3.0
 40
3.0
 40
3.0
 40
4.0
 40
4.0
 40
4.0
 40
5.0
 40
5.0
 40
5.0
 40
6.0
 40
6.0
 40
6.0
 40
7.0
 40
7.0
 40
7.0
 40
8.0
 40
8.0
 40
8.0
 40
8.0
 10
245.3679560973242
 20
-609.3977483285522
 30
0.0
 10
245.3679560973242
 20
-609.3977483285522
 30
0.0
 10
249.7353036439754
 20
-609.3977483285522
 30
0.0
 10
249.7353036439754
 20
-609.3977483285522
 30
0.0
 10
250.6637568772502
 20
-609.3977483285522
 30
0.0
 10
251.3899830055409
 20
-609.3019746740622
 30
0.0
 10
251.9136375192989
 20
-609.1097383459853
 30
0.0
 10
252.4372920330568
 20
-608.9178465274568
 30
0.0
 10
252.8352005616032
 20
-608.6108885197211
 30
0.0
 10
253.1077076144865
 20
-608.188175303681
 30
0.0
 10
253.3798701578212
 20
-607.7658065971893
 30
0.0
 10
253.5159514294886
 20
-607.306919878554
 30
0.0
 10
253.5159514294886
 20
-606.8111706382266
 30
0.0
 10
253.5159514294886
 20
-606.0849445099359
 30
0.0
 10
253.252401624867
 20
-605.4879094623421
 30
0.0
 10
252.7253020156237
 20
-605.0200654954452
 30
0.0
 10
252.1982024063805
 20
-604.5525660380968
 30
0.0
 10
251.3655228275956
 20
-604.3182995450998
 30
0.0
 10
250.2276077888176
 20
-604.3182995450998
 30
0.0
 10
250.2276077888176
 20
-604.3182995450998
 30
0.0
 10
245.3679560973242
 20
-604.3182995450998
 30
0.0
 10
245.3679560973242
 20
-604.3182995450998
 30
0.0
 10
245.3679560973242
 20
-604.3182995450998
 30
0.0
 10
245.3679560973242
 20
-609.3977483285522
 30
0.0
 10
245.3679560973242
 20
-609.3977483285522
 30
0.0
  0
HATCH
  5
B5
330
92
100
AcDbEntity
  8
Calque 3
 62
   250
420
  2565157
100
AcDbHatch
 10
0.0
 20
0.0
 30
0.0
210
0.0
220
0.0
230
1.0
  2
SOLID
 70
     1
 71
     0
 91
        2
 92
        1
 93
        1
 72
     4
 94
        3
 73
     0
 74
     1
 95
       62
 96
       58
 40
0.0
 40
0.0
 40
0.0
 40
0.0
 40
1.0
 40
1.0
 40
1.0
 40
2.0
 40
2.0
 40
2.0
 40
3.0
 40
3.0
 40
3.0
 40
4.0
 40
4.0
 40
4.0
 40
5.0
 40
5.0
 40
5.0
 40
6.0
 40
6.0
 40
6.0
 40
7.0
 40
7.0
 40
7.0
 40
8.0
 40
8.0
 40
8.0
 40
9.0
 40
9.0
 40
9.0
 40
10.0
 40
10.0
 40
10.0
 40
11.0
 40
11.0
 40
11.0
 40
12.0
 40
12.0
 40
12.0
 40
13.0
 40
13.0
 40
13.0
 40
14.0
 40
14.0
 40
14.0
 40
15.0
 40
15.0
 40
15.0
 40
16.0
 40
16.0
 40
16.0
 40
17.0
 40
17.0
 40
17.0
 40
18.0
 40
18.0
 40
18.0
 40
19.0
 40
19.0
 40
19.0
 40
19.0
 10
243.3362110348981
 20
-617.9753470677272
 10
243.3362110348981
 20
-617.9753470677272
 10
243.3362110348981
 20
-602.6219345281628
 10
243.3362110348981
 20
-602.6219345281628
 10
243.3362110348981
 20
-602.6219345281628
 10
250.1435474589775
 20
-602.6219345281628
 10
250.1435474589775
 20
-602.6219345281628
 10
251.5119393857187
 20
-602.6219345281628
 10
252.5523582222642
 20
-602.7597383475728
 10
253.2648039686138
 20
-603.0353459863928
 10
253.976905205415
 20
-603.3112981347613
 10
254.5456904700297
 20
-603.7984346363756
 10
254.9718487815551
 20
-604.4964109816872
 10
255.397662583532
 20
-605.1947318365474
 10
255.6105694845205
 20
-605.9664332252433
 10
255.6105694845205
 20
-606.8111706382266
 10
255.6105694845205
 20
-607.9001653211141
 10
255.2581362163794
 20
-608.8182832679331
 10
254.5529251705488
 20
-609.5655244786839
 10
253.8477141247181
 20
-610.3127656894345
 10
252.7583749322821
 20
-610.787499847302
 10
251.2852521027893
 20
-610.9897269522861
 10
251.8226869984883
 20
-611.2481091136799
 10
252.2312753230389
 20
-611.5030461795883
 10
252.5106725668927
 20
-611.7541936404631
 10
253.1039180094527
 20
-612.2988632366811
 10
253.6661575926454
 20
-612.9796141045664
 10
254.1967022973739
 20
-613.7964462441191
 10
254.1967022973739
 20
-613.7964462441191
 10
256.8673403175396
 20
-617.9753470677272
 10
256.8673403175396
 20
-617.9753470677272
 10
256.8673403175396
 20
-617.9753470677272
 10
254.3121129961298
 20
-617.9753470677272
 10
254.3121129961298
 20
-617.9753470677272
 10
254.3121129961298
 20
-617.9753470677272
 10
252.2801956789295
 20
-614.7810545338036
 10
252.2801956789295
 20
-614.7810545338036
 10
251.6866057268209
 20
-613.8594914914993
 10
251.197746677464
 20
-613.1542804456686
 10
250.8139630404071
 20
-612.6654213963117
 10
250.4298348938018
 20
-612.1769068565033
 10
250.0860143643738
 20
-611.8348088748179
 10
249.7825014521233
 20
-611.6391274512557
 10
249.4786440303243
 20
-611.4437905372421
 10
249.1696189652974
 20
-611.3077092655747
 10
248.8554262570426
 20
-611.2305391267051
 10
248.6249493690794
 20
-611.1819632803631
 10
248.248055922993
 20
-611.1575031024178
 10
247.7244014092351
 20
-611.1575031024178
 10
247.7244014092351
 20
-611.1575031024178
 10
245.3679560973242
 20
-611.1575031024178
 10
245.3679560973242
 20
-611.1575031024178
 10
245.3679560973242
 20
-611.1575031024178
 10
245.3679560973242
 20
-617.9753470677272
 10
245.3679560973242
 20
-617.9753470677272
 10
245.3679560973242
 20
-617.9753470677272
 10
243.3362110348981
 20
-617.9753470677272
 10
243.3362110348981
 20
-617.9753470677272
 97
        0
 97
        0
 92
        1
 93
        1
 72
     4
 94
        3
 73
     0
 74
     1
 95
       29
 96
       25
 40
0.0
 40
0.0
 40
0.0
 40
0.0
 40
1.0
 40
1.0
 40
1.0
 40
2.0
 40
2.0
 40
2.0
 40
3.0
 40
3.0
 40
3.0
 40
4.0
 40
4.0
 40
4.0
 40
5.0
 40
5.0
 40
5.0
 40
6.0
 40
6.0
 40
6.0
 40
7.0
 40
7.0
 40
7.0
 40
8.0
 40
8.0
 40
8.0
 40
8.0
 10
245.3679560973242
 20
-609.3977483285522
 10
245.3679560973242
 20
-609.3977483285522
 10
249.7353036439754
 20
-609.3977483285522
 10
249.7353036439754
 20
-609.3977483285522
 10
250.6637568772502
 20
-609.3977483285522
 10
251.3899830055409
 20
-609.3019746740622
 10
251.9136375192989
 20
-609.1097383459853
 10
252.4372920330568
 20
-608.9178465274568
 10
252.8352005616032
 20
-608.6108885197211
 10
253.1077076144865
 20
-608.188175303681
 10
253.3798701578212
 20
-607.7658065971893
 10
253.5159514294886
 20
-607.306919878554
 10
253.5159514294886
 20
-606.8111706382266
 10
253.5159514294886
 20
-606.0849445099359
 10
253.252401624867
 20
-605.4879094623421
 10
252.7253020156237
 20
-605.0200654954452
 10
252.1982024063805
 20
-604.5525660380968
 10
251.3655228275956
 20
-604.3182995450998
 10
250.2276077888176
 20
-604.3182995450998
 10
250.2276077888176
 20
-604.3182995450998
 10
245.3679560973242
 20
-604.3182995450998
 10
245.3679560973242
 20
-604.3182995450998
 10
245.3679560973242
 20
-604.3182995450998
 10
245.3679560973242
 20
-609.3977483285522
 10
245.3679560973242
 20
-609.3977483285522
 97
        0
 97
        0
 75
     2
 76
     1
 98
        0
  0
POLYLINE
  5
B6
330
92
100
AcDbEntity
  8
Calque 3
370
     0
100
AcDb2dPolyline
 66
     1
 10
0.0
 20
0.0
 30
0.0
  0
VERTEX
  5
B7
330
B6
100
AcDbEntity
  8
Calque 3
370
     0
100
AcDbVertex
100
AcDb2dVertex
 10
258.0093894708999
 20
-617.9753470677272
 30
0.0
  0
VERTEX
  5
B8
330
B6
100
AcDbEntity
  8
Calque 3
370
     0
100
AcDbVertex
100
AcDb2dVertex
 10
263.905670393905
 20
-602.6219345281628
 30
0.0
  0
VERTEX
  5
B9
330
B6
100
AcDbEntity
  8
Calque 3
370
     0
100
AcDbVertex
100
AcDb2dVertex
 10
266.0946840652327
 20
-602.6219345281628
 30
0.0
  0
VERTEX
  5
BA
330
B6
100
AcDbEntity
  8
Calque 3
370
     0
100
AcDbVertex
100
AcDb2dVertex
 10
272.3785382303284
 20
-617.9753470677272
 30
0.0
  0
VERTEX
  5
BB
330
B6
100
AcDbEntity
  8
Calque 3
370
     0
100
AcDbVertex
100
AcDb2dVertex
 10
270.0637785737891
 20
-617.9753470677272
 30
0.0
  0
VERTEX
  5
BC
330
B6
100
AcDbEntity
  8
Calque 3
370
     0
100
AcDbVertex
100
AcDb2dVertex
 10
268.2730179405563
 20
-613.325157181737
 30
0.0
  0
VERTEX
  5
BD
330
B6
100
AcDbEntity
  8
Calque 3
370
     0
100
AcDbVertex
100
AcDb2dVertex
 10
261.8530825037932
 20
-613.325157181737
 30
0.0
  0
VERTEX
  5
BE
330
B6
100
AcDbEntity
  8
Calque 3
370
     0
100
AcDbVertex
100
AcDb2dVertex
 10
260.1667082637634
 20
-617.9753470677272
 30
0.0
  0
VERTEX
  5
BF
330
B6
100
AcDbEntity
  8
Calque 3
370
     0
100
AcDbVertex
100
AcDb2dVertex
 10
258.0093894708999
 20
-617.9753470677272
 30
0.0
  0
SEQEND
  5
C0
330
B6
100
AcDbEntity
  8
Calque 3
370
     0
  0
SPLINE
  5
C1
330
92
100
AcDbEntity
  8
Calque 3
370
     0
100
AcDbSpline
210
0.0
220
0.0
230
1.0
 70
    11
 71
     3
 72
    20
 73
    16
 74
     0
 42
0.0000000001
 43
0.0000000001
 12
1.0
 22
0.0
 32
0.0
 13
1.0
 23
0.0
 33
0.0
 40
0.0
 40
0.0
 40
0.0
 40
0.0
 40
1.0
 40
1.0
 40
1.0
 40
2.0
 40
2.0
 40
2.0
 40
3.0
 40
3.0
 40
3.0
 40
4.0
 40
4.0
 40
4.0
 40
5.0
 40
5.0
 40
5.0
 40
5.0
 10
262.4394377553827
 20
-611.6704778201715
 30
0.0
 10
262.4394377553827
 20
-611.6704778201715
 30
0.0
 10
267.6446325240466
 20
-611.6704778201715
 30
0.0
 10
267.6446325240466
 20
-611.6704778201715
 30
0.0
 10
267.6446325240466
 20
-611.6704778201715
 30
0.0
 10
266.042318613857
 20
-607.4185409722761
 30
0.0
 10
266.042318613857
 20
-607.4185409722761
 30
0.0
 10
265.5534595645
 20
-606.126974674856
 30
0.0
 10
265.1903465003547
 20
-605.0655407558505
 30
0.0
 10
264.952979421421
 20
-604.2345837248082
 30
0.0
 10
264.7572979978588
 20
-605.2191920144926
 30
0.0
 10
264.4816903590388
 20
-606.196565603658
 30
0.0
 10
264.125467485864
 20
-607.1670490018529
 30
0.0
 10
264.125467485864
 20
-607.1670490018529
 30
0.0
 10
262.4394377553827
 20
-611.6704778201715
 30
0.0
 10
262.4394377553827
 20
-611.6704778201715
 30
0.0
  0
HATCH
  5
C2
330
92
100
AcDbEntity
  8
Calque 3
 62
   250
420
  2565157
100
AcDbHatch
 10
0.0
 20
0.0
 30
0.0
210
0.0
220
0.0
230
1.0
  2
SOLID
 70
     1
 71
     0
 91
        2
 92
        1
 93
        8
 72
     1
 10
258.0093894708999
 20
-617.9753470677272
 11
263.905670393905
 21
-602.6219345281628
 72
     1
 10
263.905670393905
 20
-602.6219345281628
 11
266.0946840652327
 21
-602.6219345281628
 72
     1
 10
266.0946840652327
 20
-602.6219345281628
 11
272.3785382303284
 21
-617.9753470677272
 72
     1
 10
272.3785382303284
 20
-617.9753470677272
 11
270.0637785737891
 21
-617.9753470677272
 72
     1
 10
270.0637785737891
 20
-617.9753470677272
 11
268.2730179405563
 21
-613.325157181737
 72
     1
 10
268.2730179405563
 20
-613.325157181737
 11
261.8530825037932
 21
-613.325157181737
 72
     1
 10
261.8530825037932
 20
-613.325157181737
 11
260.1667082637634
 21
-617.9753470677272
 72
     1
 10
260.1667082637634
 20
-617.9753470677272
 11
258.0093894708999
 21
-617.9753470677272
 97
        0
 92
        1
 93
        1
 72
     4
 94
        3
 73
     0
 74
     1
 95
       20
 96
       16
 40
0.0
 40
0.0
 40
0.0
 40
0.0
 40
1.0
 40
1.0
 40
1.0
 40
2.0
 40
2.0
 40
2.0
 40
3.0
 40
3.0
 40
3.0
 40
4.0
 40
4.0
 40
4.0
 40
5.0
 40
5.0
 40
5.0
 40
5.0
 10
262.4394377553827
 20
-611.6704778201715
 10
262.4394377553827
 20
-611.6704778201715
 10
267.6446325240466
 20
-611.6704778201715
 10
267.6446325240466
 20
-611.6704778201715
 10
267.6446325240466
 20
-611.6704778201715
 10
266.042318613857
 20
-607.4185409722761
 10
266.042318613857
 20
-607.4185409722761
 10
265.5534595645
 20
-606.126974674856
 10
265.1903465003547
 20
-605.0655407558505
 10
264.952979421421
 20
-604.2345837248082
 10
264.7572979978588
 20
-605.2191920144926
 10
264.4816903590388
 20
-606.196565603658
 10
264.125467485864
 20
-607.1670490018529
 10
264.125467485864
 20
-607.1670490018529
 10
262.4394377553827
 20
-611.6704778201715
 10
262.4394377553827
 20
-611.6704778201715
 97
        0
 97
        0
 75
     2
 76
     1
 98
        0
  0
SPLINE
  5
C3
330
92
100
AcDbEntity
  8
Calque 3
370
     0
100
AcDbSpline
210
0.0
220
0.0
230
1.0
 70
    11
 71
     3
 72
    38
 73
    34
 74
     0
 42
0.0000000001
 43
0.0000000001
 12
1.0
 22
0.0
 32
0.0
 13
1.0
 23
0.0
 33
0.0
 40
0.0
 40
0.0
 40
0.0
 40
0.0
 40
1.0
 40
1.0
 40
1.0
 40
2.0
 40
2.0
 40
2.0
 40
3.0
 40
3.0
 40
3.0
 40
4.0
 40
4.0
 40
4.0
 40
5.0
 40
5.0
 40
5.0
 40
6.0
 40
6.0
 40
6.0
 40
7.0
 40
7.0
 40
7.0
 40
8.0
 40
8.0
 40
8.0
 40
9.0
 40
9.0
 40
9.0
 40
10.0
 40
10.0
 40
10.0
 40
11.0
 40
11.0
 40
11.0
 40
11.0
 10
274.9024151828225
 20
-617.9753470677272
 30
0.0
 10
274.9024151828225
 20
-617.9753470677272
 30
0.0
 10
274.9024151828225
 20
-602.6219345281628
 30
0.0
 10
274.9024151828225
 20
-602.6219345281628
 30
0.0
 10
274.9024151828225
 20
-602.6219345281628
 30
0.0
 10
280.693965203076
 20
-602.6219345281628
 30
0.0
 10
280.693965203076
 20
-602.6219345281628
 30
0.0
 10
281.7133689571614
 20
-602.6219345281628
 30
0.0
 10
282.4919605368279
 20
-602.6708548840534
 30
0.0
 10
283.0297399420754
 20
-602.7683510862859
 30
0.0
 10
283.7835268342481
 20
-602.8940970714975
 30
0.0
 10
284.4153573462429
 20
-603.1331866981739
 30
0.0
 10
284.9252314780599
 20
-603.4859644758635
 30
0.0
 10
285.4347611003283
 20
-603.8383977440045
 30
0.0
 10
285.8450719726216
 20
-604.3324244365893
 30
0.0
 10
286.1558195853911
 20
-604.9677000440694
 30
0.0
 10
286.4665671981606
 20
-605.603320161098
 30
0.0
 10
286.6219410045454
 20
-606.3012965064096
 30
0.0
 10
286.6219410045454
 20
-607.0623180991013
 30
0.0
 10
286.6219410045454
 20
-608.368009288011
 30
0.0
 10
286.2064624890243
 20
-609.4728514101306
 30
0.0
 10
285.375505457982
 20
-610.3771889750087
 30
0.0
 10
284.5445484269397
 20
-611.2815265398868
 30
0.0
 10
283.0435203240164
 20
-611.7335230675516
 30
0.0
 10
280.8720766396634
 20
-611.7335230675516
 30
0.0
 10
280.8720766396634
 20
-611.7335230675516
 30
0.0
 10
276.9343325000228
 20
-611.7335230675516
 30
0.0
 10
276.9343325000228
 20
-611.7335230675516
 30
0.0
 10
276.9343325000228
 20
-611.7335230675516
 30
0.0
 10
276.9343325000228
 20
-617.9753470677272
 30
0.0
 10
276.9343325000228
 20
-617.9753470677272
 30
0.0
 10
276.9343325000228
 20
-617.9753470677272
 30
0.0
 10
274.9024151828225
 20
-617.9753470677272
 30
0.0
 10
274.9024151828225
 20
-617.9753470677272
 30
0.0
  0
SPLINE
  5
C4
330
92
100
AcDbEntity
  8
Calque 3
370
     0
100
AcDbSpline
210
0.0
220
0.0
230
1.0
 70
    11
 71
     3
 72
    29
 73
    25
 74
     0
 42
0.0000000001
 43
0.0000000001
 12
1.0
 22
0.0
 32
0.0
 13
1.0
 23
0.0
 33
0.0
 40
0.0
 40
0.0
 40
0.0
 40
0.0
 40
1.0
 40
1.0
 40
1.0
 40
2.0
 40
2.0
 40
2.0
 40
3.0
 40
3.0
 40
3.0
 40
4.0
 40
4.0
 40
4.0
 40
5.0
 40
5.0
 40
5.0
 40
6.0
 40
6.0
 40
6.0
 40
7.0
 40
7.0
 40
7.0
 40
8.0
 40
8.0
 40
8.0
 40
8.0
 10
276.9343325000228
 20
-609.9214028423102
 30
0.0
 10
276.9343325000228
 20
-609.9214028423102
 30
0.0
 10
280.9034270085792
 20
-609.9214028423102
 30
0.0
 10
280.9034270085792
 20
-609.9214028423102
 30
0.0
 10
282.2160083884594
 20
-609.9214028423102
 30
0.0
 10
283.148251226768
 20
-609.677145572406
 30
0.0
 10
283.6998110139565
 20
-609.188286523049
 30
0.0
 10
284.251370801145
 20
-608.6997719832406
 30
0.0
 10
284.5273229495135
 20
-608.0121309243847
 30
0.0
 10
284.5273229495135
 20
-607.1253633464814
 30
0.0
 10
284.5273229495135
 20
-606.4828530384823
 30
0.0
 10
284.3650589521582
 20
-605.9330157990364
 30
0.0
 10
284.0401864478991
 20
-605.4758516281438
 30
0.0
 10
283.7156584531886
 20
-605.0183429477025
 30
0.0
 10
283.2877775939206
 20
-604.7165525831947
 30
0.0
 10
282.7572328891922
 20
-604.5697915155231
 30
0.0
 10
282.4151349075068
 20
-604.479185504261
 30
0.0
 10
281.783304395512
 20
-604.4337102438557
 30
0.0
 10
280.8617413532077
 20
-604.4337102438557
 30
0.0
 10
280.8617413532077
 20
-604.4337102438557
 30
0.0
 10
276.9343325000228
 20
-604.4337102438557
 30
0.0
 10
276.9343325000228
 20
-604.4337102438557
 30
0.0
 10
276.9343325000228
 20
-604.4337102438557
 30
0.0
 10
276.9343325000228
 20
-609.9214028423102
 30
0.0
 10
276.9343325000228
 20
-609.9214028423102
 30
0.0
  0
HATCH
  5
C5
330
92
100
AcDbEntity
  8
Calque 3
 62
   250
420
  2565157
100
AcDbHatch
 10
0.0
 20
0.0
 30
0.0
210
0.0
220
0.0
230
1.0
  2
SOLID
 70
     1
 71
     0
 91
        2
 92
        1
 93
        1
 72
     4
 94
        3
 73
     0
 74
     1
 95
       38
 96
       34
 40
0.0
 40
0.0
 40
0.0
 40
0.0
 40
1.0
 40
1.0
 40
1.0
 40
2.0
 40
2.0
 40
2.0
 40
3.0
 40
3.0
 40
3.0
 40
4.0
 40
4.0
 40
4.0
 40
5.0
 40
5.0
 40
5.0
 40
6.0
 40
6.0
 40
6.0
 40
7.0
 40
7.0
 40
7.0
 40
8.0
 40
8.0
 40
8.0
 40
9.0
 40
9.0
 40
9.0
 40
10.0
 40
10.0
 40
10.0
 40
11.0
 40
11.0
 40
11.0
 40
11.0
 10
274.9024151828225
 20
-617.9753470677272
 10
274.9024151828225
 20
-617.9753470677272
 10
274.9024151828225
 20
-602.6219345281628
 10
274.9024151828225
 20
-602.6219345281628
 10
274.9024151828225
 20
-602.6219345281628
 10
280.693965203076
 20
-602.6219345281628
 10
280.693965203076
 20
-602.6219345281628
 10
281.7133689571614
 20
-602.6219345281628
 10
282.4919605368279
 20
-602.6708548840534
 10
283.0297399420754
 20
-602.7683510862859
 10
283.7835268342481
 20
-602.8940970714975
 10
284.4153573462429
 20
-603.1331866981739
 10
284.9252314780599
 20
-603.4859644758635
 10
285.4347611003283
 20
-603.8383977440045
 10
285.8450719726216
 20
-604.3324244365893
 10
286.1558195853911
 20
-604.9677000440694
 10
286.4665671981606
 20
-605.603320161098
 10
286.6219410045454
 20
-606.3012965064096
 10
286.6219410045454
 20
-607.0623180991013
 10
286.6219410045454
 20
-608.368009288011
 10
286.2064624890243
 20
-609.4728514101306
 10
285.375505457982
 20
-610.3771889750087
 10
284.5445484269397
 20
-611.2815265398868
 10
283.0435203240164
 20
-611.7335230675516
 10
280.8720766396634
 20
-611.7335230675516
 10
280.8720766396634
 20
-611.7335230675516
 10
276.9343325000228
 20
-611.7335230675516
 10
276.9343325000228
 20
-611.7335230675516
 10
276.9343325000228
 20
-611.7335230675516
 10
276.9343325000228
 20
-617.9753470677272
 10
276.9343325000228
 20
-617.9753470677272
 10
276.9343325000228
 20
-617.9753470677272
 10
274.9024151828225
 20
-617.9753470677272
 10
274.9024151828225
 20
-617.9753470677272
 97
        0
 97
        0
 92
        1
 93
        1
 72
     4
 94
        3
 73
     0
 74
     1
 95
       29
 96
       25
 40
0.0
 40
0.0
 40
0.0
 40
0.0
 40
1.0
 40
1.0
 40
1.0
 40
2.0
 40
2.0
 40
2.0
 40
3.0
 40
3.0
 40
3.0
 40
4.0
 40
4.0
 40
4.0
 40
5.0
 40
5.0
 40
5.0
 40
6.0
 40
6.0
 40
6.0
 40
7.0
 40
7.0
 40
7.0
 40
8.0
 40
8.0
 40
8.0
 40
8.0
 10
276.9343325000228
 20
-609.9214028423102
 10
276.9343325000228
 20
-609.9214028423102
 10
280.9034270085792
 20
-609.9214028423102
 10
280.9034270085792
 20
-609.9214028423102
 10
282.2160083884594
 20
-609.9214028423102
 10
283.148251226768
 20
-609.677145572406
 10
283.6998110139565
 20
-609.188286523049
 10
284.251370801145
 20
-608.6997719832406
 10
284.5273229495135
 20
-608.0121309243847
 10
284.5273229495135
 20
-607.1253633464814
 10
284.5273229495135
 20
-606.4828530384823
 10
284.3650589521582
 20
-605.9330157990364
 10
284.0401864478991
 20
-605.4758516281438
 10
283.7156584531886
 20
-605.0183429477025
 10
283.2877775939206
 20
-604.7165525831947
 10
282.7572328891922
 20
-604.5697915155231
 10
282.4151349075068
 20
-604.479185504261
 10
281.783304395512
 20
-604.4337102438557
 10
280.8617413532077
 20
-604.4337102438557
 10
280.8617413532077
 20
-604.4337102438557
 10
276.9343325000228
 20
-604.4337102438557
 10
276.9343325000228
 20
-604.4337102438557
 10
276.9343325000228
 20
-604.4337102438557
 10
276.9343325000228
 20
-609.9214028423102
 10
276.9343325000228
 20
-609.9214028423102
 97
        0
 97
        0
 75
     2
 76
     1
 98
        0
  0
POLYLINE
  5
C6
330
92
100
AcDbEntity
  8
Calque 3
370
     0
100
AcDb2dPolyline
 66
     1
 10
0.0
 20
0.0
 30
0.0
  0
VERTEX
  5
C7
330
C6
100
AcDbEntity
  8
Calque 3
370
     0
100
AcDbVertex
100
AcDb2dVertex
 10
290.1724564116439
 20
-617.9753470677272
 30
0.0
  0
VERTEX
  5
C8
330
C6
100
AcDbEntity
  8
Calque 3
370
     0
100
AcDbVertex
100
AcDb2dVertex
 10
290.1724564116439
 20
-602.6219345281628
 30
0.0
  0
VERTEX
  5
C9
330
C6
100
AcDbEntity
  8
Calque 3
370
     0
100
AcDbVertex
100
AcDb2dVertex
 10
292.2040292192957
 20
-602.6219345281628
 30
0.0
  0
VERTEX
  5
CA
330
C6
100
AcDbEntity
  8
Calque 3
370
     0
100
AcDbVertex
100
AcDb2dVertex
 10
292.2040292192957
 20
-608.92645926617
 30
0.0
  0
VERTEX
  5
CB
330
C6
100
AcDbEntity
  8
Calque 3
370
     0
100
AcDbVertex
100
AcDb2dVertex
 10
300.184592910877
 20
-608.92645926617
 30
0.0
  0
VERTEX
  5
CC
330
C6
100
AcDbEntity
  8
Calque 3
370
     0
100
AcDbVertex
100
AcDb2dVertex
 10
300.184592910877
 20
-602.6219345281628
 30
0.0
  0
VERTEX
  5
CD
330
C6
100
AcDbEntity
  8
Calque 3
370
     0
100
AcDbVertex
100
AcDb2dVertex
 10
302.2165102280773
 20
-602.6219345281628
 30
0.0
  0
VERTEX
  5
CE
330
C6
100
AcDbEntity
  8
Calque 3
370
     0
100
AcDbVertex
100
AcDb2dVertex
 10
302.2165102280773
 20
-617.9753470677272
 30
0.0
  0
VERTEX
  5
CF
330
C6
100
AcDbEntity
  8
Calque 3
370
     0
100
AcDbVertex
100
AcDb2dVertex
 10
300.184592910877
 20
-617.9753470677272
 30
0.0
  0
VERTEX
  5
D0
330
C6
100
AcDbEntity
  8
Calque 3
370
     0
100
AcDbVertex
100
AcDb2dVertex
 10
300.184592910877
 20
-610.7385794914114
 30
0.0
  0
VERTEX
  5
D1
330
C6
100
AcDbEntity
  8
Calque 3
370
     0
100
AcDbVertex
100
AcDb2dVertex
 10
292.2040292192957
 20
-610.7385794914114
 30
0.0
  0
VERTEX
  5
D2
330
C6
100
AcDbEntity
  8
Calque 3
370
     0
100
AcDbVertex
100
AcDb2dVertex
 10
292.2040292192957
 20
-617.9753470677272
 30
0.0
  0
VERTEX
  5
D3
330
C6
100
AcDbEntity
  8
Calque 3
370
     0
100
AcDbVertex
100
AcDb2dVertex
 10
290.1724564116439
 20
-617.9753470677272
 30
0.0
  0
SEQEND
  5
D4
330
C6
100
AcDbEntity
  8
Calque 3
370
     0
  0
HATCH
  5
D5
330
92
100
AcDbEntity
  8
Calque 3
 62
   250
420
  2565157
100
AcDbHatch
 10
0.0
 20
0.0
 30
0.0
210
0.0
220
0.0
230
1.0
  2
SOLID
 70
     1
 71
     0
 91
        1
 92
        1
 93
       12
 72
     1
 10
290.1724564116439
 20
-617.9753470677272
 11
290.1724564116439
 21
-602.6219345281628
 72
     1
 10
290.1724564116439
 20
-602.6219345281628
 11
292.2040292192957
 21
-602.6219345281628
 72
     1
 10
292.2040292192957
 20
-602.6219345281628
 11
292.2040292192957
 21
-608.92645926617
 72
     1
 10
292.2040292192957
 20
-608.92645926617
 11
300.184592910877
 21
-608.92645926617
 72
     1
 10
300.184592910877
 20
-608.92645926617
 11
300.184592910877
 21
-602.6219345281628
 72
     1
 10
300.184592910877
 20
-602.6219345281628
 11
302.2165102280773
 21
-602.6219345281628
 72
     1
 10
302.2165102280773
 20
-602.6219345281628
 11
302.2165102280773
 21
-617.9753470677272
 72
     1
 10
302.2165102280773
 20
-617.9753470677272
 11
300.184592910877
 21
-617.9753470677272
 72
     1
 10
300.184592910877
 20
-617.9753470677272
 11
300.184592910877
 21
-610.7385794914114
 72
     1
 10
300.184592910877
 20
-610.7385794914114
 11
292.2040292192957
 21
-610.7385794914114
 72
     1
 10
292.2040292192957
 20
-610.7385794914114
 11
292.2040292192957
 21
-617.9753470677272
 72
     1
 10
292.2040292192957
 20
-617.9753470677272
 11
290.1724564116439
 21
-617.9753470677272
 97
        0
 75
     2
 76
     1
 98
        0
  0
ENDBLK
  5
95
330
92
100
AcDbEntity
  8
0
100
AcDbBlockEnd
  0
ENDSEC
  0
SECTION
  2
ENTITIES
  0
POLYLINE
  5
41
330
1F
100
AcDbEntity
  8
Calque 1
 62
   250
420
  2565157
370
    35
100
AcDb2dPolyline
 66
     1
 10
0.0
 20
0.0
 30
0.0
  0
VERTEX
  5
42
330
41
100
AcDbEntity
  8
Calque 1
 62
   250
420
  2565157
370
    35
100
AcDbVertex
100
AcDb2dVertex
 10
1117.325156857531
 20
-649.9219736424093
 30
0.0
  0
VERTEX
  5
43
330
41
100
AcDbEntity
  8
Calque 1
 62
   250
420
  2565157
370
    35
100
AcDbVertex
100
AcDb2dVertex
 10
617.3251569825306
 20
-649.9219736424093
 30
0.0
  0
VERTEX
  5
44
330
41
100
AcDbEntity
  8
Calque 1
 62
   250
420
  2565157
370
    35
100
AcDbVertex
100
AcDb2dVertex
 10
617.3251569825306
 20
-149.9219737674055
 30
0.0
  0
VERTEX
  5
45
330
41
100
AcDbEntity
  8
Calque 1
 62
   250
420
  2565157
370
    35
100
AcDbVertex
100
AcDb2dVertex
 10
1117.325156857531
 20
-149.9219737674055
 30
0.0
  0
VERTEX
  5
46
330
41
100
AcDbEntity
  8
Calque 1
 62
   250
420
  2565157
370
    35
100
AcDbVertex
100
AcDb2dVertex
 10
1117.325156857531
 20
-649.9219736424093
 30
0.0
  0
SEQEND
  5
48
330
41
100
AcDbEntity
  8
Calque 1
 62
   250
420
  2565157
370
    35
  0
HATCH
  5
47
330
1F
100
AcDbEntity
  8
Calque 1
 62
     9
420
 12369083
100
AcDbHatch
 10
0.0
 20
0.0
 30
0.0
210
0.0
220
0.0
230
1.0
  2
SOLID
 70
     1
 71
     0
 91
        1
 92
        1
 93
        4
 72
     1
 10
1117.325156857531
 20
-649.9219736424093
 11
617.3251569825306
 21
-649.9219736424093
 72
     1
 10
617.3251569825306
 20
-649.9219736424093
 11
617.3251569825306
 21
-149.9219737674056
 72
     1
 10
617.3251569825306
 20
-149.9219737674055
 11
1117.325156857531
 21
-149.9219737674055
 72
     1
 10
1117.325156857531
 20
-149.9219737674055
 11
1117.325156857531
 21
-649.9219736424093
 97
        0
 75
     2
 76
     1
 98
        0
  0
POLYLINE
  5
49
330
1F
100
AcDbEntity
  8
Calque 1
 62
   250
420
  2565157
370
    35
100
AcDb2dPolyline
 66
     1
 10
0.0
 20
0.0
 30
0.0
  0
VERTEX
  5
4A
330
49
100
AcDbEntity
  8
Calque 1
 62
   250
420
  2565157
370
    35
100
AcDbVertex
100
AcDb2dVertex
 10
617.3251569825306
 20
-649.9219736424093
 30
0.0
  0
VERTEX
  5
4B
330
49
100
AcDbEntity
  8
Calque 1
 62
   250
420
  2565157
370
    35
100
AcDbVertex
100
AcDb2dVertex
 10
117.3251571075339
 20
-649.9219736424093
 30
0.0
  0
VERTEX
  5
4C
330
49
100
AcDbEntity
  8
Calque 1
 62
   250
420
  2565157
370
    35
100
AcDbVertex
100
AcDb2dVertex
 10
117.3251571075339
 20
-149.9219737674055
 30
0.0
  0
VERTEX
  5
4D
330
49
100
AcDbEntity
  8
Calque 1
 62
   250
420
  2565157
370
    35
100
AcDbVertex
100
AcDb2dVertex
 10
617.3251569825306
 20
-149.9219737674055
 30
0.0
  0
VERTEX
  5
4E
330
49
100
AcDbEntity
  8
Calque 1
 62
   250
420
  2565157
370
    35
100
AcDbVertex
100
AcDb2dVertex
 10
617.3251569825306
 20
-649.9219736424093
 30
0.0
  0
SEQEND
  5
50
330
49
100
AcDbEntity
  8
Calque 1
 62
   250
420
  2565157
370
    35
  0
HATCH
  5
4F
330
1F
100
AcDbEntity
  8
Calque 1
 62
     9
420
 12369083
100
AcDbHatch
 10
0.0
 20
0.0
 30
0.0
210
0.0
220
0.0
230
1.0
  2
SOLID
 70
     1
 71
     0
 91
        1
 92
        1
 93
        4
 72
     1
 10
617.3251569825306
 20
-649.9219736424093
 11
117.3251571075339
 21
-649.9219736424093
 72
     1
 10
117.3251571075339
 20
-649.9219736424093
 11
117.3251571075339
 21
-149.9219737674056
 72
     1
 10
117.3251571075339
 20
-149.9219737674055
 11
617.3251569825306
 21
-149.9219737674055
 72
     1
 10
617.3251569825306
 20
-149.9219737674055
 11
617.3251569825306
 21
-649.9219736424093
 97
        0
 75
     2
 76
     1
 98
        0
  0
SPLINE
  5
52
330
1F
100
AcDbEntity
  8
Calque 2
 62
   250
420
  2565157
370
    35
100
AcDbSpline
210
0.0
220
0.0
230
1.0
 70
    11
 71
     3
 72
    29
 73
    25
 74
     0
 42
0.0000000001
 43
0.0000000001
 12
1.0
 22
0.0
 32
0.0
 13
1.0
 23
0.0
 33
0.0
 40
0.0
 40
0.0
 40
0.0
 40
0.0
 40
1.0
 40
1.0
 40
1.0
 40
2.0
 40
2.0
 40
2.0
 40
3.0
 40
3.0
 40
3.0
 40
4.0
 40
4.0
 40
4.0
 40
5.0
 40
5.0
 40
5.0
 40
6.0
 40
6.0
 40
6.0
 40
7.0
 40
7.0
 40
7.0
 40
8.0
 40
8.0
 40
8.0
 40
8.0
 10
587.325156990034
 20
-624.9219736486573
 30
0.0
 10
587.325156990034
 20
-624.9219736486573
 30
0.0
 10
147.3251571000336
 20
-624.9219736486573
 30
0.0
 10
147.3251571000336
 20
-624.9219736486573
 30
0.0
 10
144.5751571007215
 20
-624.9219736486573
 30
0.0
 10
142.3251571012824
 20
-622.6719736492179
 30
0.0
 10
142.3251571012824
 20
-619.9219736499059
 30
0.0
 10
142.3251571012824
 20
-619.9219736499059
 30
0.0
 10
142.3251571012824
 20
-179.9219737599055
 30
0.0
 10
142.3251571012824
 20
-179.9219737599055
 30
0.0
 10
142.3251571012824
 20
-177.1719737605934
 30
0.0
 10
144.5751571007215
 20
-174.9219737611579
 30
0.0
 10
147.3251571000336
 20
-174.9219737611579
 30
0.0
 10
147.3251571000336
 20
-174.9219737611579
 30
0.0
 10
587.325156990034
 20
-174.9219737611579
 30
0.0
 10
587.325156990034
 20
-174.9219737611579
 30
0.0
 10
590.0751569893459
 20
-174.9219737611579
 30
0.0
 10
592.3251569887815
 20
-177.1719737605934
 30
0.0
 10
592.3251569887815
 20
-179.9219737599055
 30
0.0
 10
592.3251569887815
 20
-179.9219737599055
 30
0.0
 10
592.3251569887815
 20
-619.9219736499059
 30
0.0
 10
592.3251569887815
 20
-619.9219736499059
 30
0.0
 10
592.3251569887815
 20
-622.6719736492179
 30
0.0
 10
590.0751569893459
 20
-624.9219736486573
 30
0.0
 10
587.325156990034
 20
-624.9219736486573
 30
0.0
  0
HATCH
  5
53
330
1F
100
AcDbEntity
  8
Calque 2
 62
     7
420
 16711679
100
AcDbHatch
 10
0.0
 20
0.0
 30
0.0
210
0.0
220
0.0
230
1.0
  2
SOLID
 70
     1
 71
     0
 91
        1
 92
        1
 93
        1
 72
     4
 94
        3
 73
     0
 74
     1
 95
       29
 96
       25
 40
0.0
 40
0.0
 40
0.0
 40
0.0
 40
1.0
 40
1.0
 40
1.0
 40
2.0
 40
2.0
 40
2.0
 40
3.0
 40
3.0
 40
3.0
 40
4.0
 40
4.0
 40
4.0
 40
5.0
 40
5.0
 40
5.0
 40
6.0
 40
6.0
 40
6.0
 40
7.0
 40
7.0
 40
7.0
 40
8.0
 40
8.0
 40
8.0
 40
8.0
 10
587.325156990034
 20
-624.9219736486573
 10
587.325156990034
 20
-624.9219736486573
 10
147.3251571000336
 20
-624.9219736486573
 10
147.3251571000336
 20
-624.9219736486573
 10
144.5751571007215
 20
-624.9219736486573
 10
142.3251571012824
 20
-622.6719736492179
 10
142.3251571012824
 20
-619.9219736499059
 10
142.3251571012824
 20
-619.9219736499059
 10
142.3251571012824
 20
-179.9219737599055
 10
142.3251571012824
 20
-179.9219737599055
 10
142.3251571012824
 20
-177.1719737605934
 10
144.5751571007215
 20
-174.9219737611579
 10
147.3251571000336
 20
-174.9219737611579
 10
147.3251571000336
 20
-174.9219737611579
 10
587.325156990034
 20
-174.9219737611579
 10
587.325156990034
 20
-174.9219737611579
 10
590.0751569893459
 20
-174.9219737611579
 10
592.3251569887815
 20
-177.1719737605934
 10
592.3251569887815
 20
-179.9219737599055
 10
592.3251569887815
 20
-179.9219737599055
 10
592.3251569887815
 20
-619.9219736499059
 10
592.3251569887815
 20
-619.9219736499059
 10
592.3251569887815
 20
-622.6719736492179
 10
590.0751569893459
 20
-624.9219736486573
 10
587.325156990034
 20
-624.9219736486573
 97
        0
 97
        0
 75
     2
 76
     1
 98
        0
  0
POLYLINE
  5
54
330
1F
100
AcDbEntity
  8
Calque 2
 62
   250
420
  2565157
370
    35
100
AcDb2dPolyline
 66
     1
 10
0.0
 20
0.0
 30
0.0
  0
VERTEX
  5
55
330
54
100
AcDbEntity
  8
Calque 2
 62
   250
420
  2565157
370
    35
100
AcDbVertex
100
AcDb2dVertex
 10
562.3251569962816
 20
-594.9219736561571
 30
0.0
  0
VERTEX
  5
56
330
54
100
AcDbEntity
  8
Calque 2
 62
   250
420
  2565157
370
    35
100
AcDbVertex
100
AcDb2dVertex
 10
172.3251570937823
 20
-594.9219736561571
 30
0.0
  0
VERTEX
  5
57
330
54
100
AcDbEntity
  8
Calque 2
 62
   250
420
  2565157
370
    35
100
AcDbVertex
100
AcDb2dVertex
 10
172.3251570937823
 20
-204.9219737536543
 30
0.0
  0
VERTEX
  5
58
330
54
100
AcDbEntity
  8
Calque 2
 62
   250
420
  2565157
370
    35
100
AcDbVertex
100
AcDb2dVertex
 10
562.3251569962816
 20
-204.9219737536543
 30
0.0
  0
VERTEX
  5
59
330
54
100
AcDbEntity
  8
Calque 2
 62
   250
420
  2565157
370
    35
100
AcDbVertex
100
AcDb2dVertex
 10
562.3251569962816
 20
-594.9219736561571
 30
0.0
  0
SEQEND
  5
5B
330
54
100
AcDbEntity
  8
Calque 2
 62
   250
420
  2565157
370
    35
  0
HATCH
  5
5A
330
1F
100
AcDbEntity
  8
Calque 2
 62
     7
420
 16711679
100
AcDbHatch
 10
0.0
 20
0.0
 30
0.0
210
0.0
220
0.0
230
1.0
  2
SOLID
 70
     1
 71
     0
 91
        1
 92
        1
 93
        4
 72
     1
 10
562.3251569962816
 20
-594.9219736561571
 11
172.3251570937823
 21
-594.9219736561571
 72
     1
 10
172.3251570937823
 20
-594.9219736561571
 11
172.3251570937823
 21
-204.9219737536542
 72
     1
 10
172.3251570937823
 20
-204.9219737536543
 11
562.3251569962816
 21
-204.9219737536543
 72
     1
 10
562.3251569962816
 20
-204.9219737536543
 11
562.3251569962816
 21
-594.9219736561571
 97
        0
 75
     2
 76
     1
 98
        0
  0
POLYLINE
  5
5C
330
1F
100
AcDbEntity
  8
Calque 2
 62
   250
420
  2565157
370
    35
100
AcDb2dPolyline
 66
     1
 10
0.0
 20
0.0
 30
0.0
  0
VERTEX
  5
5D
330
5C
100
AcDbEntity
  8
Calque 2
 62
   250
420
  2565157
370
    35
100
AcDbVertex
100
AcDb2dVertex
 10
302.3251570612846
 20
-204.9219737536543
 30
0.0
  0
VERTEX
  5
5E
330
5C
100
AcDbEntity
  8
Calque 2
 62
   250
420
  2565157
370
    35
100
AcDbVertex
100
AcDb2dVertex
 10
302.3251570612846
 20
-594.9219736561571
 30
0.0
  0
SEQEND
  5
5F
330
5C
100
AcDbEntity
  8
Calque 2
 62
   250
420
  2565157
370
    35
  0
POLYLINE
  5
60
330
1F
100
AcDbEntity
  8
Calque 2
 62
   250
420
  2565157
370
    35
100
AcDb2dPolyline
 66
     1
 10
0.0
 20
0.0
 30
0.0
  0
VERTEX
  5
61
330
60
100
AcDbEntity
  8
Calque 2
 62
   250
420
  2565157
370
    35
100
AcDbVertex
100
AcDb2dVertex
 10
432.3251570287829
 20
-204.9219737536543
 30
0.0
  0
VERTEX
  5
62
330
60
100
AcDbEntity
  8
Calque 2
 62
   250
420
  2565157
370
    35
100
AcDbVertex
100
AcDb2dVertex
 10
432.3251570287829
 20
-594.9219736561571
 30
0.0
  0
SEQEND
  5
63
330
60
100
AcDbEntity
  8
Calque 2
 62
   250
420
  2565157
370
    35
  0
POLYLINE
  5
64
330
1F
100
AcDbEntity
  8
Calque 2
 62
   250
420
  2565157
370
    35
100
AcDb2dPolyline
 66
     1
 10
0.0
 20
0.0
 30
0.0
  0
VERTEX
  5
65
330
64
100
AcDbEntity
  8
Calque 2
 62
   250
420
  2565157
370
    35
100
AcDbVertex
100
AcDb2dVertex
 10
172.3251570937823
 20
-334.9219737211562
 30
0.0
  0
VERTEX
  5
66
330
64
100
AcDbEntity
  8
Calque 2
 62
   250
420
  2565157
370
    35
100
AcDbVertex
100
AcDb2dVertex
 10
562.3251569962816
 20
-334.9219737211562
 30
0.0
  0
SEQEND
  5
67
330
64
100
AcDbEntity
  8
Calque 2
 62
   250
420
  2565157
370
    35
  0
POLYLINE
  5
68
330
1F
100
AcDbEntity
  8
Calque 2
 62
   250
420
  2565157
370
    35
100
AcDb2dPolyline
 66
     1
 10
0.0
 20
0.0
 30
0.0
  0
VERTEX
  5
69
330
68
100
AcDbEntity
  8
Calque 2
 62
   250
420
  2565157
370
    35
100
AcDbVertex
100
AcDb2dVertex
 10
172.3251570937823
 20
-464.9219736886552
 30
0.0
  0
VERTEX
  5
6A
330
68
100
AcDbEntity
  8
Calque 2
 62
   250
420
  2565157
370
    35
100
AcDbVertex
100
AcDb2dVertex
 10
562.3251569962816
 20
-464.9219736886552
 30
0.0
  0
SEQEND
  5
6B
330
68
100
AcDbEntity
  8
Calque 2
 62
   250
420
  2565157
370
    35
  0
SPLINE
  5
6C
330
1F
100
AcDbEntity
  8
Calque 2
 62
   250
420
  2565157
370
    35
100
AcDbSpline
210
0.0
220
0.0
230
1.0
 70
    11
 71
     3
 72
    29
 73
    25
 74
     0
 42
0.0000000001
 43
0.0000000001
 12
1.0
 22
0.0
 32
0.0
 13
1.0
 23
0.0
 33
0.0
 40
0.0
 40
0.0
 40
0.0
 40
0.0
 40
1.0
 40
1.0
 40
1.0
 40
2.0
 40
2.0
 40
2.0
 40
3.0
 40
3.0
 40
3.0
 40
4.0
 40
4.0
 40
4.0
 40
5.0
 40
5.0
 40
5.0
 40
6.0
 40
6.0
 40
6.0
 40
7.0
 40
7.0
 40
7.0
 40
8.0
 40
8.0
 40
8.0
 40
8.0
 10
1093.015341715429
 20
-625.0346019550301
 30
0.0
 10
1093.015341715429
 20
-625.0346019550301
 30
0.0
 10
653.015341825428
 20
-625.0346019550301
 30
0.0
 10
653.015341825428
 20
-625.0346019550301
 30
0.0
 10
650.2653418261159
 20
-625.0346019550301
 30
0.0
 10
648.0153418266772
 20
-622.7846019555914
 30
0.0
 10
648.0153418266772
 20
-620.0346019562794
 30
0.0
 10
648.0153418266772
 20
-620.0346019562794
 30
0.0
 10
648.0153418266772
 20
-180.0346020662793
 30
0.0
 10
648.0153418266772
 20
-180.0346020662793
 30
0.0
 10
648.0153418266772
 20
-177.2846020669672
 30
0.0
 10
650.2653418261159
 20
-175.0346020675278
 30
0.0
 10
653.015341825428
 20
-175.0346020675278
 30
0.0
 10
653.015341825428
 20
-175.0346020675278
 30
0.0
 10
1093.015341715429
 20
-175.0346020675278
 30
0.0
 10
1093.015341715429
 20
-175.0346020675278
 30
0.0
 10
1095.765341714741
 20
-175.0346020675278
 30
0.0
 10
1098.015341714176
 20
-177.2846020669672
 30
0.0
 10
1098.015341714176
 20
-180.0346020662793
 30
0.0
 10
1098.015341714176
 20
-180.0346020662793
 30
0.0
 10
1098.015341714176
 20
-620.0346019562794
 30
0.0
 10
1098.015341714176
 20
-620.0346019562794
 30
0.0
 10
1098.015341714176
 20
-622.7846019555914
 30
0.0
 10
1095.765341714741
 20
-625.0346019550301
 30
0.0
 10
1093.015341715429
 20
-625.0346019550301
 30
0.0
  0
HATCH
  5
6D
330
1F
100
AcDbEntity
  8
Calque 2
 62
     7
420
 16711679
100
AcDbHatch
 10
0.0
 20
0.0
 30
0.0
210
0.0
220
0.0
230
1.0
  2
SOLID
 70
     1
 71
     0
 91
        1
 92
        1
 93
        1
 72
     4
 94
        3
 73
     0
 74
     1
 95
       29
 96
       25
 40
0.0
 40
0.0
 40
0.0
 40
0.0
 40
1.0
 40
1.0
 40
1.0
 40
2.0
 40
2.0
 40
2.0
 40
3.0
 40
3.0
 40
3.0
 40
4.0
 40
4.0
 40
4.0
 40
5.0
 40
5.0
 40
5.0
 40
6.0
 40
6.0
 40
6.0
 40
7.0
 40
7.0
 40
7.0
 40
8.0
 40
8.0
 40
8.0
 40
8.0
 10
1093.015341715429
 20
-625.0346019550301
 10
1093.015341715429
 20
-625.0346019550301
 10
653.015341825428
 20
-625.0346019550301
 10
653.015341825428
 20
-625.0346019550301
 10
650.2653418261159
 20
-625.0346019550301
 10
648.0153418266772
 20
-622.7846019555914
 10
648.0153418266772
 20
-620.0346019562794
 10
648.0153418266772
 20
-620.0346019562794
 10
648.0153418266772
 20
-180.0346020662793
 10
648.0153418266772
 20
-180.0346020662793
 10
648.0153418266772
 20
-177.2846020669672
 10
650.2653418261159
 20
-175.0346020675278
 10
653.015341825428
 20
-175.0346020675278
 10
653.015341825428
 20
-175.0346020675278
 10
1093.015341715429
 20
-175.0346020675278
 10
1093.015341715429
 20
-175.0346020675278
 10
1095.765341714741
 20
-175.0346020675278
 10
1098.015341714176
 20
-177.2846020669672
 10
1098.015341714176
 20
-180.0346020662793
 10
1098.015341714176
 20
-180.0346020662793
 10
1098.015341714176
 20
-620.0346019562794
 10
1098.015341714176
 20
-620.0346019562794
 10
1098.015341714176
 20
-622.7846019555914
 10
1095.765341714741
 20
-625.0346019550301
 10
1093.015341715429
 20
-625.0346019550301
 97
        0
 97
        0
 75
     2
 76
     1
 98
        0
  0
POLYLINE
  5
6E
330
1F
100
AcDbEntity
  8
Calque 2
 62
   250
420
  2565157
370
    35
100
AcDb2dPolyline
 66
     1
 10
0.0
 20
0.0
 30
0.0
  0
VERTEX
  5
6F
330
6E
100
AcDbEntity
  8
Calque 2
 62
   250
420
  2565157
370
    35
100
AcDbVertex
100
AcDb2dVertex
 10
636.9418236442933
 20
-173.7716562773193
 30
0.0
  0
VERTEX
  5
70
330
6E
100
AcDbEntity
  8
Calque 2
 62
   250
420
  2565157
370
    35
100
AcDbVertex
100
AcDb2dVertex
 10
636.9418236442933
 20
-628.7716561635654
 30
0.0
  0
VERTEX
  5
71
330
6E
100
AcDbEntity
  8
Calque 2
 62
   250
420
  2565157
370
    35
100
AcDbVertex
100
AcDb2dVertex
 10
601.9418236530423
 20
-628.7716561635654
 30
0.0
  0
VERTEX
  5
72
330
6E
100
AcDbEntity
  8
Calque 2
 62
   250
420
  2565157
370
    35
100
AcDbVertex
100
AcDb2dVertex
 10
601.9418236530423
 20
-173.7716562773193
 30
0.0
  0
VERTEX
  5
73
330
6E
100
AcDbEntity
  8
Calque 2
 62
   250
420
  2565157
370
    35
100
AcDbVertex
100
AcDb2dVertex
 10
636.9418236442933
 20
-173.7716562773193
 30
0.0
  0
SEQEND
  5
75
330
6E
100
AcDbEntity
  8
Calque 2
 62
   250
420
  2565157
370
    35
  0
HATCH
  5
74
330
1F
100
AcDbEntity
  8
Calque 2
 62
     7
420
 16711679
100
AcDbHatch
 10
0.0
 20
0.0
 30
0.0
210
0.0
220
0.0
230
1.0
  2
SOLID
 70
     1
 71
     0
 91
        1
 92
        1
 93
        4
 72
     1
 10
636.9418236442933
 20
-173.7716562773193
 11
636.9418236442933
 21
-628.7716561635654
 72
     1
 10
636.9418236442933
 20
-628.7716561635654
 11
601.9418236530423
 21
-628.7716561635654
 72
     1
 10
601.9418236530423
 20
-628.7716561635654
 11
601.9418236530423
 21
-173.7716562773193
 72
     1
 10
601.9418236530423
 20
-173.7716562773193
 11
636.9418236442933
 21
-173.7716562773193
 97
        0
 75
     2
 76
     1
 98
        0
  0
SPLINE
  5
76
330
1F
100
AcDbEntity
  8
Calque 2
 62
   250
420
  2565157
370
    35
100
AcDbSpline
210
0.0
220
0.0
230
1.0
 70
    11
 71
     3
 72
   110
 73
   106
 74
     0
 42
0.0000000001
 43
0.0000000001
 12
1.0
 22
0.0
 32
0.0
 13
1.0
 23
0.0
 33
0.0
 40
0.0
 40
0.0
 40
0.0
 40
0.0
 40
1.0
 40
1.0
 40
1.0
 40
2.0
 40
2.0
 40
2.0
 40
3.0
 40
3.0
 40
3.0
 40
4.0
 40
4.0
 40
4.0
 40
5.0
 40
5.0
 40
5.0
 40
6.0
 40
6.0
 40
6.0
 40
7.0
 40
7.0
 40
7.0
 40
8.0
 40
8.0
 40
8.0
 40
9.0
 40
9.0
 40
9.0
 40
10.0
 40
10.0
 40
10.0
 40
11.0
 40
11.0
 40
11.0
 40
12.0
 40
12.0
 40
12.0
 40
13.0
 40
13.0
 40
13.0
 40
14.0
 40
14.0
 40
14.0
 40
15.0
 40
15.0
 40
15.0
 40
16.0
 40
16.0
 40
16.0
 40
17.0
 40
17.0
 40
17.0
 40
18.0
 40
18.0
 40
18.0
 40
19.0
 40
19.0
 40
19.0
 40
20.0
 40
20.0
 40
20.0
 40
21.0
 40
21.0
 40
21.0
 40
22.0
 40
22.0
 40
22.0
 40
23.0
 40
23.0
 40
23.0
 40
24.0
 40
24.0
 40
24.0
 40
25.0
 40
25.0
 40
25.0
 40
26.0
 40
26.0
 40
26.0
 40
27.0
 40
27.0
 40
27.0
 40
28.0
 40
28.0
 40
28.0
 40
29.0
 40
29.0
 40
29.0
 40
30.0
 40
30.0
 40
30.0
 40
31.0
 40
31.0
 40
31.0
 40
32.0
 40
32.0
 40
32.0
 40
33.0
 40
33.0
 40
33.0
 40
34.0
 40
34.0
 40
34.0
 40
35.0
 40
35.0
 40
35.0
 40
35.0
 10
183.2209156054238
 20
-222.8198128604832
 30
0.0
 10
183.2209156054238
 20
-222.8198128604832
 30
0.0
 10
198.1327700198699
 20
-266.8097833831025
 30
0.0
 10
198.1327700198699
 20
-266.8097833831025
 30
0.0
 10
198.572743067457
 20
-268.1077038734826
 30
0.0
 10
199.4178358032028
 20
-269.2300592638616
 30
0.0
 10
200.5436155318771
 20
-270.0115922986449
 30
0.0
 10
200.5436155318771
 20
-270.0115922986449
 30
0.0
 10
218.4145448541229
 20
-282.4178572826809
 30
0.0
 10
218.4145448541229
 20
-282.4178572826809
 30
0.0
 10
219.3473975741595
 20
-283.0654575180786
 30
0.0
 10
219.5210957177444
 20
-284.3750821485425
 30
0.0
 10
218.7893110867891
 20
-285.243466577274
 30
0.0
 10
218.7893110867891
 20
-285.243466577274
 30
0.0
 10
207.8383765552365
 20
-298.238575554718
 30
0.0
 10
207.8383765552365
 20
-298.238575554718
 30
0.0
 10
207.249122760948
 20
-298.937823390604
 30
0.0
 10
206.9347734199775
 20
-299.8277812622487
 30
0.0
 10
206.9541219334903
 20
-300.7419985258652
 30
0.0
 10
206.9541219334903
 20
-300.7419985258652
 30
0.0
 10
207.4885342068274
 20
-325.9929784409383
 30
0.0
 10
207.4885342068274
 20
-325.9929784409383
 30
0.0
 10
207.530508606051
 20
-327.9762688043019
 30
0.0
 10
210.1237904265864
 20
-328.6941553877878
 30
0.0
 10
211.1796834135183
 20
-327.0147827323788
 30
0.0
 10
211.1796834135183
 20
-327.0147827323788
 30
0.0
 10
225.1490125347344
 20
-304.7968973681639
 30
0.0
 10
225.1490125347344
 20
-304.7968973681639
 30
0.0
 10
225.7603987220774
 20
-303.8245021940043
 30
0.0
 10
226.878039772068
 20
-303.2922591255786
 30
0.0
 10
228.0183212287096
 20
-303.4304750597169
 30
0.0
 10
228.0183212287096
 20
-303.4304750597169
 30
0.0
 10
236.4204619902529
 20
-304.4489163641463
 30
0.0
 10
236.4204619902529
 20
-304.4489163641463
 30
0.0
 10
237.3217970732655
 20
-304.5581691014802
 30
0.0
 10
238.2361899648537
 20
-304.4498853255155
 30
0.0
 10
239.0870767539069
 20
-304.1331318493012
 30
0.0
 10
239.0870767539069
 20
-304.1331318493012
 30
0.0
 10
260.1820019169555
 20
-296.5483056066895
 30
0.0
 10
260.1820019169555
 20
-296.5483056066895
 30
0.0
 10
261.3216004302047
 20
-296.1240755032178
 30
0.0
 10
262.1612664759401
 20
-295.1413457269559
 30
0.0
 10
262.4024716331479
 20
-293.9495084795803
 30
0.0
 10
262.4024716331479
 20
-293.9495084795803
 30
0.0
 10
264.8357942966751
 20
-281.421784300152
 30
0.0
 10
264.8357942966751
 20
-281.421784300152
 30
0.0
 10
264.9151702945153
 20
-281.0131247243679
 30
0.0
 10
265.0749595753675
 20
-280.6243113752162
 30
0.0
 10
265.3058796067554
 20
-280.277931328133
 30
0.0
 10
265.3058796067554
 20
-280.277931328133
 30
0.0
 10
269.4371370046579
 20
-274.0810452312788
 30
0.0
 10
269.4371370046579
 20
-274.0810452312788
 30
0.0
 10
269.9462118583378
 20
-273.3174329507608
 30
0.0
 10
270.7908582631246
 20
-272.8445565964579
 30
0.0
 10
271.7079449906907
 20
-272.8097305181955
 30
0.0
 10
271.7079449906907
 20
-272.8097305181955
 30
0.0
 10
289.5162305737036
 20
-272.1334665087147
 30
0.0
 10
289.5162305737036
 20
-272.1334665087147
 30
0.0
 10
291.6418585997207
 20
-272.0527464570942
 30
0.0
 10
292.2033352506135
 20
-269.1579498864489
 30
0.0
 10
290.2620215979059
 20
-268.2884031461718
 30
0.0
 10
290.2620215979059
 20
-268.2884031461718
 30
0.0
 10
282.6313947493126
 20
-264.8705182035741
 30
0.0
 10
282.6313947493126
 20
-264.8705182035741
 30
0.0
 10
281.699770434035
 20
-264.4532281456894
 30
0.0
 10
280.9565623095601
 20
-263.7044767236252
 30
0.0
 10
280.5462064796939
 20
-262.7697773333837
 30
0.0
 10
280.5462064796939
 20
-262.7697773333837
 30
0.0
 10
275.4894731194784
 20
-251.251662457329
 30
0.0
 10
275.4894731194784
 20
-251.251662457329
 30
0.0
 10
275.0996184922612
 20
-250.3636602508942
 30
0.0
 10
274.1768744430869
 20
-249.8330802358091
 30
0.0
 10
273.2132956746059
 20
-249.9428550322163
 30
0.0
 10
273.2132956746059
 20
-249.9428550322163
 30
0.0
 10
262.338219155264
 20
-251.181787800244
 30
0.0
 10
262.338219155264
 20
-251.181787800244
 30
0.0
 10
261.3915817557513
 20
-251.2896325672762
 30
0.0
 10
260.4825944653535
 20
-251.6144519268541
 30
0.0
 10
259.6819928829448
 20
-252.1309690767945
 30
0.0
 10
259.6819928829448
 20
-252.1309690767945
 30
0.0
 10
251.1942387748167
 20
-257.6069394691366
 30
0.0
 10
251.1942387748167
 20
-257.6069394691366
 30
0.0
 10
250.4966452452662
 20
-258.0569998107801
 30
0.0
 10
249.5710570470912
 20
-257.9015789802928
 30
0.0
 10
249.0587227107365
 20
-257.2483527014398
 30
0.0
 10
249.0587227107365
 20
-257.2483527014398
 30
0.0
 10
243.5122419656173
 20
-250.1765897514126
 30
0.0
 10
243.5122419656173
 20
-250.1765897514126
 30
0.0
 10
243.1113580268464
 20
-249.6654627294809
 30
0.0
 10
242.6352370574628
 20
-249.2181243210368
 30
0.0
 10
242.1001367430165
 20
-248.8498493987396
 30
0.0
 10
242.1001367430165
 20
-248.8498493987396
 30
0.0
 10
217.6065921026206
 20
-231.9925274991741
 30
0.0
 10
217.6065921026206
 20
-231.9925274991741
 30
0.0
 10
216.0480337286955
 20
-230.9198726182942
 30
0.0
 10
214.0076646034211
 20
-232.4048417577454
 30
0.0
 10
214.5491686278447
 20
-234.2177030568935
 30
0.0
 10
214.5491686278447
 20
-234.2177030568935
 30
0.0
 10
216.9782677975622
 20
-242.3499046250845
 30
0.0
 10
216.9782677975622
 20
-242.3499046250845
 30
0.0
 10
216.9782677975622
 20
-242.3499046250845
 30
0.0
 10
186.3663942104942
 20
-220.4842806343237
 30
0.0
 10
186.3663942104942
 20
-220.4842806343237
 30
0.0
 10
184.7400651035124
 20
-219.3226169864781
 30
0.0
 10
182.5792859491465
 20
-220.9270053744633
 30
0.0
 10
183.2209156054238
 20
-222.8198128604832
 30
0.0
  0
SPLINE
  5
77
330
1F
100
AcDbEntity
  8
Calque 2
 62
   250
420
  2565157
370
    35
100
AcDbSpline
210
0.0
220
0.0
230
1.0
 70
    11
 71
     3
 72
   410
 73
   406
 74
     0
 42
0.0000000001
 43
0.0000000001
 12
1.0
 22
0.0
 32
0.0
 13
1.0
 23
0.0
 33
0.0
 40
0.0
 40
0.0
 40
0.0
 40
0.0
 40
1.0
 40
1.0
 40
1.0
 40
2.0
 40
2.0
 40
2.0
 40
3.0
 40
3.0
 40
3.0
 40
4.0
 40
4.0
 40
4.0
 40
5.0
 40
5.0
 40
5.0
 40
6.0
 40
6.0
 40
6.0
 40
7.0
 40
7.0
 40
7.0
 40
8.0
 40
8.0
 40
8.0
 40
9.0
 40
9.0
 40
9.0
 40
10.0
 40
10.0
 40
10.0
 40
11.0
 40
11.0
 40
11.0
 40
12.0
 40
12.0
 40
12.0
 40
13.0
 40
13.0
 40
13.0
 40
14.0
 40
14.0
 40
14.0
 40
15.0
 40
15.0
 40
15.0
 40
16.0
 40
16.0
 40
16.0
 40
17.0
 40
17.0
 40
17.0
 40
18.0
 40
18.0
 40
18.0
 40
19.0
 40
19.0
 40
19.0
 40
20.0
 40
20.0
 40
20.0
 40
21.0
 40
21.0
 40
21.0
 40
22.0
 40
22.0
 40
22.0
 40
23.0
 40
23.0
 40
23.0
 40
24.0
 40
24.0
 40
24.0
 40
25.0
 40
25.0
 40
25.0
 40
26.0
 40
26.0
 40
26.0
 40
27.0
 40
27.0
 40
27.0
 40
28.0
 40
28.0
 40
28.0
 40
29.0
 40
29.0
 40
29.0
 40
30.0
 40
30.0
 40
30.0
 40
31.0
 40
31.0
 40
31.0
 40
32.0
 40
32.0
 40
32.0
 40
33.0
 40
33.0
 40
33.0
 40
34.0
 40
34.0
 40
34.0
 40
35.0
 40
35.0
 40
35.0
 40
36.0
 40
36.0
 40
36.0
 40
37.0
 40
37.0
 40
37.0
 40
38.0
 40
38.0
 40
38.0
 40
39.0
 40
39.0
 40
39.0
 40
40.0
 40
40.0
 40
40.0
 40
41.0
 40
41.0
 40
41.0
 40
42.0
 40
42.0
 40
42.0
 40
43.0
 40
43.0
 40
43.0
 40
44.0
 40
44.0
 40
44.0
 40
45.0
 40
45.0
 40
45.0
 40
46.0
 40
46.0
 40
46.0
 40
47.0
 40
47.0
 40
47.0
 40
48.0
 40
48.0
 40
48.0
 40
49.0
 40
49.0
 40
49.0
 40
50.0
 40
50.0
 40
50.0
 40
51.0
 40
51.0
 40
51.0
 40
52.0
 40
52.0
 40
52.0
 40
53.0
 40
53.0
 40
53.0
 40
54.0
 40
54.0
 40
54.0
 40
55.0
 40
55.0
 40
55.0
 40
56.0
 40
56.0
 40
56.0
 40
57.0
 40
57.0
 40
57.0
 40
58.0
 40
58.0
 40
58.0
 40
59.0
 40
59.0
 40
59.0
 40
60.0
 40
60.0
 40
60.0
 40
61.0
 40
61.0
 40
61.0
 40
62.0
 40
62.0
 40
62.0
 40
63.0
 40
63.0
 40
63.0
 40
64.0
 40
64.0
 40
64.0
 40
65.0
 40
65.0
 40
65.0
 40
66.0
 40
66.0
 40
66.0
 40
67.0
 40
67.0
 40
67.0
 40
68.0
 40
68.0
 40
68.0
 40
69.0
 40
69.0
 40
69.0
 40
70.0
 40
70.0
 40
70.0
 40
71.0
 40
71.0
 40
71.0
 40
72.0
 40
72.0
 40
72.0
 40
73.0
 40
73.0
 40
73.0
 40
74.0
 40
74.0
 40
74.0
 40
75.0
 40
75.0
 40
75.0
 40
76.0
 40
76.0
 40
76.0
 40
77.0
 40
77.0
 40
77.0
 40
78.0
 40
78.0
 40
78.0
 40
79.0
 40
79.0
 40
79.0
 40
80.0
 40
80.0
 40
80.0
 40
81.0
 40
81.0
 40
81.0
 40
82.0
 40
82.0
 40
82.0
 40
83.0
 40
83.0
 40
83.0
 40
84.0
 40
84.0
 40
84.0
 40
85.0
 40
85.0
 40
85.0
 40
86.0
 40
86.0
 40
86.0
 40
87.0
 40
87.0
 40
87.0
 40
88.0
 40
88.0
 40
88.0
 40
89.0
 40
89.0
 40
89.0
 40
90.0
 40
90.0
 40
90.0
 40
91.0
 40
91.0
 40
91.0
 40
92.0
 40
92.0
 40
92.0
 40
93.0
 40
93.0
 40
93.0
 40
94.0
 40
94.0
 40
94.0
 40
95.0
 40
95.0
 40
95.0
 40
96.0
 40
96.0
 40
96.0
 40
97.0
 40
97.0
 40
97.0
 40
98.0
 40
98.0
 40
98.0
 40
99.0
 40
99.0
 40
99.0
 40
100.0
 40
100.0
 40
100.0
 40
101.0
 40
101.0
 40
101.0
 40
102.0
 40
102.0
 40
102.0
 40
103.0
 40
103.0
 40
103.0
 40
104.0
 40
104.0
 40
104.0
 40
105.0
 40
105.0
 40
105.0
 40
106.0
 40
106.0
 40
106.0
 40
107.0
 40
107.0
 40
107.0
 40
108.0
 40
108.0
 40
108.0
 40
109.0
 40
109.0
 40
109.0
 40
110.0
 40
110.0
 40
110.0
 40
111.0
 40
111.0
 40
111.0
 40
112.0
 40
112.0
 40
112.0
 40
113.0
 40
113.0
 40
113.0
 40
114.0
 40
114.0
 40
114.0
 40
115.0
 40
115.0
 40
115.0
 40
116.0
 40
116.0
 40
116.0
 40
117.0
 40
117.0
 40
117.0
 40
118.0
 40
118.0
 40
118.0
 40
119.0
 40
119.0
 40
119.0
 40
120.0
 40
120.0
 40
120.0
 40
121.0
 40
121.0
 40
121.0
 40
122.0
 40
122.0
 40
122.0
 40
123.0
 40
123.0
 40
123.0
 40
124.0
 40
124.0
 40
124.0
 40
125.0
 40
125.0
 40
125.0
 40
126.0
 40
126.0
 40
126.0
 40
127.0
 40
127.0
 40
127.0
 40
128.0
 40
128.0
 40
128.0
 40
129.0
 40
129.0
 40
129.0
 40
130.0
 40
130.0
 40
130.0
 40
131.0
 40
131.0
 40
131.0
 40
132.0
 40
132.0
 40
132.0
 40
133.0
 40
133.0
 40
133.0
 40
134.0
 40
134.0
 40
134.0
 40
135.0
 40
135.0
 40
135.0
 40
135.0
 10
333.3718255808037
 20
-237.0446409633765
 30
0.0
 10
333.3718255808037
 20
-237.0446409633765
 30
0.0
 10
335.9167097554101
 20
-238.4697761011555
 30
0.0
 10
335.9167097554101
 20
-238.4697761011555
 30
0.0
 10
336.0901948916986
 20
-238.5669277774775
 30
0.0
 10
336.2857050315745
 20
-238.6179433214556
 30
0.0
 10
336.4845404930136
 20
-238.6179433214556
 30
0.0
 10
336.4845404930136
 20
-238.6179433214556
 30
0.0
 10
337.6649767297372
 20
-238.6179433214556
 30
0.0
 10
337.6649767297372
 20
-238.6179433214556
 30
0.0
 10
338.3068148274771
 20
-238.6179433214556
 30
0.0
 10
338.8271274100443
 20
-238.0976307388887
 30
0.0
 10
338.8271274100443
 20
-237.4557926411487
 30
0.0
 10
338.8271274100443
 20
-237.4557926411487
 30
0.0
 10
338.8271274100443
 20
-235.1443057558051
 30
0.0
 10
338.8271274100443
 20
-235.1443057558051
 30
0.0
 10
338.8271274100443
 20
-233.2647150815181
 30
0.0
 10
337.7930097978032
 20
-231.5375628562134
 30
0.0
 10
336.136188266564
 20
-230.6499798930497
 30
0.0
 10
336.136188266564
 20
-230.6499798930497
 30
0.0
 10
335.9034013869929
 20
-230.5252726361348
 30
0.0
 10
335.9034013869929
 20
-230.5252726361348
 30
0.0
 10
334.5804750934744
 20
-229.8165621217515
 30
0.0
 10
333.1029267800622
 20
-229.4457211015264
 30
0.0
 10
331.602125470338
 20
-229.4457211015264
 30
0.0
 10
331.602125470338
 20
-229.4457211015264
 30
0.0
 10
331.2080855082147
 20
-229.4457211015264
 30
0.0
 10
331.2080855082147
 20
-229.4457211015264
 30
0.0
 10
326.7779935827534
 20
-229.4457211015264
 30
0.0
 10
322.596041131504
 20
-231.4910463214965
 30
0.0
 10
319.8762277768635
 20
-234.9879492060354
 30
0.0
 10
319.8762277768635
 20
-234.9879492060354
 30
0.0
 10
319.4778737440897
 20
-235.5001186767447
 30
0.0
 10
319.4778737440897
 20
-235.5001186767447
 30
0.0
 10
318.515609778442
 20
-236.737315204009
 30
0.0
 10
317.8654146872367
 20
-238.1880358110187
 30
0.0
 10
317.582270012234
 20
-239.7296052319932
 30
0.0
 10
317.582270012234
 20
-239.7296052319932
 30
0.0
 10
317.0701436372718
 20
-242.5178560062991
 30
0.0
 10
317.0701436372718
 20
-242.5178560062991
 30
0.0
 10
316.6550096312992
 20
-245.3333925893884
 30
0.0
 10
316.7061262355622
 20
-247.6419187762854
 30
0.0
 10
317.2243977876219
 20
-249.502830166336
 30
0.0
 10
317.2243977876219
 20
-249.502830166336
 30
0.0
 10
318.7845698455639
 20
-256.2941408722379
 30
0.0
 10
318.7845698455639
 20
-256.2941408722379
 30
0.0
 10
319.2090203984754
 20
-258.1417419553566
 30
0.0
 10
319.8887894881833
 20
-259.9212057669098
 30
0.0
 10
320.8042779120539
 20
-261.5812265438801
 30
0.0
 10
320.8042779120539
 20
-261.5812265438801
 30
0.0
 10
326.0770745787709
 20
-271.1421907147393
 30
0.0
 10
326.0770745787709
 20
-271.1421907147393
 30
0.0
 10
326.2223462613229
 20
-271.4056064008905
 30
0.0
 10
326.2598171600794
 20
-271.7150901711432
 30
0.0
 10
326.1816079116371
 20
-272.0055639202515
 30
0.0
 10
326.1816079116371
 20
-272.0055639202515
 30
0.0
 10
324.4571774868746
 20
-278.410199951749
 30
0.0
 10
324.4571774868746
 20
-278.410199951749
 30
0.0
 10
324.1601991642577
 20
-279.5131949107172
 30
0.0
 10
323.9807103649571
 20
-280.6445062543815
 30
0.0
 10
323.9217060109174
 20
-281.7852570991387
 30
0.0
 10
323.9217060109174
 20
-281.7852570991387
 30
0.0
 10
323.5047171251144
 20
-289.8470422246778
 30
0.0
 10
323.5047171251144
 20
-289.8470422246778
 30
0.0
 10
323.4896547438643
 20
-290.1382482621574
 30
0.0
 10
323.3656711648548
 20
-290.4131510173296
 30
0.0
 10
323.1573675445617
 20
-290.6172035433301
 30
0.0
 10
323.1573675445617
 20
-290.6172035433301
 30
0.0
 10
315.0537619422324
 20
-298.5554294394891
 30
0.0
 10
315.0537619422324
 20
-298.5554294394891
 30
0.0
 10
314.9124222569623
 20
-298.6938846413879
 30
0.0
 10
314.8087715100881
 20
-298.8661326131246
 30
0.0
 10
314.7526290253623
 20
-299.0558554925417
 30
0.0
 10
314.7526290253623
 20
-299.0558554925417
 30
0.0
 10
309.8856257855042
 20
-315.5029698893052
 30
0.0
 10
309.8856257855042
 20
-315.5029698893052
 30
0.0
 10
309.7830809195032
 20
-315.8495008157967
 30
0.0
 10
309.8475786822837
 20
-316.2240151803099
 30
0.0
 10
310.0601351229096
 20
-316.5162802861706
 30
0.0
 10
310.0601351229096
 20
-316.5162802861706
 30
0.0
 10
311.83409607961
 20
-318.9554766016305
 30
0.0
 10
311.83409607961
 20
-318.9554766016305
 30
0.0
 10
312.222193040095
 20
-319.4891099223023
 30
0.0
 10
312.9761952635265
 20
-319.5929482173092
 30
0.0
 10
313.4940893016905
 20
-319.184084502967
 30
0.0
 10
313.4940893016905
 20
-319.184084502967
 30
0.0
 10
315.4737946397866
 20
-317.6211592360501
 30
0.0
 10
315.4737946397866
 20
-317.6211592360501
 30
0.0
 10
315.7419447402045
 20
-317.4094617883512
 30
0.0
 10
315.9033611575482
 20
-317.0904981237427
 30
0.0
 10
315.9151349703191
 20
-316.7490575534363
 30
0.0
 10
315.9151349703191
 20
-316.7490575534363
 30
0.0
 10
316.0642319772194
 20
-312.425244353274
 30
0.0
 10
316.0642319772194
 20
-312.425244353274
 30
0.0
 10
316.0699836497239
 20
-312.2584458506659
 30
0.0
 10
316.1115942771394
 20
-312.0948429135871
 30
0.0
 10
316.1862331707654
 20
-311.9455651263347
 30
0.0
 10
316.1862331707654
 20
-311.9455651263347
 30
0.0
 10
319.3842551403966
 20
-305.5495211870697
 30
0.0
 10
319.3842551403966
 20
-305.5495211870697
 30
0.0
 10
319.522807981708
 20
-305.2724155044465
 30
0.0
 10
319.7662706890134
 20
-305.0621030465156
 30
0.0
 10
320.0605705907998
 20
-304.9652938682983
 30
0.0
 10
320.0605705907998
 20
-304.9652938682983
 30
0.0
 10
331.9066920177434
 20
-301.0685433989101
 30
0.0
 10
331.9066920177434
 20
-301.0685433989101
 30
0.0
 10
332.5146872457715
 20
-300.8685449686378
 30
0.0
 10
333.1699486836215
 20
-301.1977960111926
 30
0.0
 10
333.372348676066
 20
-301.8049959885283
 30
0.0
 10
333.372348676066
 20
-301.8049959885283
 30
0.0
 10
334.1273237842493
 20
-304.0699213130751
 30
0.0
 10
334.1273237842493
 20
-304.0699213130751
 30
0.0
 10
334.2013872020413
 20
-304.292111566445
 30
0.0
 10
334.2065887396924
 20
-304.5314953219176
 30
0.0
 10
334.1422465539086
 20
-304.7566929721625
 30
0.0
 10
334.1422465539086
 20
-304.7566929721625
 30
0.0
 10
332.5990812765609
 20
-310.1577714428874
 30
0.0
 10
332.5990812765609
 20
-310.1577714428874
 30
0.0
 10
332.5205459472331
 20
-310.4326450955222
 30
0.0
 10
332.5460786310728
 20
-310.7268218602292
 30
0.0
 10
332.6707974096142
 20
-310.9840543409679
 30
0.0
 10
332.6707974096142
 20
-310.9840543409679
 30
0.0
 10
335.2379873459952
 20
-316.2788835847581
 30
0.0
 10
335.2379873459952
 20
-316.2788835847581
 30
0.0
 10
335.2787468249252
 20
-316.362950010048
 30
0.0
 10
335.3294947400747
 20
-316.4417947544782
 30
0.0
 10
335.389132185477
 20
-316.5137104974639
 30
0.0
 10
335.389132185477
 20
-316.5137104974639
 30
0.0
 10
340.2909051121227
 20
-322.4246719678331
 30
0.0
 10
340.2909051121227
 20
-322.4246719678331
 30
0.0
 10
340.9279671276764
 20
-323.1928938101138
 30
0.0
 10
341.8740181928804
 20
-323.6375537938891
 30
0.0
 10
342.8720225657445
 20
-323.637840777913
 30
0.0
 10
342.8720225657445
 20
-323.637840777913
 30
0.0
 10
349.5582285771153
 20
-323.6397634491403
 30
0.0
 10
349.5582285771153
 20
-323.6397634491403
 30
0.0
 10
349.8033452901645
 20
-323.6398339343831
 30
0.0
 10
350.0414864125114
 20
-323.558164117235
 30
0.0
 10
350.2349698176918
 20
-323.4076769752496
 30
0.0
 10
350.2349698176918
 20
-323.4076769752496
 30
0.0
 10
350.2516789947506
 20
-323.3946809444124
 30
0.0
 10
350.2516789947506
 20
-323.3946809444124
 30
0.0
 10
350.8805811242465
 20
-322.9055346802621
 30
0.0
 10
350.8465058795587
 20
-321.9434145867443
 30
0.0
 10
350.1832051605555
 20
-321.5035985187097
 30
0.0
 10
349.3155954803374
 20
-320.9283109195692
 30
0.0
 10
348.3521274076631
 20
-320.2859988565941
 30
0.0
 10
348.3521274076631
 20
-320.2859988565941
 30
0.0
 10
348.3521274076631
 20
-320.2859988565941
 30
0.0
 10
342.5741636163226
 20
-316.6541359020364
 30
0.0
 10
342.5741636163226
 20
-316.6541359020364
 30
0.0
 10
342.3202774144607
 20
-316.4945502894369
 30
0.0
 10
342.1379060492276
 20
-316.2430023065384
 30
0.0
 10
342.0651753731005
 20
-315.9520796020367
 30
0.0
 10
342.0651753731005
 20
-315.9520796020367
 30
0.0
 10
341.0897991950647
 20
-312.0505748898869
 30
0.0
 10
341.0897991950647
 20
-312.0505748898869
 30
0.0
 10
340.9982398056227
 20
-311.684337332122
 30
0.0
 10
341.0902760541462
 20
-311.2964463109103
 30
0.0
 10
341.336609432434
 20
-311.0103817425796
 30
0.0
 10
341.336609432434
 20
-311.0103817425796
 30
0.0
 10
346.3023864187583
 20
-305.2436729842671
 30
0.0
 10
346.3023864187583
 20
-305.2436729842671
 30
0.0
 10
346.3749856687203
 20
-305.1593641778586
 30
0.0
 10
346.4351020122845
 20
-305.0650669988461
 30
0.0
 10
346.4808948519905
 20
-304.9636685680684
 30
0.0
 10
346.4808948519905
 20
-304.9636685680684
 30
0.0
 10
348.598709217653
 20
-300.2742224726663
 30
0.0
 10
348.598709217653
 20
-300.2742224726663
 30
0.0
 10
348.7730254278518
 20
-299.8882365786617
 30
0.0
 10
349.1435176194706
 20
-299.627640170653
 30
0.0
 10
349.5657064634115
 20
-299.5940569671552
 30
0.0
 10
349.5657064634115
 20
-299.5940569671552
 30
0.0
 10
364.269468291178
 20
-298.4244395490383
 30
0.0
 10
364.269468291178
 20
-298.4244395490383
 30
0.0
 10
364.3585364920511
 20
-298.4173545785141
 30
0.0
 10
364.448124633542
 20
-298.4205648656464
 30
0.0
 10
364.5364572769618
 20
-298.434006789642
 30
0.0
 10
364.5364572769618
 20
-298.434006789642
 30
0.0
 10
371.2766213037343
 20
-299.4596839241534
 30
0.0
 10
371.2766213037343
 20
-299.4596839241534
 30
0.0
 10
371.9459129418494
 20
-299.5615326516908
 30
0.0
 10
372.3868243608521
 20
-300.2116286417305
 30
0.0
 10
372.2338972619179
 20
-300.871126755881
 30
0.0
 10
372.2338972619179
 20
-300.871126755881
 30
0.0
 10
369.7324920387564
 20
-311.6584367807777
 30
0.0
 10
369.7324920387564
 20
-311.6584367807777
 30
0.0
 10
369.707743660378
 20
-311.7651641625281
 30
0.0
 10
369.6982114710336
 20
-311.874854933124
 30
0.0
 10
369.7041785568211
 20
-311.9842515058999
 30
0.0
 10
369.7041785568211
 20
-311.9842515058999
 30
0.0
 10
370.1785231018169
 20
-320.6805681642031
 30
0.0
 10
370.1785231018169
 20
-320.6805681642031
 30
0.0
 10
370.2058669854952
 20
-321.1818726982797
 30
0.0
 10
370.5520333384525
 20
-321.6089436169
 30
0.0
 10
371.036820462058
 20
-321.739463227102
 30
0.0
 10
371.036820462058
 20
-321.739463227102
 30
0.0
 10
374.4944138097551
 20
-322.6703537437925
 30
0.0
 10
374.4944138097551
 20
-322.6703537437925
 30
0.0
 10
374.7010916570253
 20
-322.7259977795952
 30
0.0
 10
374.9191218853888
 20
-322.7234841383574
 30
0.0
 10
375.1244619441696
 20
-322.6630900034254
 30
0.0
 10
375.1244619441696
 20
-322.6630900034254
 30
0.0
 10
376.9748409498215
 20
-322.1188608841152
 30
0.0
 10
376.9748409498215
 20
-322.1188608841152
 30
0.0
 10
377.4694322223702
 20
-321.9733928627768
 30
0.0
 10
377.8090718447433
 20
-321.5194735948992
 30
0.0
 10
377.8090718447433
 20
-321.0039336138014
 30
0.0
 10
377.8090718447433
 20
-321.0039336138014
 30
0.0
 10
377.8090718447433
 20
-320.1488323786934
 30
0.0
 10
377.8090718447433
 20
-320.1488323786934
 30
0.0
 10
377.8090718447433
 20
-319.7902037969952
 30
0.0
 10
377.6434969322814
 20
-319.451662813744
 30
0.0
 10
377.3604126661024
 20
-319.2314861622714
 30
0.0
 10
377.3604126661024
 20
-319.2314861622714
 30
0.0
 10
375.3138737760231
 20
-317.6397336922107
 30
0.0
 10
375.3138737760231
 20
-317.6397336922107
 30
0.0
 10
374.9100684280693
 20
-317.3256628660223
 30
0.0
 10
374.7591230218836
 20
-316.7844763413727
 30
0.0
 10
374.9420830183973
 20
-316.30674746159
 30
0.0
 10
374.9420830183973
 20
-316.30674746159
 30
0.0
 10
377.7517654544
 20
-308.970354434249
 30
0.0
 10
377.7517654544
 20
-308.970354434249
 30
0.0
 10
377.7897898588221
 20
-308.8710684893608
 30
0.0
 10
377.8412587347963
 20
-308.7774699481712
 30
0.0
 10
377.9047318298198
 20
-308.6921779767341
 30
0.0
 10
377.9047318298198
 20
-308.6921779767341
 30
0.0
 10
383.1869491613639
 20
-301.5941984374712
 30
0.0
 10
383.1869491613639
 20
-301.5941984374712
 30
0.0
 10
383.3585459914255
 20
-301.3636151970762
 30
0.0
 10
383.6095034862507
 20
-301.2048014216602
 30
0.0
 10
383.8913485453617
 20
-301.1484324098395
 30
0.0
 10
383.8913485453617
 20
-301.1484324098395
 30
0.0
 10
389.9814573091671
 20
-299.9304106570785
 30
0.0
 10
389.9814573091671
 20
-299.9304106570785
 30
0.0
 10
390.3161351678852
 20
-299.8634750853353
 30
0.0
 10
390.6633178012687
 20
-299.9470422690183
 30
0.0
 10
390.9308807612911
 20
-300.1589377675621
 30
0.0
 10
390.9308807612911
 20
-300.1589377675621
 30
0.0
 10
416.6674705415898
 20
-320.5409350432321
 30
0.0
 10
416.6674705415898
 20
-320.5409350432321
 30
0.0
 10
416.7494591549673
 20
-320.605865622954
 30
0.0
 10
416.8398373542043
 20
-320.6594317043756
 30
0.0
 10
416.9361571134216
 20
-320.700182371735
 30
0.0
 10
416.9361571134216
 20
-320.700182371735
 30
0.0
 10
420.9547857250814
 20
-322.4003713997486
 30
0.0
 10
420.9547857250814
 20
-322.4003713997486
 30
0.0
 10
421.2261647981633
 20
-322.5151856229739
 30
0.0
 10
421.5310255886514
 20
-322.5226250718518
 30
0.0
 10
421.807681880226
 20
-322.4211844316077
 30
0.0
 10
421.807681880226
 20
-322.4211844316077
 30
0.0
 10
424.681666152366
 20
-321.3673901984936
 30
0.0
 10
424.681666152366
 20
-321.3673901984936
 30
0.0
 10
425.5425448263026
 20
-321.0517346847128
 30
0.0
 10
425.715905073141
 20
-319.9100968248173
 30
0.0
 10
424.987538933411
 20
-319.3531109532603
 30
0.0
 10
424.987538933411
 20
-319.3531109532603
 30
0.0
 10
423.8244224687209
 20
-318.46366895085
 30
0.0
 10
423.8244224687209
 20
-318.46366895085
 30
0.0
 10
423.722303868395
 20
-318.3855782564846
 30
0.0
 10
423.6079361230779
 20
-318.3249721388636
 30
0.0
 10
423.4859782263651
 20
-318.2843195066277
 30
0.0
 10
423.4859782263651
 20
-318.2843195066277
 30
0.0
 10
420.7767757439362
 20
-317.3812520124854
 30
0.0
 10
420.7767757439362
 20
-317.3812520124854
 30
0.0
 10
420.5920128282455
 20
-317.3196643739209
 30
0.0
 10
420.4256905189458
 20
-317.2126307422505
 30
0.0
 10
420.2930907172748
 20
-317.0699855010587
 30
0.0
 10
420.2930907172748
 20
-317.0699855010587
 30
0.0
 10
409.0715739173745
 20
-304.9983537920739
 30
0.0
 10
409.0715739173745
 20
-304.9983537920739
 30
0.0
 10
408.9288622599416
 20
-304.8448306454433
 30
0.0
 10
408.8303287198889
 20
-304.6555680177549
 30
0.0
 10
408.7864095167208
 20
-304.4506117362882
 30
0.0
 10
408.7864095167208
 20
-304.4506117362882
 30
0.0
 10
407.2884456265675
 20
-297.4601135822451
 30
0.0
 10
407.2884456265675
 20
-297.4601135822451
 30
0.0
 10
407.2735243127124
 20
-297.3904807842556
 30
0.0
 10
407.2650349272967
 20
-297.3196238665195
 30
0.0
 10
407.2630846024859
 20
-297.2484370110172
 30
0.0
 10
407.2630846024859
 20
-297.2484370110172
 30
0.0
 10
406.9223494954097
 20
-284.8116056026957
 30
0.0
 10
406.9223494954097
 20
-284.8116056026957
 30
0.0
 10
406.9163950820562
 20
-284.5942695153179
 30
0.0
 10
406.9715268875492
 20
-284.3796212964491
 30
0.0
 10
407.0814792273667
 20
-284.1920555402889
 30
0.0
 10
407.0814792273667
 20
-284.1920555402889
 30
0.0
 10
409.7891028260969
 20
-279.5731682248135
 30
0.0
 10
409.7891028260969
 20
-279.5731682248135
 30
0.0
 10
409.8700606159006
 20
-279.4350637598487
 30
0.0
 10
409.9786777101244
 20
-279.3151743932353
 30
0.0
 10
410.1081437203507
 20
-279.2210172948884
 30
0.0
 10
410.1081437203507
 20
-279.2210172948884
 30
0.0
 10
413.4867736206796
 20
-276.7638319128293
 30
0.0
 10
413.4867736206796
 20
-276.7638319128293
 30
0.0
 10
413.6854087739229
 20
-276.619369983198
 30
0.0
 10
413.9247059248291
 20
-276.5415544230858
 30
0.0
 10
414.1703177592705
 20
-276.5415544230858
 30
0.0
 10
414.1703177592705
 20
-276.5415544230858
 30
0.0
 10
418.0620530118604
 20
-276.5415544230858
 30
0.0
 10
418.0620530118604
 20
-276.5415544230858
 30
0.0
 10
418.2692560855762
 20
-276.5415544230858
 30
0.0
 10
418.4726913781503
 20
-276.486157305967
 30
0.0
 10
418.6512867968714
 20
-276.3811011773053
 30
0.0
 10
418.6512867968714
 20
-276.3811011773053
 30
0.0
 10
420.9699818786944
 20
-275.0171628938791
 30
0.0
 10
420.9699818786944
 20
-275.0171628938791
 30
0.0
 10
421.2310419794018
 20
-274.8635981287564
 30
0.0
 10
421.4218367651714
 20
-274.6141833354004
 30
0.0
 10
421.5017340946816
 20
-274.3220345205716
 30
0.0
 10
421.5017340946816
 20
-274.3220345205716
 30
0.0
 10
422.116712515822
 20
-272.0733333689076
 30
0.0
 10
422.116712515822
 20
-272.0733333689076
 30
0.0
 10
422.2069894414105
 20
-271.7432310115566
 30
0.0
 10
422.1471821942071
 20
-271.3901192336993
 30
0.0
 10
421.9532384788433
 20
-271.1081558940767
 30
0.0
 10
421.9532384788433
 20
-271.1081558940767
 30
0.0
 10
419.772342210323
 20
-267.9374793187185
 30
0.0
 10
419.772342210323
 20
-267.9374793187185
 30
0.0
 10
419.7544749150393
 20
-267.9115031109368
 30
0.0
 10
419.737672076789
 20
-267.8848105824881
 30
0.0
 10
419.7219753978812
 20
-267.8574679805148
 30
0.0
 10
419.7219753978812
 20
-267.8574679805148
 30
0.0
 10
417.1503207976857
 20
-263.3778115801748
 30
0.0
 10
417.1503207976857
 20
-263.3778115801748
 30
0.0
 10
417.0590699829549
 20
-263.2188585480665
 30
0.0
 10
416.9315172957896
 20
-263.0837419423393
 30
0.0
 10
416.7780786902054
 20
-262.9834953866908
 30
0.0
 10
416.7780786902054
 20
-262.9834953866908
 30
0.0
 10
414.1776408296033
 20
-261.2845426510991
 30
0.0
 10
414.1776408296033
 20
-261.2845426510991
 30
0.0
 10
413.8787738438893
 20
-261.0892828870952
 30
0.0
 10
413.68623320212
 20
-260.7674947220785
 30
0.0
 10
413.6554541464084
 20
-260.4118256338543
 30
0.0
 10
413.6554541464084
 20
-260.4118256338543
 30
0.0
 10
413.3854764381893
 20
-257.292083227781
 30
0.0
 10
413.3854764381893
 20
-257.292083227781
 30
0.0
 10
413.2253205212101
 20
-255.4413926315665
 30
0.0
 10
410.8356865855303
 20
-254.8083841261823
 30
0.0
 10
409.7803363672434
 20
-256.3370899570839
 30
0.0
 10
409.7803363672434
 20
-256.3370899570839
 30
0.0
 10
407.1414035712266
 20
-260.1596617277884
 30
0.0
 10
407.1414035712266
 20
-260.1596617277884
 30
0.0
 10
406.9935824026145
 20
-260.3737850382014
 30
0.0
 10
406.7781817059167
 20
-260.5321086432471
 30
0.0
 10
406.5296967043327
 20
-260.6092778983976
 30
0.0
 10
406.5296967043327
 20
-260.6092778983976
 30
0.0
 10
400.7567563595842
 20
-262.4021165147777
 30
0.0
 10
400.7567563595842
 20
-262.4021165147777
 30
0.0
 10
400.1355955516975
 20
-262.595023597972
 30
0.0
 10
399.5645151573141
 20
-262.92230354464
 30
0.0
 10
399.0840550419236
 20
-263.3607233999332
 30
0.0
 10
399.0840550419236
 20
-263.3607233999332
 30
0.0
 10
393.0466114621197
 20
-268.8698906665044
 30
0.0
 10
393.0466114621197
 20
-268.8698906665044
 30
0.0
 10
392.8593720727713
 20
-269.0407466092857
 30
0.0
 10
392.6214067530035
 20
-269.14570111567
 30
0.0
 10
392.3689811878921
 20
-269.1687592201743
 30
0.0
 10
392.3689811878921
 20
-269.1687592201743
 30
0.0
 10
383.6990507194644
 20
-269.9607240225759
 30
0.0
 10
383.6990507194644
 20
-269.9607240225759
 30
0.0
 10
383.6237353853011
 20
-269.9676037886771
 30
0.0
 10
383.5479283249642
 20
-269.9671152615239
 30
0.0
 10
383.4727079137232
 20
-269.9592653905381
 30
0.0
 10
383.4727079137232
 20
-269.9592653905381
 30
0.0
 10
346.8729457668161
 20
-266.1397780173518
 30
0.0
 10
346.8729457668161
 20
-266.1397780173518
 30
0.0
 10
346.8399461950142
 20
-266.1363342395667
 30
0.0
 10
346.8068142827318
 20
-266.1343052212125
 30
0.0
 10
346.7736410879778
 20
-266.1336965387424
 30
0.0
 10
346.7736410879778
 20
-266.1336965387424
 30
0.0
 10
334.4870151796151
 20
-265.9082538615241
 30
0.0
 10
334.4870151796151
 20
-265.9082538615241
 30
0.0
 10
334.1789126673915
 20
-265.9026006044166
 30
0.0
 10
333.8856688302598
 20
-265.7748120564356
 30
0.0
 10
333.6717679190044
 20
-265.5529888892068
 30
0.0
 10
333.6717679190044
 20
-265.5529888892068
 30
0.0
 10
330.5194114701645
 20
-262.2838784978196
 30
0.0
 10
330.5194114701645
 20
-262.2838784978196
 30
0.0
 10
328.6292227999382
 20
-260.3236828398024
 30
0.0
 10
327.1475699191072
 20
-258.0072822477456
 30
0.0
 10
326.160598720058
 20
-255.469356307337
 30
0.0
 10
326.160598720058
 20
-255.469356307337
 30
0.0
 10
326.0580882650144
 20
-255.2057579943697
 30
0.0
 10
326.0580882650144
 20
-255.2057579943697
 30
0.0
 10
324.9379587285067
 20
-252.3254249004915
 30
0.0
 10
324.3632385247714
 20
-249.2619028354293
 30
0.0
 10
324.3632385247714
 20
-246.1714321738276
 30
0.0
 10
324.3632385247714
 20
-246.1714321738276
 30
0.0
 10
324.3632385247714
 20
-244.3217663504832
 30
0.0
 10
324.3632385247714
 20
-244.3217663504832
 30
0.0
 10
324.3632385247714
 20
-242.7422699766452
 30
0.0
 10
324.7799674579894
 20
-241.1907313922125
 30
0.0
 10
325.571352430468
 20
-239.8237937124748
 30
0.0
 10
325.571352430468
 20
-239.8237937124748
 30
0.0
 10
325.7516812640681
 20
-239.512316636255
 30
0.0
 10
325.7516812640681
 20
-239.512316636255
 30
0.0
 10
326.5192535357938
 20
-238.1865099850943
 30
0.0
 10
327.7811526061316
 20
-237.2190991642456
 30
0.0
 10
329.2607943492422
 20
-236.8221221112157
 30
0.0
 10
329.2607943492422
 20
-236.8221221112157
 30
0.0
 10
330.0001300903973
 20
-236.6237637416387
 30
0.0
 10
330.0001300903973
 20
-236.6237637416387
 30
0.0
 10
331.1359128579022
 20
-236.3190415357241
 30
0.0
 10
332.345802236987
 20
-236.4700678908413
 30
0.0
 10
333.3718255808037
 20
-237.0446409633765
 30
0.0
  0
SPLINE
  5
78
330
1F
100
AcDbEntity
  8
Calque 2
 62
   250
420
  2565157
370
    35
100
AcDbSpline
210
0.0
220
0.0
230
1.0
 70
    11
 71
     3
 72
   257
 73
   253
 74
     0
 42
0.0000000001
 43
0.0000000001
 12
1.0
 22
0.0
 32
0.0
 13
1.0
 23
0.0
 33
0.0
 40
0.0
 40
0.0
 40
0.0
 40
0.0
 40
1.0
 40
1.0
 40
1.0
 40
2.0
 40
2.0
 40
2.0
 40
3.0
 40
3.0
 40
3.0
 40
4.0
 40
4.0
 40
4.0
 40
5.0
 40
5.0
 40
5.0
 40
6.0
 40
6.0
 40
6.0
 40
7.0
 40
7.0
 40
7.0
 40
8.0
 40
8.0
 40
8.0
 40
9.0
 40
9.0
 40
9.0
 40
10.0
 40
10.0
 40
10.0
 40
11.0
 40
11.0
 40
11.0
 40
12.0
 40
12.0
 40
12.0
 40
13.0
 40
13.0
 40
13.0
 40
14.0
 40
14.0
 40
14.0
 40
15.0
 40
15.0
 40
15.0
 40
16.0
 40
16.0
 40
16.0
 40
17.0
 40
17.0
 40
17.0
 40
18.0
 40
18.0
 40
18.0
 40
19.0
 40
19.0
 40
19.0
 40
20.0
 40
20.0
 40
20.0
 40
21.0
 40
21.0
 40
21.0
 40
22.0
 40
22.0
 40
22.0
 40
23.0
 40
23.0
 40
23.0
 40
24.0
 40
24.0
 40
24.0
 40
25.0
 40
25.0
 40
25.0
 40
26.0
 40
26.0
 40
26.0
 40
27.0
 40
27.0
 40
27.0
 40
28.0
 40
28.0
 40
28.0
 40
29.0
 40
29.0
 40
29.0
 40
30.0
 40
30.0
 40
30.0
 40
31.0
 40
31.0
 40
31.0
 40
32.0
 40
32.0
 40
32.0
 40
33.0
 40
33.0
 40
33.0
 40
34.0
 40
34.0
 40
34.0
 40
35.0
 40
35.0
 40
35.0
 40
36.0
 40
36.0
 40
36.0
 40
37.0
 40
37.0
 40
37.0
 40
38.0
 40
38.0
 40
38.0
 40
39.0
 40
39.0
 40
39.0
 40
40.0
 40
40.0
 40
40.0
 40
41.0
 40
41.0
 40
41.0
 40
42.0
 40
42.0
 40
42.0
 40
43.0
 40
43.0
 40
43.0
 40
44.0
 40
44.0
 40
44.0
 40
45.0
 40
45.0
 40
45.0
 40
46.0
 40
46.0
 40
46.0
 40
47.0
 40
47.0
 40
47.0
 40
48.0
 40
48.0
 40
48.0
 40
49.0
 40
49.0
 40
49.0
 40
50.0
 40
50.0
 40
50.0
 40
51.0
 40
51.0
 40
51.0
 40
52.0
 40
52.0
 40
52.0
 40
53.0
 40
53.0
 40
53.0
 40
54.0
 40
54.0
 40
54.0
 40
55.0
 40
55.0
 40
55.0
 40
56.0
 40
56.0
 40
56.0
 40
57.0
 40
57.0
 40
57.0
 40
58.0
 40
58.0
 40
58.0
 40
59.0
 40
59.0
 40
59.0
 40
60.0
 40
60.0
 40
60.0
 40
61.0
 40
61.0
 40
61.0
 40
62.0
 40
62.0
 40
62.0
 40
63.0
 40
63.0
 40
63.0
 40
64.0
 40
64.0
 40
64.0
 40
65.0
 40
65.0
 40
65.0
 40
66.0
 40
66.0
 40
66.0
 40
67.0
 40
67.0
 40
67.0
 40
68.0
 40
68.0
 40
68.0
 40
69.0
 40
69.0
 40
69.0
 40
70.0
 40
70.0
 40
70.0
 40
71.0
 40
71.0
 40
71.0
 40
72.0
 40
72.0
 40
72.0
 40
73.0
 40
73.0
 40
73.0
 40
74.0
 40
74.0
 40
74.0
 40
75.0
 40
75.0
 40
75.0
 40
76.0
 40
76.0
 40
76.0
 40
77.0
 40
77.0
 40
77.0
 40
78.0
 40
78.0
 40
78.0
 40
79.0
 40
79.0
 40
79.0
 40
80.0
 40
80.0
 40
80.0
 40
81.0
 40
81.0
 40
81.0
 40
82.0
 40
82.0
 40
82.0
 40
83.0
 40
83.0
 40
83.0
 40
84.0
 40
84.0
 40
84.0
 40
84.0
 10
458.0762281585622
 20
-260.4194533796626
 30
0.0
 10
457.018347826651
 20
-261.7909671643089
 30
0.0
 10
448.5435679273313
 20
-270.5642352636615
 30
0.0
 10
447.5731176953557
 20
-271.5679529604698
 30
0.0
 10
447.5123445587222
 20
-271.6308094272113
 30
0.0
 10
447.4671801546716
 20
-271.7039473628879
 30
0.0
 10
447.4372118672914
 20
-271.7860826859773
 30
0.0
 10
447.4372118672914
 20
-271.7860826859773
 30
0.0
 10
441.1746229199256
 20
-288.9502188957816
 30
0.0
 10
441.1746229199256
 20
-288.9502188957816
 30
0.0
 10
441.1469265048635
 20
-289.026127604562
 30
0.0
 10
441.1342324500158
 20
-289.1066918825093
 30
0.0
 10
441.1372454507904
 20
-289.1874392992008
 30
0.0
 10
441.1372454507904
 20
-289.1874392992008
 30
0.0
 10
441.5936324266167
 20
-301.4184581613159
 30
0.0
 10
441.5936324266167
 20
-301.4184581613159
 30
0.0
 10
441.6513378919702
 20
-302.9649454025866
 30
0.0
 10
443.3321596074334
 20
-303.8959529082655
 30
0.0
 10
444.6737520716654
 20
-303.1245370878013
 30
0.0
 10
444.6737520716654
 20
-303.1245370878013
 30
0.0
 10
446.3151071898096
 20
-302.1807577070288
 30
0.0
 10
446.3151071898096
 20
-302.1807577070288
 30
0.0
 10
446.3872081266404
 20
-302.1392996600978
 30
0.0
 10
446.4502965759139
 20
-302.083850226522
 30
0.0
 10
446.5006661613089
 20
-302.0176669989304
 30
0.0
 10
446.5006661613089
 20
-302.0176669989304
 30
0.0
 10
456.4366695551369
 20
-288.9622334705624
 30
0.0
 10
456.4366695551369
 20
-288.9622334705624
 30
0.0
 10
456.5026208120115
 20
-288.8755766714327
 30
0.0
 10
456.5447528573897
 20
-288.7731731760677
 30
0.0
 10
456.5588807632277
 20
-288.6651946069189
 30
0.0
 10
456.5588807632277
 20
-288.6651946069189
 30
0.0
 10
457.9146089433006
 20
-278.3034615444155
 30
0.0
 10
457.9146089433006
 20
-278.3034615444155
 30
0.0
 10
457.9948621415672
 20
-277.690092116776
 30
0.0
 10
458.8225752197559
 20
-277.5545534233523
 30
0.0
 10
459.0942706421858
 20
-278.1102909765398
 30
0.0
 10
459.0942706421858
 20
-278.1102909765398
 30
0.0
 10
460.6626258438538
 20
-281.3182724527119
 30
0.0
 10
460.6626258438538
 20
-281.3182724527119
 30
0.0
 10
460.7320464132154
 20
-281.4602682839827
 30
0.0
 10
460.7450125050729
 20
-281.6233129985411
 30
0.0
 10
460.6989069137238
 20
-281.7744960200578
 30
0.0
 10
460.6989069137238
 20
-281.7744960200578
 30
0.0
 10
455.7613377561541
 20
-297.9650838067388
 30
0.0
 10
455.7613377561541
 20
-297.9650838067388
 30
0.0
 10
455.7303950641528
 20
-298.0665467645626
 30
0.0
 10
455.7258208331307
 20
-298.1742216791669
 30
0.0
 10
455.7480468999675
 20
-298.2779433449437
 30
0.0
 10
455.7480468999675
 20
-298.2779433449437
 30
0.0
 10
459.4889847264297
 20
-315.7356566613027
 30
0.0
 10
459.4889847264297
 20
-315.7356566613027
 30
0.0
 10
459.5506544504945
 20
-316.0234487639615
 30
0.0
 10
459.8049860001126
 20
-316.2290544131639
 30
0.0
 10
460.0993114139271
 20
-316.2290544131639
 30
0.0
 10
460.0993114139271
 20
-316.2290544131639
 30
0.0
 10
461.4898672534865
 20
-316.2290544131639
 30
0.0
 10
461.4898672534865
 20
-316.2290544131639
 30
0.0
 10
461.7013483288796
 20
-316.2290544131639
 30
0.0
 10
461.8984458756673
 20
-316.3361378468122
 30
0.0
 10
462.01353192898
 20
-316.5135623253433
 30
0.0
 10
462.01353192898
 20
-316.5135623253433
 30
0.0
 10
464.5210595172941
 20
-320.379337212481
 30
0.0
 10
464.5210595172941
 20
-320.379337212481
 30
0.0
 10
464.6048553464745
 20
-320.5085225556851
 30
0.0
 10
464.7334455979996
 20
-320.6021748146958
 30
0.0
 10
464.8821106851671
 20
-320.6422907185821
 30
0.0
 10
464.8821106851671
 20
-320.6422907185821
 30
0.0
 10
471.461450752866
 20
-322.417665010096
 30
0.0
 10
471.461450752866
 20
-322.417665010096
 30
0.0
 10
471.8453145739695
 20
-322.5212471250838
 30
0.0
 10
472.2543379802458
 20
-322.4728020376735
 30
0.0
 10
472.603383660202
 20
-322.2824134849697
 30
0.0
 10
472.603383660202
 20
-322.2824134849697
 30
0.0
 10
473.8021488278322
 20
-321.6285415753532
 30
0.0
 10
473.8021488278322
 20
-321.6285415753532
 30
0.0
 10
474.9192380697091
 20
-321.0192201706922
 30
0.0
 10
475.2183112509579
 20
-319.5506635840301
 30
0.0
 10
474.4284868784183
 20
-318.5529971021635
 30
0.0
 10
474.4284868784183
 20
-318.5529971021635
 30
0.0
 10
474.0703724110074
 20
-318.1006448916837
 30
0.0
 10
474.0703724110074
 20
-318.1006448916837
 30
0.0
 10
473.831429606262
 20
-317.7988243405958
 30
0.0
 10
473.5182893469927
 20
-317.5641378759055
 30
0.0
 10
473.1615377705567
 20
-317.4195086198474
 30
0.0
 10
473.1615377705567
 20
-317.4195086198474
 30
0.0
 10
469.6474264163677
 20
-315.9948665315754
 30
0.0
 10
469.6474264163677
 20
-315.9948665315754
 30
0.0
 10
469.4635021819957
 20
-315.9203025297761
 30
0.0
 10
469.3259988643413
 20
-315.7627159911065
 30
0.0
 10
469.2770420229876
 20
-315.5703851770402
 30
0.0
 10
469.2770420229876
 20
-315.5703851770402
 30
0.0
 10
466.1557628021813
 20
-303.308193482055
 30
0.0
 10
466.1557628021813
 20
-303.308193482055
 30
0.0
 10
466.098340983376
 20
-303.0826073361648
 30
0.0
 10
466.1712193934208
 20
-302.8438113080919
 30
0.0
 10
466.3448174056548
 20
-302.6887303465227
 30
0.0
 10
466.3448174056548
 20
-302.6887303465227
 30
0.0
 10
474.8293464257563
 20
-295.1092143028691
 30
0.0
 10
474.8293464257563
 20
-295.1092143028691
 30
0.0
 10
474.8641815138682
 20
-295.078094943316
 30
0.0
 10
474.8954133218775
 20
-295.0431636231025
 30
0.0
 10
474.9224552320361
 20
-295.0050764468135
 30
0.0
 10
474.9224552320361
 20
-295.0050764468135
 30
0.0
 10
482.95896483775
 20
-283.6860551092365
 30
0.0
 10
482.95896483775
 20
-283.6860551092365
 30
0.0
 10
483.1199762590399
 20
-283.4592785852774
 30
0.0
 10
483.4116033301933
 20
-283.3663904359055
 30
0.0
 10
483.6741117013754
 20
-283.4582687503515
 30
0.0
 10
483.6741117013754
 20
-283.4582687503515
 30
0.0
 10
494.9320971601929
 20
-287.398580152167
 30
0.0
 10
494.9320971601929
 20
-287.398580152167
 30
0.0
 10
494.9706565686144
 20
-287.4120760016012
 30
0.0
 10
495.0104477974736
 20
-287.4217536807061
 30
0.0
 10
495.0508983168855
 20
-287.4274739437078
 30
0.0
 10
495.0508983168855
 20
-287.4274739437078
 30
0.0
 10
506.1317451221761
 20
-288.9944589650563
 30
0.0
 10
506.1317451221761
 20
-288.9944589650563
 30
0.0
 10
506.4233387682947
 20
-289.0356943402773
 30
0.0
 10
506.646440352067
 20
-289.2751291076635
 30
0.0
 10
506.6670050298244
 20
-289.5689050506119
 30
0.0
 10
506.6670050298244
 20
-289.5689050506119
 30
0.0
 10
508.2697486150429
 20
-312.4648392152342
 30
0.0
 10
508.2697486150429
 20
-312.4648392152342
 30
0.0
 10
508.2752450290906
 20
-312.5433580346464
 30
0.0
 10
508.295542821837
 20
-312.620128816784
 30
0.0
 10
508.3295717811885
 20
-312.6911037806395
 30
0.0
 10
508.3295717811885
 20
-312.6911037806395
 30
0.0
 10
512.2218552941011
 20
-320.8093268154923
 30
0.0
 10
512.2218552941011
 20
-320.8093268154923
 30
0.0
 10
512.3267405479078
 20
-321.0280883421485
 30
0.0
 10
512.5488834830563
 20
-321.1662574922458
 30
0.0
 10
512.7914748442439
 20
-321.1636205456573
 30
0.0
 10
512.7914748442439
 20
-321.1636205456573
 30
0.0
 10
520.409233547052
 20
-321.0808161838478
 30
0.0
 10
520.409233547052
 20
-321.0808161838478
 30
0.0
 10
521.7741981125354
 20
-321.0659791400202
 30
0.0
 10
522.7115494174196
 20
-319.7021531913581
 30
0.0
 10
522.2362665455611
 20
-318.4225225436269
 30
0.0
 10
522.2362665455611
 20
-318.4225225436269
 30
0.0
 10
522.0842966018008
 20
-318.0133653677954
 30
0.0
 10
522.0842966018008
 20
-318.0133653677954
 30
0.0
 10
521.829292411323
 20
-317.3268033291508
 30
0.0
 10
521.294471940015
 20
-316.7809986158407
 30
0.0
 10
520.6132353116291
 20
-316.5120911480902
 30
0.0
 10
520.6132353116291
 20
-316.5120911480902
 30
0.0
 10
517.6471407047076
 20
-315.3412718517933
 30
0.0
 10
517.6471407047076
 20
-315.3412718517933
 30
0.0
 10
517.3907057888756
 20
-315.2400481932503
 30
0.0
 10
517.2310501825084
 20
-314.9825804273833
 30
0.0
 10
517.254373926562
 20
-314.7078785925327
 30
0.0
 10
517.254373926562
 20
-314.7078785925327
 30
0.0
 10
519.1900147685936
 20
-291.9103341791881
 30
0.0
 10
519.1900147685936
 20
-291.9103341791881
 30
0.0
 10
519.2806607544887
 20
-290.8427260545511
 30
0.0
 10
519.7972460195845
 20
-289.8565487752335
 30
0.0
 10
520.6232925206732
 20
-289.1741625352025
 30
0.0
 10
520.6232925206732
 20
-289.1741625352025
 30
0.0
 10
527.1359785241731
 20
-283.7941175757923
 30
0.0
 10
527.1359785241731
 20
-283.7941175757923
 30
0.0
 10
527.3408719140866
 20
-283.6248578189031
 30
0.0
 10
527.5149685506796
 20
-283.4214574372678
 30
0.0
 10
527.6505809063043
 20
-283.1928979143091
 30
0.0
 10
527.6505809063043
 20
-283.1928979143091
 30
0.0
 10
537.6777536650147
 20
-266.2932149041224
 30
0.0
 10
537.6777536650147
 20
-266.2932149041224
 30
0.0
 10
537.8326017464574
 20
-266.0322357074804
 30
0.0
 10
537.9464906339634
 20
-265.7490428169207
 30
0.0
 10
538.015445199537
 20
-265.4535206734321
 30
0.0
 10
538.015445199537
 20
-265.4535206734321
 30
0.0
 10
539.2613783587597
 20
-260.1137605749009
 30
0.0
 10
539.2613783587597
 20
-260.1137605749009
 30
0.0
 10
539.436531701135
 20
-259.3630968480129
 30
0.0
 10
540.0903665627599
 20
-258.8210840518696
 30
0.0
 10
540.8604894362018
 20
-258.7881373674189
 30
0.0
 10
540.8604894362018
 20
-258.7881373674189
 30
0.0
 10
549.2192484099008
 20
-258.4305406724041
 30
0.0
 10
549.2192484099008
 20
-258.4305406724041
 30
0.0
 10
550.0273270918618
 20
-258.3959701976612
 30
0.0
 10
550.7361321834097
 20
-257.8808338704848
 30
0.0
 10
551.0184977842081
 20
-257.1229051525614
 30
0.0
 10
551.0184977842081
 20
-257.1229051525614
 30
0.0
 10
552.2035050396935
 20
-253.9420962036251
 30
0.0
 10
552.2035050396935
 20
-253.9420962036251
 30
0.0
 10
552.5234270172999
 20
-253.0833582637364
 30
0.0
 10
552.0737506767784
 20
-252.12960721984
 30
0.0
 10
551.2077048465532
 20
-251.8300316181913
 30
0.0
 10
551.2077048465532
 20
-251.8300316181913
 30
0.0
 10
543.6305584901656
 20
-249.2090061490013
 30
0.0
 10
543.6305584901656
 20
-249.2090061490013
 30
0.0
 10
543.5055823592866
 20
-249.1657754119012
 30
0.0
 10
543.397565838929
 20
-249.0839688515071
 30
0.0
 10
543.3220859680993
 20
-248.9753837741772
 30
0.0
 10
543.3220859680993
 20
-248.9753837741772
 30
0.0
 10
540.6930433732412
 20
-245.1932523219244
 30
0.0
 10
540.6930433732412
 20
-245.1932523219244
 30
0.0
 10
540.2918710658465
 20
-244.6161272481293
 30
0.0
 10
539.7949284027975
 20
-244.1118820832619
 30
0.0
 10
539.2237165922436
 20
-243.7023339926779
 30
0.0
 10
539.2237165922436
 20
-243.7023339926779
 30
0.0
 10
538.9655808012965
 20
-243.5172555010551
 30
0.0
 10
538.9655808012965
 20
-243.5172555010551
 30
0.0
 10
537.7096159253512
 20
-242.6167523824556
 30
0.0
 10
536.950445488215
 20
-241.1778661280966
 30
0.0
 10
536.9161134382026
 20
-239.6328176024657
 30
0.0
 10
536.9161134382026
 20
-239.6328176024657
 30
0.0
 10
536.7805483810645
 20
-233.5319703884286
 30
0.0
 10
536.7805483810645
 20
-233.5319703884286
 30
0.0
 10
536.7571217317648
 20
-232.9175914382516
 30
0.0
 10
535.9557494582031
 20
-232.6907803472025
 30
0.0
 10
535.6325995016866
 20
-233.2065434391137
 30
0.0
 10
535.6325995016866
 20
-233.2065434391137
 30
0.0
 10
533.3921752311782
 20
-236.6660175535306
 30
0.0
 10
533.3921752311782
 20
-236.6660175535306
 30
0.0
 10
533.199360106115
 20
-236.9637464001561
 30
0.0
 10
532.7373125467531
 20
-236.8271978566581
 30
0.0
 10
532.7373125467531
 20
-236.4724865112432
 30
0.0
 10
532.7373125467531
 20
-236.4724865112432
 30
0.0
 10
532.7373125467531
 20
-233.3437370153533
 30
0.0
 10
532.7373125467531
 20
-233.3437370153533
 30
0.0
 10
532.7373125467531
 20
-232.549873923731
 30
0.0
 10
531.6861257118779
 20
-232.2685556572116
 30
0.0
 10
531.2896170301561
 20
-232.9563052290447
 30
0.0
 10
531.2896170301561
 20
-232.9563052290447
 30
0.0
 10
526.1901610069592
 20
-241.8013793931745
 30
0.0
 10
526.1901610069592
 20
-241.8013793931745
 30
0.0
 10
526.1257437979717
 20
-241.9131118972583
 30
0.0
 10
526.0512025490226
 20
-242.0186930910061
 30
0.0
 10
525.967476141062
 20
-242.1167931312311
 30
0.0
 10
525.967476141062
 20
-242.1167931312311
 30
0.0
 10
512.5681111828379
 20
-257.8164782539612
 30
0.0
 10
512.5681111828379
 20
-257.8164782539612
 30
0.0
 10
512.4568298758977
 20
-257.9468636479284
 30
0.0
 10
512.2968239570555
 20
-258.0257454506649
 30
0.0
 10
512.1256363219145
 20
-258.0346152763212
 30
0.0
 10
512.1256363219145
 20
-258.0346152763212
 30
0.0
 10
495.4306891700612
 20
-258.8996384448114
 30
0.0
 10
495.4306891700612
 20
-258.8996384448114
 30
0.0
 10
495.3918257238618
 20
-258.9016520948737
 30
0.0
 10
495.3528591214611
 20
-258.9000268487451
 30
0.0
 10
495.3142983370616
 20
-258.8947839350765
 30
0.0
 10
495.3142983370616
 20
-258.8947839350765
 30
0.0
 10
475.3796661444215
 20
-256.1843734176551
 30
0.0
 10
475.3796661444215
 20
-256.1843734176551
 30
0.0
 10
475.3031744771894
 20
-256.1739732348312
 30
0.0
 10
475.2259956337189
 20
-256.1777138439666
 30
0.0
 10
475.1509188037424
 20
-256.1956751512682
 30
0.0
 10
473.7795762815393
 20
-256.5237537937427
 30
0.0
 10
460.3555273106815
 20
-259.7353099651037
 30
0.0
 10
458.4164870624696
 20
-260.1991967376821
 30
0.0
 10
458.2797233413305
 20
-260.2319154402812
 30
0.0
 10
458.1621138151033
 20
-260.3081049045111
 30
0.0
 10
458.0762281585622
 20
-260.4194533796626
 30
0.0
  0
SPLINE
  5
79
330
1F
100
AcDbEntity
  8
Calque 2
 62
   250
420
  2565157
370
    35
100
AcDbSpline
210
0.0
220
0.0
230
1.0
 70
    11
 71
     3
 72
   158
 73
   154
 74
     0
 42
0.0000000001
 43
0.0000000001
 12
1.0
 22
0.0
 32
0.0
 13
1.0
 23
0.0
 33
0.0
 40
0.0
 40
0.0
 40
0.0
 40
0.0
 40
1.0
 40
1.0
 40
1.0
 40
2.0
 40
2.0
 40
2.0
 40
3.0
 40
3.0
 40
3.0
 40
4.0
 40
4.0
 40
4.0
 40
5.0
 40
5.0
 40
5.0
 40
6.0
 40
6.0
 40
6.0
 40
7.0
 40
7.0
 40
7.0
 40
8.0
 40
8.0
 40
8.0
 40
9.0
 40
9.0
 40
9.0
 40
10.0
 40
10.0
 40
10.0
 40
11.0
 40
11.0
 40
11.0
 40
12.0
 40
12.0
 40
12.0
 40
13.0
 40
13.0
 40
13.0
 40
14.0
 40
14.0
 40
14.0
 40
15.0
 40
15.0
 40
15.0
 40
16.0
 40
16.0
 40
16.0
 40
17.0
 40
17.0
 40
17.0
 40
18.0
 40
18.0
 40
18.0
 40
19.0
 40
19.0
 40
19.0
 40
20.0
 40
20.0
 40
20.0
 40
21.0
 40
21.0
 40
21.0
 40
22.0
 40
22.0
 40
22.0
 40
23.0
 40
23.0
 40
23.0
 40
24.0
 40
24.0
 40
24.0
 40
25.0
 40
25.0
 40
25.0
 40
26.0
 40
26.0
 40
26.0
 40
27.0
 40
27.0
 40
27.0
 40
28.0
 40
28.0
 40
28.0
 40
29.0
 40
29.0
 40
29.0
 40
30.0
 40
30.0
 40
30.0
 40
31.0
 40
31.0
 40
31.0
 40
32.0
 40
32.0
 40
32.0
 40
33.0
 40
33.0
 40
33.0
 40
34.0
 40
34.0
 40
34.0
 40
35.0
 40
35.0
 40
35.0
 40
36.0
 40
36.0
 40
36.0
 40
37.0
 40
37.0
 40
37.0
 40
38.0
 40
38.0
 40
38.0
 40
39.0
 40
39.0
 40
39.0
 40
40.0
 40
40.0
 40
40.0
 40
41.0
 40
41.0
 40
41.0
 40
42.0
 40
42.0
 40
42.0
 40
43.0
 40
43.0
 40
43.0
 40
44.0
 40
44.0
 40
44.0
 40
45.0
 40
45.0
 40
45.0
 40
46.0
 40
46.0
 40
46.0
 40
47.0
 40
47.0
 40
47.0
 40
48.0
 40
48.0
 40
48.0
 40
49.0
 40
49.0
 40
49.0
 40
50.0
 40
50.0
 40
50.0
 40
51.0
 40
51.0
 40
51.0
 40
51.0
 10
224.1718086293164
 20
-348.9837018796601
 30
0.0
 10
224.1718086293164
 20
-348.9837018796601
 30
0.0
 10
222.3624807484106
 20
-369.3687960045495
 30
0.0
 10
222.3624807484106
 20
-369.3687960045495
 30
0.0
 10
222.0560087995231
 20
-372.8217132953515
 30
0.0
 10
223.2201153336495
 20
-376.2437428430906
 30
0.0
 10
225.5685792348149
 20
-378.7935036509838
 30
0.0
 10
225.5685792348149
 20
-378.7935036509838
 30
0.0
 10
227.1258299489474
 20
-380.4842329983626
 30
0.0
 10
227.1258299489474
 20
-380.4842329983626
 30
0.0
 10
227.6422477969183
 20
-381.0449152335042
 30
0.0
 10
227.6161507946073
 20
-381.9154475518769
 30
0.0
 10
227.0670739976967
 20
-382.4441881627624
 30
0.0
 10
227.0670739976967
 20
-382.4441881627624
 30
0.0
 10
227.0670692351964
 20
-382.4441927488774
 30
0.0
 10
227.0670692351964
 20
-382.4441927488774
 30
0.0
 10
224.9479464908571
 20
-384.484829433398
 30
0.0
 10
224.7881455127016
 20
-387.8240847363613
 30
0.0
 10
226.7027201205716
 20
-390.0577551137246
 30
0.0
 10
226.7027201205716
 20
-390.0577551137246
 30
0.0
 10
227.1209882794804
 20
-390.5457346327805
 30
0.0
 10
227.1209882794804
 20
-390.5457346327805
 30
0.0
 10
229.3462256582286
 20
-393.1418449097414
 30
0.0
 10
230.0684849793271
 20
-396.7050870514234
 30
0.0
 10
229.0297984635378
 20
-399.9627856691311
 30
0.0
 10
229.0297984635378
 20
-399.9627856691311
 30
0.0
 10
219.6718343721352
 20
-429.3127639557999
 30
0.0
 10
219.6718343721352
 20
-429.3127639557999
 30
0.0
 10
219.3168115940433
 20
-430.4262444870969
 30
0.0
 10
218.2174012826408
 20
-431.1274882270139
 30
0.0
 10
217.0580446753862
 20
-430.9799337497268
 30
0.0
 10
217.0580446753862
 20
-430.9799337497268
 30
0.0
 10
210.3706004185386
 20
-430.1288044806745
 30
0.0
 10
210.3706004185386
 20
-430.1288044806745
 30
0.0
 10
209.7246126611691
 20
-430.0465878570072
 30
0.0
 10
209.0735259729836
 20
-430.2366852388752
 30
0.0
 10
208.5732612690884
 20
-430.6535724921206
 30
0.0
 10
208.5732612690884
 20
-430.6535724921206
 30
0.0
 10
206.2450920602291
 20
-432.5937134995006
 30
0.0
 10
206.2450920602291
 20
-432.5937134995006
 30
0.0
 10
205.5737242164626
 20
-433.1531867026438
 30
0.0
 10
205.3289399643129
 20
-434.0756752234008
 30
0.0
 10
205.634598901622
 20
-434.8944045197647
 30
0.0
 10
205.634598901622
 20
-434.8944045197647
 30
0.0
 10
209.6915550222967
 20
-445.7612512715745
 30
0.0
 10
209.6915550222967
 20
-445.7612512715745
 30
0.0
 10
209.9308730242253
 20
-446.402281633877
 30
0.0
 10
210.3985455112137
 20
-446.9323199119592
 30
0.0
 10
211.00478334157
 20
-447.249603262428
 30
0.0
 10
211.00478334157
 20
-447.249603262428
 30
0.0
 10
228.145903034523
 20
-456.2206565596753
 30
0.0
 10
228.145903034523
 20
-456.2206565596753
 30
0.0
 10
228.661616362422
 20
-456.4905626004434
 30
0.0
 10
229.2457410993769
 20
-456.6016087114336
 30
0.0
 10
229.8245207522992
 20
-456.5397732784291
 30
0.0
 10
229.8245207522992
 20
-456.5397732784291
 30
0.0
 10
268.4481062149047
 20
-452.4133218401194
 30
0.0
 10
268.4481062149047
 20
-452.4133218401194
 30
0.0
 10
269.5322718135458
 20
-452.2974921821427
 30
0.0
 10
270.4623490997096
 20
-451.589004492537
 30
0.0
 10
270.8619838025257
 20
-450.5745471699997
 30
0.0
 10
270.8619838025257
 20
-450.5745471699997
 30
0.0
 10
271.7778046583225
 20
-448.24977115144
 30
0.0
 10
271.7778046583225
 20
-448.24977115144
 30
0.0
 10
272.19563975972
 20
-447.1891128171235
 30
0.0
 10
271.7740365803074
 20
-445.982399405182
 30
0.0
 10
270.7865917464034
 20
-445.4127196933121
 30
0.0
 10
270.7865917464034
 20
-445.4127196933121
 30
0.0
 10
265.9294210517893
 20
-442.6105058310375
 30
0.0
 10
265.9294210517893
 20
-442.6105058310375
 30
0.0
 10
265.1209364553033
 20
-442.1440724099886
 30
0.0
 10
265.3877202419095
 20
-440.914787978986
 30
0.0
 10
266.3168200563073
 20
-440.8254514583686
 30
0.0
 10
266.3168200563073
 20
-440.8254514583686
 30
0.0
 10
269.9893658720844
 20
-440.4723220530062
 30
0.0
 10
269.9893658720844
 20
-440.4723220530062
 30
0.0
 10
271.3163648190216
 20
-440.3447260004176
 30
0.0
 10
272.2219742870725
 20
-439.0704265099949
 30
0.0
 10
271.9060834398008
 20
-437.7752740361868
 30
0.0
 10
271.9060834398008
 20
-437.7752740361868
 30
0.0
 10
271.0809835181234
 20
-434.3923643573063
 30
0.0
 10
271.0809835181234
 20
-434.3923643573063
 30
0.0
 10
270.8697767007117
 20
-433.526416405928
 30
0.0
 10
270.2235889568908
 20
-432.8325315623025
 30
0.0
 10
269.3748482051975
 20
-432.5602939627019
 30
0.0
 10
269.3748482051975
 20
-432.5602939627019
 30
0.0
 10
263.2343253003087
 20
-430.590692276227
 30
0.0
 10
263.2343253003087
 20
-430.590692276227
 30
0.0
 10
262.1339935574841
 20
-430.2377556794742
 30
0.0
 10
261.3822917325538
 20
-429.2211501717602
 30
0.0
 10
261.3672858641942
 20
-428.0656983079832
 30
0.0
 10
261.3672858641942
 20
-428.0656983079832
 30
0.0
 10
261.2313525011504
 20
-417.5988293538288
 30
0.0
 10
261.2313525011504
 20
-417.5988293538288
 30
0.0
 10
261.2219327169241
 20
-416.8735059683776
 30
0.0
 10
261.6180172959146
 20
-416.2035427556312
 30
0.0
 10
262.2580624873585
 20
-415.8621853201924
 30
0.0
 10
262.2580624873585
 20
-415.8621853201924
 30
0.0
 10
265.6997117518255
 20
-414.0266390458106
 30
0.0
 10
265.6997117518255
 20
-414.0266390458106
 30
0.0
 10
266.2128811375216
 20
-413.7529487067744
 30
0.0
 10
266.5819755198434
 20
-413.2699768584621
 30
0.0
 10
266.7112985062575
 20
-412.7029453026519
 30
0.0
 10
266.7112985062575
 20
-412.7029453026519
 30
0.0
 10
268.3128174337502
 20
-405.6809007744063
 30
0.0
 10
268.3128174337502
 20
-405.6809007744063
 30
0.0
 10
268.5579890165569
 20
-404.6059176805723
 30
0.0
 10
267.7102798417412
 20
-403.5934809959509
 30
0.0
 10
266.6089409703544
 20
-403.6459257041109
 30
0.0
 10
266.6089409703544
 20
-403.6459257041109
 30
0.0
 10
259.3502102815025
 20
-403.9915795464375
 30
0.0
 10
259.3502102815025
 20
-403.9915795464375
 30
0.0
 10
258.4142220218338
 20
-404.0361504159463
 30
0.0
 10
257.6033176070751
 20
-403.34889311577
 30
0.0
 10
257.4938316480804
 20
-402.4182624643138
 30
0.0
 10
257.4938316480804
 20
-402.4182624643138
 30
0.0
 10
257.1797592670443
 20
-399.7486472255245
 30
0.0
 10
257.1797592670443
 20
-399.7486472255245
 30
0.0
 10
257.062694945866
 20
-398.7536004954899
 30
0.0
 10
257.6100602640437
 20
-397.799021278028
 30
0.0
 10
258.5279667289104
 20
-397.3974371996517
 30
0.0
 10
258.5279667289104
 20
-397.3974371996517
 30
0.0
 10
261.411207081293
 20
-396.1360195454835
 30
0.0
 10
261.411207081293
 20
-396.1360195454835
 30
0.0
 10
262.171785261348
 20
-395.8032665917115
 30
0.0
 10
262.7182211912435
 20
-395.1154605781613
 30
0.0
 10
262.8703791347334
 20
-394.299340699432
 30
0.0
 10
262.8703791347334
 20
-394.299340699432
 30
0.0
 10
264.3357777089403
 20
-386.4394756196038
 30
0.0
 10
264.3357777089403
 20
-386.4394756196038
 30
0.0
 10
264.4789832586376
 20
-385.6713731257637
 30
0.0
 10
264.1991205718667
 20
-384.885484491499
 30
0.0
 10
263.6026577606013
 20
-384.3807851896601
 30
0.0
 10
263.6026577606013
 20
-384.3807851896601
 30
0.0
 10
243.445250445263
 20
-367.3245174612954
 30
0.0
 10
243.445250445263
 20
-367.3245174612954
 30
0.0
 10
242.2841675800912
 20
-366.34206272923
 30
0.0
 10
241.5444760169019
 20
-364.9514227166494
 30
0.0
 10
241.3787870311601
 20
-363.4395107217369
 30
0.0
 10
241.3787870311601
 20
-363.4395107217369
 30
0.0
 10
239.3919458887961
 20
-345.3095852976855
 30
0.0
 10
239.3919458887961
 20
-345.3095852976855
 30
0.0
 10
239.1901737499559
 20
-343.4684145307444
 30
0.0
 10
236.8194685562727
 20
-342.852914645487
 30
0.0
 10
235.7475169531789
 20
-344.3633919043892
 30
0.0
 10
235.7475169531789
 20
-344.3633919043892
 30
0.0
 10
231.0535163258766
 20
-350.9776655155879
 30
0.0
 10
231.0535163258766
 20
-350.9776655155879
 30
0.0
 10
231.0535163258766
 20
-350.9776655155879
 30
0.0
 10
227.4864249737321
 20
-347.6997977865885
 30
0.0
 10
227.4864249737321
 20
-347.6997977865885
 30
0.0
 10
226.2765612225496
 20
-346.5880310963134
 30
0.0
 10
224.3170753158826
 20
-347.3470305443568
 30
0.0
 10
224.1718086293164
 20
-348.9837018796601
 30
0.0
  0
SPLINE
  5
7A
330
1F
100
AcDbEntity
  8
Calque 2
 62
   250
420
  2565157
370
    35
100
AcDbSpline
210
0.0
220
0.0
230
1.0
 70
    11
 71
     3
 72
   152
 73
   148
 74
     0
 42
0.0000000001
 43
0.0000000001
 12
1.0
 22
0.0
 32
0.0
 13
1.0
 23
0.0
 33
0.0
 40
0.0
 40
0.0
 40
0.0
 40
0.0
 40
1.0
 40
1.0
 40
1.0
 40
2.0
 40
2.0
 40
2.0
 40
3.0
 40
3.0
 40
3.0
 40
4.0
 40
4.0
 40
4.0
 40
5.0
 40
5.0
 40
5.0
 40
6.0
 40
6.0
 40
6.0
 40
7.0
 40
7.0
 40
7.0
 40
8.0
 40
8.0
 40
8.0
 40
9.0
 40
9.0
 40
9.0
 40
10.0
 40
10.0
 40
10.0
 40
11.0
 40
11.0
 40
11.0
 40
12.0
 40
12.0
 40
12.0
 40
13.0
 40
13.0
 40
13.0
 40
14.0
 40
14.0
 40
14.0
 40
15.0
 40
15.0
 40
15.0
 40
16.0
 40
16.0
 40
16.0
 40
17.0
 40
17.0
 40
17.0
 40
18.0
 40
18.0
 40
18.0
 40
19.0
 40
19.0
 40
19.0
 40
20.0
 40
20.0
 40
20.0
 40
21.0
 40
21.0
 40
21.0
 40
22.0
 40
22.0
 40
22.0
 40
23.0
 40
23.0
 40
23.0
 40
24.0
 40
24.0
 40
24.0
 40
25.0
 40
25.0
 40
25.0
 40
26.0
 40
26.0
 40
26.0
 40
27.0
 40
27.0
 40
27.0
 40
28.0
 40
28.0
 40
28.0
 40
29.0
 40
29.0
 40
29.0
 40
30.0
 40
30.0
 40
30.0
 40
31.0
 40
31.0
 40
31.0
 40
32.0
 40
32.0
 40
32.0
 40
33.0
 40
33.0
 40
33.0
 40
34.0
 40
34.0
 40
34.0
 40
35.0
 40
35.0
 40
35.0
 40
36.0
 40
36.0
 40
36.0
 40
37.0
 40
37.0
 40
37.0
 40
38.0
 40
38.0
 40
38.0
 40
39.0
 40
39.0
 40
39.0
 40
40.0
 40
40.0
 40
40.0
 40
41.0
 40
41.0
 40
41.0
 40
42.0
 40
42.0
 40
42.0
 40
43.0
 40
43.0
 40
43.0
 40
44.0
 40
44.0
 40
44.0
 40
45.0
 40
45.0
 40
45.0
 40
46.0
 40
46.0
 40
46.0
 40
47.0
 40
47.0
 40
47.0
 40
48.0
 40
48.0
 40
48.0
 40
49.0
 40
49.0
 40
49.0
 40
49.0
 10
480.4086232106956
 20
-392.6642467565232
 30
0.0
 10
485.9017848982339
 20
-391.098063285236
 30
0.0
 10
485.0410277912442
 20
-387.759378186784
 30
0.0
 10
489.9336232083144
 20
-386.0790543957017
 30
0.0
 10
498.4899054191738
 20
-383.1404525423243
 30
0.0
 10
508.7759700731768
 20
-390.7228923868923
 30
0.0
 10
510.2771273671818
 20
-388.3133064771195
 30
0.0
 10
510.6638823990938
 20
-387.6925002706775
 30
0.0
 10
510.0994465675317
 20
-386.999174804271
 30
0.0
 10
510.7475120919998
 20
-385.9614689804211
 30
0.0
 10
511.5753685371054
 20
-384.6359038969306
 30
0.0
 10
513.6595183720124
 20
-385.5841056707488
 30
0.0
 10
514.8981593900411
 20
-386.2444443478822
 30
0.0
 10
517.0628420745052
 20
-387.3984652080557
 30
0.0
 10
514.8312852165224
 20
-390.5183398424537
 30
0.0
 10
517.2150759738448
 20
-392.4290543941142
 30
0.0
 10
519.2773531950115
 20
-394.0820542716297
 30
0.0
 10
524.0462696841612
 20
-392.825261906766
 30
0.0
 10
524.5058454218936
 20
-390.7827509209466
 30
0.0
 10
524.6917513870158
 20
-389.956487832502
 30
0.0
 10
524.1640919497568
 20
-389.0172686758377
 30
0.0
 10
522.7419565334457
 20
-387.6077509217404
 30
0.0
 10
517.0374382378876
 20
-381.9538324661226
 30
0.0
 10
509.8223316994359
 20
-383.0133931144596
 30
0.0
 10
509.3364009812415
 20
-380.4346099526684
 30
0.0
 10
509.0129495788694
 20
-378.7181126589907
 30
0.0
 10
511.8585553859929
 20
-376.469692622387
 30
0.0
 10
514.5104606994569
 20
-375.8484988427038
 30
0.0
 10
516.9727565701537
 20
-375.271725262932
 30
0.0
 10
519.1711150629842
 20
-376.4511752341557
 30
0.0
 10
521.9187940309381
 20
-378.3179432865309
 30
0.0
 10
530.618607532454
 20
-384.2285644194924
 30
0.0
 10
538.050109131072
 20
-393.2095838399902
 30
0.0
 10
536.2650759690823
 20
-395.6040543933205
 30
0.0
 10
535.6334177118617
 20
-396.4513971597657
 30
0.0
 10
534.1070250934292
 20
-396.1259002319468
 30
0.0
 10
533.3252898641331
 20
-397.4855286970487
 30
0.0
 10
532.6799373523571
 20
-398.607919274295
 30
0.0
 10
532.6059969905059
 20
-400.2506053972028
 30
0.0
 10
533.3252898641331
 20
-400.7781356433836
 30
0.0
 10
533.8047610282912
 20
-401.1297937650386
 30
0.0
 10
534.5161301823026
 20
-400.8997690458578
 30
0.0
 10
534.7364009748915
 20
-400.8369175851
 30
0.0
 10
537.6907856719604
 20
-399.9938165924739
 30
0.0
 10
542.4392038429728
 20
-403.4950240704368
 30
0.0
 10
543.3794565282863
 20
-404.1883064731511
 30
0.0
 10
548.8838147761516
 20
-408.246908868783
 30
0.0
 10
550.0981248073134
 20
-414.5937436857177
 30
0.0
 10
550.3174051349496
 20
-415.8887766104712
 30
0.0
 10
550.7530374590594
 20
-418.4618107691711
 30
0.0
 10
551.1986174963836
 20
-424.3511369056646
 30
0.0
 10
547.3187940245881
 20
-429.7059134139295
 30
0.0
 10
543.5460268949981
 20
-434.9129383895693
 30
0.0
 10
538.1161688370032
 20
-436.256697883591
 30
0.0
 10
536.4414648579271
 20
-436.6438620205927
 30
0.0
 10
534.9792802066016
 20
-436.9818904832361
 30
0.0
 10
527.8630909722696
 20
-438.6270312366768
 30
0.0
 10
521.4484093061199
 20
-433.9980286879209
 30
0.0
 10
515.4907195560918
 20
-429.6987863726437
 30
0.0
 10
514.5868556918439
 20
-423.197848128285
 30
0.0
 10
514.2164648634833
 20
-420.5336911940003
 30
0.0
 10
513.6534070701155
 20
-416.4839168555481
 30
0.0
 10
515.2048627582016
 20
-412.7775324095902
 30
0.0
 10
516.0179914201093
 20
-412.2575598416295
 30
0.0
 10
516.0938696481703
 20
-412.2090270589836
 30
0.0
 10
516.0179914201093
 20
-412.2575598416295
 30
0.0
 10
515.9803537519313
 20
-411.9494175823219
 30
0.0
 10
515.9440941219507
 20
-411.6525580107267
 30
0.0
 10
515.4359856015692
 20
-411.4927701757521
 30
0.0
 10
515.3924051436808
 20
-411.4790543893514
 30
0.0
 10
514.3335981099818
 20
-411.146064378854
 30
0.0
 10
512.1386847126366
 20
-414.0043739755805
 30
0.0
 10
511.2178537531219
 20
-415.7711911951909
 30
0.0
 10
508.5513498475386
 20
-420.8874594366425
 30
0.0
 10
513.9745760967262
 20
-426.0949365810648
 30
0.0
 10
511.7470204196563
 20
-428.6475800808607
 30
0.0
 10
511.3007944269309
 20
-429.1589399101051
 30
0.0
 10
510.4060600657189
 20
-429.758860225169
 30
0.0
 10
508.3956315316053
 20
-429.7059134139295
 30
0.0
 10
508.3956315316053
 20
-429.7059134139295
 30
0.0
 10
479.6749180889935
 20
-429.59371117182
 30
0.0
 10
479.6749180889935
 20
-429.59371117182
 30
0.0
 10
478.927297646083
 20
-429.5907904682632
 30
0.0
 10
478.185742358148
 20
-429.3483660565453
 30
0.0
 10
477.6300040432673
 20
-428.8482662839584
 30
0.0
 10
475.9783015489444
 20
-427.3619263652095
 30
0.0
 10
478.2469356685206
 20
-425.5673164299898
 30
0.0
 10
474.0586016804351
 20
-426.2957210523139
 30
0.0
 10
473.7487579020732
 20
-426.3496068314813
 30
0.0
 10
473.9153447283414
 20
-426.918229049033
 30
0.0
 10
473.76462737631
 20
-427.3540543853827
 30
0.0
 10
473.1546781589884
 20
-429.1178282256953
 30
0.0
 10
472.5240269602231
 20
-430.0820963090707
 30
0.0
 10
471.0012086283575
 20
-431.6461911912222
 30
0.0
 10
467.9172883410435
 20
-434.8136981077461
 30
0.0
 10
463.3219616006539
 20
-436.1523760859289
 30
0.0
 10
462.8285162679329
 20
-436.2910842429032
 30
0.0
 10
461.083898382354
 20
-436.7814935852285
 30
0.0
 10
457.571429748523
 20
-437.7220046527017
 30
0.0
 10
453.2447127967496
 20
-436.6438620205927
 30
0.0
 10
448.1962914045126
 20
-435.3858854041538
 30
0.0
 10
445.2455025258554
 20
-432.1785661029265
 30
0.0
 10
444.1900975239491
 20
-430.9994175775594
 30
0.0
 10
443.1758398812435
 20
-429.8662395450749
 30
0.0
 10
440.1374594498755
 20
-426.373364891814
 30
0.0
 10
439.4835372630825
 20
-420.8276654981254
 30
0.0
 10
439.287296011501
 20
-419.1633398692012
 30
0.0
 10
438.966449962591
 20
-414.4363243538899
 30
0.0
 10
441.8382384954027
 20
-409.5975800856232
 30
0.0
 10
442.313876990834
 20
-408.796164748365
 30
0.0
 10
444.8487997807289
 20
-404.6695001850546
 30
0.0
 10
450.1873197446721
 20
-402.3068321694223
 30
0.0
 10
454.6502902228835
 20
-400.3316512684952
 30
0.0
 10
458.7209935164102
 20
-400.6300826649031
 30
0.0
 10
460.7706530753596
 20
-400.9545245322284
 30
0.0
 10
462.2948279135747
 20
-401.1957888754292
 30
0.0
 10
466.0520490497883
 20
-401.7905415472653
 30
0.0
 10
469.2961016816257
 20
-404.5998877244045
 30
0.0
 10
469.2961016816257
 20
-404.5998877244045
 30
0.0
 10
470.9989815410721
 20
-406.0745808727443
 30
0.0
 10
474.2802652938065
 20
-411.327873524958
 30
0.0
 10
474.8302210880803
 20
-412.2083456056433
 30
0.0
 10
475.8229208598087
 20
-412.7227320999102
 30
0.0
 10
476.8580174922039
 20
-412.6436282306703
 30
0.0
 10
477.441679270937
 20
-412.5990237912557
 30
0.0
 10
478.0109293922263
 20
-412.474674028472
 30
0.0
 10
478.2919565445582
 20
-412.1846099447306
 30
0.0
 10
479.3803052720415
 20
-411.0612719662245
 30
0.0
 10
477.3509717764551
 20
-406.2088549752501
 30
0.0
 10
473.6470419610293
 20
-402.7771953623928
 30
0.0
 10
471.1471514858504
 20
-400.4610791995074
 30
0.0
 10
469.7771446706001
 20
-400.5456993573625
 30
0.0
 10
463.534071823312
 20
-397.8383064747383
 30
0.0
 10
461.1768513649151
 20
-396.8160605168794
 30
0.0
 10
454.4185429559633
 20
-393.7884675407454
 30
0.0
 10
447.6590718272808
 20
-388.5484988395288
 30
0.0
 10
444.688322926657
 20
-386.2455601668726
 30
0.0
 10
443.2085682883534
 20
-385.0749813165257
 30
0.0
 10
443.48454196857
 20
-384.138776618409
 30
0.0
 10
444.1218631014931
 20
-381.9767638829479
 30
0.0
 10
453.4320613956066
 20
-381.1727216603832
 30
0.0
 10
460.1238794616965
 20
-385.4323023138867
 30
0.0
 10
463.0170275865167
 20
-387.2738996373716
 30
0.0
 10
462.5124933527019
 20
-388.2107502908927
 30
0.0
 10
465.591935015885
 20
-390.135998839132
 30
0.0
 10
466.1504065258922
 20
-390.4851377347136
 30
0.0
 10
473.1579675932056
 20
-394.73151936614
 30
0.0
 10
480.4086232106956
 20
-392.6642467565232
 30
0.0
  0
SPLINE
  5
7B
330
1F
100
AcDbEntity
  8
Calque 2
 62
   250
420
  2565157
370
    35
100
AcDbSpline
210
0.0
220
0.0
230
1.0
 70
    11
 71
     3
 72
   248
 73
   244
 74
     0
 42
0.0000000001
 43
0.0000000001
 12
1.0
 22
0.0
 32
0.0
 13
1.0
 23
0.0
 33
0.0
 40
0.0
 40
0.0
 40
0.0
 40
0.0
 40
1.0
 40
1.0
 40
1.0
 40
2.0
 40
2.0
 40
2.0
 40
3.0
 40
3.0
 40
3.0
 40
4.0
 40
4.0
 40
4.0
 40
5.0
 40
5.0
 40
5.0
 40
6.0
 40
6.0
 40
6.0
 40
7.0
 40
7.0
 40
7.0
 40
8.0
 40
8.0
 40
8.0
 40
9.0
 40
9.0
 40
9.0
 40
10.0
 40
10.0
 40
10.0
 40
11.0
 40
11.0
 40
11.0
 40
12.0
 40
12.0
 40
12.0
 40
13.0
 40
13.0
 40
13.0
 40
14.0
 40
14.0
 40
14.0
 40
15.0
 40
15.0
 40
15.0
 40
16.0
 40
16.0
 40
16.0
 40
17.0
 40
17.0
 40
17.0
 40
18.0
 40
18.0
 40
18.0
 40
19.0
 40
19.0
 40
19.0
 40
20.0
 40
20.0
 40
20.0
 40
21.0
 40
21.0
 40
21.0
 40
22.0
 40
22.0
 40
22.0
 40
23.0
 40
23.0
 40
23.0
 40
24.0
 40
24.0
 40
24.0
 40
25.0
 40
25.0
 40
25.0
 40
26.0
 40
26.0
 40
26.0
 40
27.0
 40
27.0
 40
27.0
 40
28.0
 40
28.0
 40
28.0
 40
29.0
 40
29.0
 40
29.0
 40
30.0
 40
30.0
 40
30.0
 40
31.0
 40
31.0
 40
31.0
 40
32.0
 40
32.0
 40
32.0
 40
33.0
 40
33.0
 40
33.0
 40
34.0
 40
34.0
 40
34.0
 40
35.0
 40
35.0
 40
35.0
 40
36.0
 40
36.0
 40
36.0
 40
37.0
 40
37.0
 40
37.0
 40
38.0
 40
38.0
 40
38.0
 40
39.0
 40
39.0
 40
39.0
 40
40.0
 40
40.0
 40
40.0
 40
41.0
 40
41.0
 40
41.0
 40
42.0
 40
42.0
 40
42.0
 40
43.0
 40
43.0
 40
43.0
 40
44.0
 40
44.0
 40
44.0
 40
45.0
 40
45.0
 40
45.0
 40
46.0
 40
46.0
 40
46.0
 40
47.0
 40
47.0
 40
47.0
 40
48.0
 40
48.0
 40
48.0
 40
49.0
 40
49.0
 40
49.0
 40
50.0
 40
50.0
 40
50.0
 40
51.0
 40
51.0
 40
51.0
 40
52.0
 40
52.0
 40
52.0
 40
53.0
 40
53.0
 40
53.0
 40
54.0
 40
54.0
 40
54.0
 40
55.0
 40
55.0
 40
55.0
 40
56.0
 40
56.0
 40
56.0
 40
57.0
 40
57.0
 40
57.0
 40
58.0
 40
58.0
 40
58.0
 40
59.0
 40
59.0
 40
59.0
 40
60.0
 40
60.0
 40
60.0
 40
61.0
 40
61.0
 40
61.0
 40
62.0
 40
62.0
 40
62.0
 40
63.0
 40
63.0
 40
63.0
 40
64.0
 40
64.0
 40
64.0
 40
65.0
 40
65.0
 40
65.0
 40
66.0
 40
66.0
 40
66.0
 40
67.0
 40
67.0
 40
67.0
 40
68.0
 40
68.0
 40
68.0
 40
69.0
 40
69.0
 40
69.0
 40
70.0
 40
70.0
 40
70.0
 40
71.0
 40
71.0
 40
71.0
 40
72.0
 40
72.0
 40
72.0
 40
73.0
 40
73.0
 40
73.0
 40
74.0
 40
74.0
 40
74.0
 40
75.0
 40
75.0
 40
75.0
 40
76.0
 40
76.0
 40
76.0
 40
77.0
 40
77.0
 40
77.0
 40
78.0
 40
78.0
 40
78.0
 40
79.0
 40
79.0
 40
79.0
 40
80.0
 40
80.0
 40
80.0
 40
81.0
 40
81.0
 40
81.0
 40
81.0
 10
339.5801138435725
 20
-361.0332484811372
 30
0.0
 10
337.3131283495196
 20
-362.6160306085627
 30
0.0
 10
333.7156598236106
 20
-357.8337945255219
 30
0.0
 10
330.3539243703605
 20
-359.0202616869819
 30
0.0
 10
326.4480083745601
 20
-360.3987841375708
 30
0.0
 10
328.5671282920273
 20
-367.8206695601501
 30
0.0
 10
323.1407216913005
 20
-372.1046758489927
 30
0.0
 10
320.1339168624698
 20
-374.4784702126598
 30
0.0
 10
318.222066764447
 20
-373.1954122847179
 30
0.0
 10
315.9275190122441
 20
-375.7951516382789
 30
0.0
 10
313.4287730146889
 20
-378.6262624292899
 30
0.0
 10
312.4553707091196
 20
-383.8196184653972
 30
0.0
 10
314.5855278161416
 20
-386.8665790061336
 30
0.0
 10
317.4276962738697
 20
-390.9319916057339
 30
0.0
 10
323.7640259823514
 20
-388.2714760395573
 30
0.0
 10
325.8247040835091
 20
-392.0667948910349
 30
0.0
 10
327.4073633479703
 20
-394.9817187003235
 30
0.0
 10
325.5586238588683
 20
-400.0299735765213
 30
0.0
 10
322.6374749927635
 20
-401.6284821632753
 30
0.0
 10
321.3870986131187
 20
-402.3127264842276
 30
0.0
 10
320.915939625216
 20
-401.8309603271403
 30
0.0
 10
319.2824970025054
 20
-402.4672266608401
 30
0.0
 10
316.4277965224981
 20
-403.5792183892528
 30
0.0
 10
314.2767117573568
 20
-406.4491743538937
 30
0.0
 10
313.490532131016
 20
-409.344931540872
 30
0.0
 10
312.3675441673668
 20
-413.4813179790579
 30
0.0
 10
313.7419916630003
 20
-418.7294913740488
 30
0.0
 10
316.9340124093217
 20
-420.4163589087275
 30
0.0
 10
320.4445349113882
 20
-422.2715282262529
 30
0.0
 10
324.8349200494679
 20
-419.1224890399968
 30
0.0
 10
326.9989463800989
 20
-421.5906012053172
 30
0.0
 10
327.5040565002541
 20
-422.1666851640578
 30
0.0
 10
327.3872138219555
 20
-422.4777946648268
 30
0.0
 10
327.8376908776644
 20
-423.6035879994731
 30
0.0
 10
329.0263490953068
 20
-426.5741277769087
 30
0.0
 10
332.2592832084795
 20
-430.4545087534594
 30
0.0
 10
335.7218891547741
 20
-430.6490417790174
 30
0.0
 10
339.5873013269381
 20
-430.8662020670224
 30
0.0
 10
344.6373377161104
 20
-426.5405657107122
 30
0.0
 10
345.4513253265268
 20
-425.784323693144
 30
0.0
 10
345.6377084421734
 20
-425.6111688232342
 30
0.0
 10
346.1570911432505
 20
-425.1094374345809
 30
0.0
 10
346.9610654221449
 20
-424.9455791955792
 30
0.0
 10
348.2374477957309
 20
-424.685457824667
 30
0.0
 10
349.3603333735746
 20
-425.4544366361178
 30
0.0
 10
349.6450478143497
 20
-425.6165747936284
 30
0.0
 10
350.6357216341928
 20
-426.1807240024819
 30
0.0
 10
352.8359565008172
 20
-425.8650133371061
 30
0.0
 10
358.0284418460528
 20
-422.3854210204019
 30
0.0
 10
359.6771679671944
 20
-421.2805753902214
 30
0.0
 10
361.9035876175169
 20
-422.3608191231185
 30
0.0
 10
362.0403211373927
 20
-424.3407902425035
 30
0.0
 10
362.0403211373927
 20
-424.3407902425035
 30
0.0
 10
363.0962387799672
 20
-439.6310163600624
 30
0.0
 10
363.0962387799672
 20
-439.6310163600624
 30
0.0
 10
363.2221084567829
 20
-441.453673489978
 30
0.0
 10
362.9898796151021
 20
-443.283340774129
 30
0.0
 10
362.4126583695557
 20
-445.0167587336729
 30
0.0
 10
362.4126583695557
 20
-445.0167587336729
 30
0.0
 10
362.2498831552128
 20
-445.5055790639821
 30
0.0
 10
362.2498831552128
 20
-445.5055790639821
 30
0.0
 10
361.8002726010794
 20
-446.8557771298911
 30
0.0
 10
360.9034587662309
 20
-448.0121715417895
 30
0.0
 10
359.7076412100282
 20
-448.7836667393426
 30
0.0
 10
359.7076412100282
 20
-448.7836667393426
 30
0.0
 10
356.9218335998586
 20
-450.5809619717094
 30
0.0
 10
356.9218335998586
 20
-450.5809619717094
 30
0.0
 10
356.54729812379
 20
-450.822597762718
 30
0.0
 10
356.1306067282089
 20
-450.9915380334184
 30
0.0
 10
355.6935441135152
 20
-451.0789505563598
 30
0.0
 10
355.6935441135152
 20
-451.0789505563598
 30
0.0
 10
348.9851674355228
 20
-452.4206258919547
 30
0.0
 10
348.9851674355228
 20
-452.4206258919547
 30
0.0
 10
348.8660009025575
 20
-452.4444591985496
 30
0.0
 10
348.7481156523063
 20
-452.4743026124675
 30
0.0
 10
348.6319631790066
 20
-452.5100418350205
 30
0.0
 10
348.6319631790066
 20
-452.5100418350205
 30
0.0
 10
346.8714101186798
 20
-452.7506553569532
 30
0.0
 10
346.8714101186798
 20
-452.7506553569532
 30
0.0
 10
346.6714237583811
 20
-452.7779873491387
 30
0.0
 10
346.4768207579222
 20
-452.8358690012324
 30
0.0
 10
346.2944054814089
 20
-452.9222764603838
 30
0.0
 10
346.2944054814089
 20
-452.9222764603838
 30
0.0
 10
345.8260197121922
 20
-453.1441439760583
 30
0.0
 10
345.8260197121922
 20
-453.1441439760583
 30
0.0
 10
344.0150104506432
 20
-454.0019926814027
 30
0.0
 10
344.4370789366311
 20
-456.7761029005085
 30
0.0
 10
346.4340330302447
 20
-456.9429360346791
 30
0.0
 10
346.500109345995
 20
-456.9484563012137
 30
0.0
 10
346.5671407727583
 20
-456.9512788042535
 30
0.0
 10
346.6350406579319
 20
-456.9512788042535
 30
0.0
 10
346.6350406579319
 20
-456.9512788042535
 30
0.0
 10
393.9579203734658
 20
-456.9512788042535
 30
0.0
 10
393.9579203734658
 20
-456.9512788042535
 30
0.0
 10
394.2526685385408
 20
-456.9512788042535
 30
0.0
 10
394.5251773325024
 20
-456.7945307605165
 30
0.0
 10
394.6733733422176
 20
-456.5397476694012
 30
0.0
 10
394.6733733422176
 20
-456.5397476694012
 30
0.0
 10
394.6733744817143
 20
-456.5397457103415
 30
0.0
 10
394.6733744817143
 20
-456.5397457103415
 30
0.0
 10
395.3481959069472
 20
-455.3795721739185
 30
0.0
 10
395.0258556021466
 20
-453.7633670424179
 30
0.0
 10
393.9012711976557
 20
-453.0307713095937
 30
0.0
 10
393.7116339973809
 20
-452.9072346473802
 30
0.0
 10
393.5118866798193
 20
-452.7982135985801
 30
0.0
 10
393.3036321932047
 20
-452.7050888471646
 30
0.0
 10
392.9067017319454
 20
-452.527594229236
 30
0.0
 10
392.4706793806613
 20
-452.4539656635286
 30
0.0
 10
392.0362803982871
 20
-452.472824469956
 30
0.0
 10
392.0362803982871
 20
-452.472824469956
 30
0.0
 10
386.840377582691
 20
-452.6983971102991
 30
0.0
 10
386.840377582691
 20
-452.6983971102991
 30
0.0
 10
384.1158705930891
 20
-452.8166776588555
 30
0.0
 10
381.4636648432924
 20
-451.5707779529181
 30
0.0
 10
379.9617043599739
 20
-449.2945874224275
 30
0.0
 10
379.8850873108279
 20
-449.1784758444818
 30
0.0
 10
379.811219984027
 20
-449.0601741724533
 30
0.0
 10
379.740205903449
 20
-448.9397592537164
 30
0.0
 10
379.740205903449
 20
-448.9397592537164
 30
0.0
 10
379.7399050431232
 20
-448.9392491181518
 30
0.0
 10
379.7399050431232
 20
-448.9392491181518
 30
0.0
 10
378.3787488514745
 20
-446.6312871579185
 30
0.0
 10
377.675772236743
 20
-443.9951859692395
 30
0.0
 10
377.7072935571416
 20
-441.3159246914909
 30
0.0
 10
377.7365388359916
 20
-438.8301232661434
 30
0.0
 10
377.7682135782811
 20
-436.137700919713
 30
0.0
 10
377.7916105233605
 20
-434.1488846234214
 30
0.0
 10
377.8140155764724
 20
-432.2443823648792
 30
0.0
 10
377.0092614109508
 20
-430.4255315694925
 30
0.0
 10
375.5857201782542
 20
-429.1601615848621
 30
0.0
 10
375.5857201782542
 20
-429.1601615848621
 30
0.0
 10
375.4359470432365
 20
-429.0270299092899
 30
0.0
 10
375.4359470432365
 20
-429.0270299092899
 30
0.0
 10
373.0574747292526
 20
-426.9128322968457
 30
0.0
 10
371.3596501074893
 20
-424.1405642726312
 30
0.0
 10
370.5573431613378
 20
-421.0610731365764
 30
0.0
 10
370.5573431613378
 20
-421.0610731365764
 30
0.0
 10
370.230250642628
 20
-419.8055953959638
 30
0.0
 10
370.230250642628
 20
-419.8055953959638
 30
0.0
 10
369.6104662648437
 20
-417.4266798116044
 30
0.0
 10
369.2967740562439
 20
-414.9784003948827
 30
0.0
 10
369.2967740562439
 20
-412.5200733148425
 30
0.0
 10
369.2967740562439
 20
-412.5200733148425
 30
0.0
 10
369.2967740562439
 20
-407.8484145042794
 30
0.0
 10
369.2967740562439
 20
-407.8484145042794
 30
0.0
 10
369.2967740562439
 20
-404.9617645449177
 30
0.0
 10
370.7666826188228
 20
-402.2737937294789
 30
0.0
 10
373.197021564152
 20
-400.7161671379266
 30
0.0
 10
373.197021564152
 20
-400.7161671379266
 30
0.0
 10
375.5917164508501
 20
-399.18138515151
 30
0.0
 10
375.5917164508501
 20
-399.18138515151
 30
0.0
 10
376.3385099453786
 20
-398.7027583296399
 30
0.0
 10
377.3176980272108
 20
-398.6735703065103
 30
0.0
 10
378.0405906631003
 20
-399.1875843092939
 30
0.0
 10
378.266753506836
 20
-399.3483977728933
 30
0.0
 10
378.4332180751927
 20
-399.5441228555842
 30
0.0
 10
378.4978585305797
 20
-399.7832442686319
 30
0.0
 10
378.7766550719475
 20
-400.8146583701414
 30
0.0
 10
376.9405704680862
 20
-401.8381273333466
 30
0.0
 10
375.8138761383746
 20
-403.1382222588938
 30
0.0
 10
373.3239148427114
 20
-406.0113726605838
 30
0.0
 10
373.4321571135626
 20
-411.2353010974456
 30
0.0
 10
375.1428805403216
 20
-414.8806452247978
 30
0.0
 10
377.6830313565786
 20
-420.293414036577
 30
0.0
 10
384.2072799677501
 20
-423.1868573044088
 30
0.0
 10
388.5627925013569
 20
-421.926099004346
 30
0.0
 10
391.3343761865484
 20
-421.1238243297834
 30
0.0
 10
392.6762240425274
 20
-418.7990522885565
 30
0.0
 10
394.9372506828517
 20
-419.4098655116495
 30
0.0
 10
396.46804129955
 20
-419.8234222468272
 30
0.0
 10
396.7384217279156
 20
-421.1282473964693
 30
0.0
 10
398.2922286731095
 20
-422.7648435019108
 30
0.0
 10
400.4589375117773
 20
-425.0469820947955
 30
0.0
 10
404.4458816320137
 20
-427.2628361188686
 30
0.0
 10
408.1894137443745
 20
-426.6230681907063
 30
0.0
 10
412.8800554881167
 20
-425.8214487852832
 30
0.0
 10
416.9808321440473
 20
-420.5719648520126
 30
0.0
 10
416.4091098205089
 20
-416.5581342199288
 30
0.0
 10
415.8635573082016
 20
-412.7280861040948
 30
0.0
 10
411.1985120151932
 20
-410.9703266394735
 30
0.0
 10
411.5443917346361
 20
-406.8286980481762
 30
0.0
 10
411.6499514974511
 20
-405.5647453110637
 30
0.0
 10
412.153034378706
 20
-404.9071417760335
 30
0.0
 10
412.3831362321981
 20
-404.6479623545085
 30
0.0
 10
413.4188710145914
 20
-403.4813375616575
 30
0.0
 10
415.0255499884188
 20
-404.3690839045009
 30
0.0
 10
417.0801054185619
 20
-403.6414689574306
 30
0.0
 10
418.940721660803
 20
-402.9825344069653
 30
0.0
 10
419.9885584451019
 20
-401.5155301454872
 30
0.0
 10
420.2673345093076
 20
-401.125235464738
 30
0.0
 10
421.81401540262
 20
-398.9598166871876
 30
0.0
 10
421.9415881130676
 20
-395.7867577915657
 30
0.0
 10
420.9383301073603
 20
-393.4087860871409
 30
0.0
 10
419.0272171871168
 20
-388.8789719626335
 30
0.0
 10
414.1614957203698
 20
-389.9573401933652
 30
0.0
 10
411.5443917346361
 20
-385.0213411114909
 30
0.0
 10
409.9999018975059
 20
-382.1083421553
 30
0.0
 10
411.281239743957
 20
-380.9532664810167
 30
0.0
 10
409.531404940477
 20
-378.9823807290242
 30
0.0
 10
406.7242933816734
 20
-375.8206661803697
 30
0.0
 10
401.7525002230985
 20
-376.9075324327431
 30
0.0
 10
401.3117088643427
 20
-374.9564071407133
 30
0.0
 10
401.0698531206723
 20
-373.8858407081653
 30
0.0
 10
402.547218825406
 20
-373.4726116075596
 30
0.0
 10
403.4924445580107
 20
-371.0981824519147
 30
0.0
 10
404.5989688845485
 20
-368.3185717197767
 30
0.0
 10
403.8705348510559
 20
-365.628876199765
 30
0.0
 10
403.6601934575266
 20
-364.8914731699359
 30
0.0
 10
403.4742403622532
 20
-364.2395213312285
 30
0.0
 10
402.2615829124033
 20
-360.2454306819483
 30
0.0
 10
398.1244797735973
 20
-358.3492660889324
 30
0.0
 10
394.517489368017
 20
-356.6960630062557
 30
0.0
 10
390.8357778034635
 20
-357.6222040251965
 30
0.0
 10
389.0660391998974
 20
-358.684763887957
 30
0.0
 10
388.0643988898797
 20
-359.2861576171811
 30
0.0
 10
387.0236881574622
 20
-359.9110181724336
 30
0.0
 10
386.3103662684832
 20
-361.1498454335106
 30
0.0
 10
386.0005058745067
 20
-361.6879852136865
 30
0.0
 10
386.2143079081767
 20
-362.0397418782151
 30
0.0
 10
385.7110612096397
 20
-362.0397418782151
 30
0.0
 10
379.978992702093
 20
-362.0397418782151
 30
0.0
 10
384.7074755693646
 20
-358.1328839330278
 30
0.0
 10
382.1883343198659
 20
-356.1685303952609
 30
0.0
 10
379.6613912721868
 20
-354.1980951408011
 30
0.0
 10
377.3714508811149
 20
-356.3729538893832
 30
0.0
 10
374.3041360427564
 20
-354.4910414001338
 30
0.0
 10
371.7348667041477
 20
-352.9146891011321
 30
0.0
 10
372.6765089336511
 20
-350.9807646239955
 30
0.0
 10
369.9426646554207
 20
-348.6198299171789
 30
0.0
 10
367.5970468647217
 20
-346.5941677606215
 30
0.0
 10
363.6535143249245
 20
-345.2108741316159
 30
0.0
 10
360.3809773831803
 20
-346.2713453239962
 30
0.0
 10
357.2793018693586
 20
-347.2764462741547
 30
0.0
 10
357.3868069624306
 20
-349.6322002593431
 30
0.0
 10
353.8387703021733
 20
-350.6328167113354
 30
0.0
 10
351.4525872563572
 20
-351.3057781168002
 30
0.0
 10
351.0493510101138
 20
-350.3402390408958
 30
0.0
 10
348.135307718735
 20
-350.96831451036
 30
0.0
 10
346.9310663818876
 20
-351.2278625207751
 30
0.0
 10
343.46035148
 20
-351.9759136741099
 30
0.0
 10
341.5931006377281
 20
-354.6587902996462
 30
0.0
 10
339.6381256395089
 20
-357.4676833714212
 30
0.0
 10
341.1560770765223
 20
-359.9329287342604
 30
0.0
 10
339.5801138435725
 20
-361.0332484811372
 30
0.0
  0
SPLINE
  5
7C
330
1F
100
AcDbEntity
  8
Calque 2
 62
   250
420
  2565157
370
    35
100
AcDbSpline
210
0.0
220
0.0
230
1.0
 70
    11
 71
     3
 72
   134
 73
   130
 74
     0
 42
0.0000000001
 43
0.0000000001
 12
1.0
 22
0.0
 32
0.0
 13
1.0
 23
0.0
 33
0.0
 40
0.0
 40
0.0
 40
0.0
 40
0.0
 40
1.0
 40
1.0
 40
1.0
 40
2.0
 40
2.0
 40
2.0
 40
3.0
 40
3.0
 40
3.0
 40
4.0
 40
4.0
 40
4.0
 40
5.0
 40
5.0
 40
5.0
 40
6.0
 40
6.0
 40
6.0
 40
7.0
 40
7.0
 40
7.0
 40
8.0
 40
8.0
 40
8.0
 40
9.0
 40
9.0
 40
9.0
 40
10.0
 40
10.0
 40
10.0
 40
11.0
 40
11.0
 40
11.0
 40
12.0
 40
12.0
 40
12.0
 40
13.0
 40
13.0
 40
13.0
 40
14.0
 40
14.0
 40
14.0
 40
15.0
 40
15.0
 40
15.0
 40
16.0
 40
16.0
 40
16.0
 40
17.0
 40
17.0
 40
17.0
 40
18.0
 40
18.0
 40
18.0
 40
19.0
 40
19.0
 40
19.0
 40
20.0
 40
20.0
 40
20.0
 40
21.0
 40
21.0
 40
21.0
 40
22.0
 40
22.0
 40
22.0
 40
23.0
 40
23.0
 40
23.0
 40
24.0
 40
24.0
 40
24.0
 40
25.0
 40
25.0
 40
25.0
 40
26.0
 40
26.0
 40
26.0
 40
27.0
 40
27.0
 40
27.0
 40
28.0
 40
28.0
 40
28.0
 40
29.0
 40
29.0
 40
29.0
 40
30.0
 40
30.0
 40
30.0
 40
31.0
 40
31.0
 40
31.0
 40
32.0
 40
32.0
 40
32.0
 40
33.0
 40
33.0
 40
33.0
 40
34.0
 40
34.0
 40
34.0
 40
35.0
 40
35.0
 40
35.0
 40
36.0
 40
36.0
 40
36.0
 40
37.0
 40
37.0
 40
37.0
 40
38.0
 40
38.0
 40
38.0
 40
39.0
 40
39.0
 40
39.0
 40
40.0
 40
40.0
 40
40.0
 40
41.0
 40
41.0
 40
41.0
 40
42.0
 40
42.0
 40
42.0
 40
43.0
 40
43.0
 40
43.0
 40
43.0
 10
243.400738545012
 20
-583.8109987907129
 30
0.0
 10
248.114942611487
 20
-587.8675125972094
 30
0.0
 10
250.8869202685359
 20
-588.1241291471644
 30
0.0
 10
252.5729607649412
 20
-587.5151654564535
 30
0.0
 10
254.9920422191427
 20
-586.6414892413942
 30
0.0
 10
255.2066393701052
 20
-583.9748561447294
 30
0.0
 10
257.5118496525954
 20
-583.6346099018681
 30
0.0
 10
260.182466140913
 20
-583.2404479146633
 30
0.0
 10
261.0807963205399
 20
-586.6443745088643
 30
0.0
 10
264.9201829840766
 20
-587.5151654564535
 30
0.0
 10
268.3956599051373
 20
-588.3034463671715
 30
0.0
 10
271.6055522620542
 20
-586.4092036783031
 30
0.0
 10
273.916016315161
 20
-585.0457210126265
 30
0.0
 10
277.2551751142394
 20
-583.0752125224526
 30
0.0
 10
279.5342457347343
 20
-580.4406188138007
 30
0.0
 10
281.1479607577975
 20
-577.9901654588348
 30
0.0
 10
285.9680046171349
 20
-570.670801718262
 30
0.0
 10
299.1892583268019
 20
-543.2223048853863
 30
0.0
 10
288.3799052004339
 20
-534.0693321364816
 30
0.0
 10
284.5378270560497
 20
-530.8159992786789
 30
0.0
 10
277.3176605336038
 20
-529.588124184043
 30
0.0
 10
271.7993496490235
 20
-531.4234988038097
 30
0.0
 10
267.5707102593459
 20
-532.8299159719708
 30
0.0
 10
265.3991373839116
 20
-535.5918059588026
 30
0.0
 10
264.3910163175423
 20
-534.7748876918608
 30
0.0
 10
263.187170763914
 20
-533.7993658415201
 30
0.0
 10
264.5574359613279
 20
-528.4620516609967
 30
0.0
 10
268.0951829832829
 20
-525.9554432496212
 30
0.0
 10
270.2764021260759
 20
-524.4099734149381
 30
0.0
 10
271.905835397286
 20
-524.9153689226243
 30
0.0
 10
272.6812940932475
 20
-523.4859988057941
 30
0.0
 10
273.8981879460229
 20
-521.242983262737
 30
0.0
 10
271.7740389631313
 20
-516.5176041677793
 30
0.0
 10
268.9771274275068
 20
-515.901276585468
 30
0.0
 10
265.0999200750971
 20
-515.0468929051261
 30
0.0
 10
258.8209967029147
 20
-521.8444969344616
 30
0.0
 10
257.864627430285
 20
-528.7776654711379
 30
0.0
 10
257.3749824685214
 20
-532.327319604365
 30
0.0
 10
258.554949204064
 20
-533.9230878331327
 30
0.0
 10
257.3354607637506
 20
-534.9512765807056
 30
0.0
 10
254.8232110085174
 20
-537.0694074124262
 30
0.0
 10
249.0827560606827
 20
-530.9147443280274
 30
0.0
 10
239.6965718792714
 20
-531.5998876926545
 30
0.0
 10
238.0909743624467
 20
-531.7171070665421
 30
0.0
 10
237.7308972886971
 20
-531.9357414387741
 30
0.0
 10
237.0507385465995
 20
-531.5998876926545
 30
0.0
 10
233.2608213010445
 20
-529.7285548887597
 30
0.0
 10
238.2522586607727
 20
-519.8844959855139
 30
0.0
 10
233.6993496585485
 20
-509.9040543647451
 30
0.0
 10
232.2360453511886
 20
-506.6963474902771
 30
0.0
 10
230.4052677807099
 20
-502.6830696321211
 30
0.0
 10
226.4674052159121
 20
-500.9082210336608
 30
0.0
 10
225.4093410309268
 20
-500.4313336911138
 30
0.0
 10
224.6295544337646
 20
-500.3100447981881
 30
0.0
 10
224.1743496609298
 20
-499.4971099229024
 30
0.0
 10
222.7613222158065
 20
-496.9736420754979
 30
0.0
 10
226.1753795439202
 20
-490.8206154114526
 30
0.0
 10
231.0535163258766
 20
-488.7373877033702
 30
0.0
 10
232.6416299831118
 20
-488.0591775934064
 30
0.0
 10
233.4426577471253
 20
-488.2147021227174
 30
0.0
 10
234.0521274362381
 20
-487.3262765926118
 30
0.0
 10
235.7635970436933
 20
-484.8314461014278
 30
0.0
 10
232.8391954432668
 20
-478.6602680905478
 30
0.0
 10
229.8187941039631
 20
-478.4033070310405
 30
0.0
 10
228.4988380665579
 20
-478.2909969182214
 30
0.0
 10
228.2085672400817
 20
-479.3973678014613
 30
0.0
 10
225.9382385493777
 20
-480.7998877053545
 30
0.0
 10
219.9338246918283
 20
-484.5091789506308
 30
0.0
 10
212.8849655423884
 20
-482.3793347942603
 30
0.0
 10
212.3562941083287
 20
-482.2109988161129
 30
0.0
 10
210.7635188062641
 20
-481.7038161651437
 30
0.0
 10
210.9863411226951
 20
-481.4792820668939
 30
0.0
 10
209.0049052202777
 20
-480.7998877053545
 30
0.0
 10
207.1511142225652
 20
-480.1642690327751
 30
0.0
 10
205.3923822007214
 20
-479.8246521321481
 30
0.0
 10
203.8149627293243
 20
-479.6602402765034
 30
0.0
 10
201.4915511563286
 20
-479.4180748822867
 30
0.0
 10
199.1477252728698
 20
-479.76360462142
 30
0.0
 10
196.9713923344926
 20
-480.6124039834654
 30
0.0
 10
191.8288101467721
 20
-482.6180807819131
 30
0.0
 10
181.8984195073558
 20
-487.1275394007637
 30
0.0
 10
182.3591317843509
 20
-491.9123877025764
 30
0.0
 10
182.4585066402179
 20
-492.9444737144169
 30
0.0
 10
183.0080047530772
 20
-493.6430960151326
 30
0.0
 10
183.6049052266277
 20
-494.3818321464035
 30
0.0
 10
189.7950204967522
 20
-502.0428201680355
 30
0.0
 10
208.1366442646852
 20
-501.2363017830905
 30
0.0
 10
211.8271274417943
 20
-495.2637765906275
 30
0.0
 10
212.1138778113244
 20
-494.7997222287643
 30
0.0
 10
213.5851166042244
 20
-492.2443872481212
 30
0.0
 10
216.4132385517589
 20
-490.1484988141285
 30
0.0
 10
216.8141077092363
 20
-489.8514239240667
 30
0.0
 10
218.3098928074703
 20
-488.7429213879946
 30
0.0
 10
218.7062941067412
 20
-489.0901654810597
 30
0.0
 10
219.0343748561703
 20
-489.3775725719154
 30
0.0
 10
218.3027334684128
 20
-490.3935096986708
 30
0.0
 10
217.8243496625173
 20
-491.9123877025764
 30
0.0
 10
216.8098336376518
 20
-495.1334658538966
 30
0.0
 10
218.2047850973981
 20
-496.5827098653073
 30
0.0
 10
217.2951829959829
 20
-498.0859988121441
 30
0.0
 10
216.2678016926644
 20
-499.7839356538976
 30
0.0
 10
213.9234572786448
 20
-498.8685307197705
 30
0.0
 10
210.5924052198808
 20
-499.849887700592
 30
0.0
 10
205.2571473307246
 20
-501.4216909838892
 30
0.0
 10
201.8067926918993
 20
-506.5583498842448
 30
0.0
 10
200.5382385557277
 20
-510.2568321424347
 30
0.0
 10
199.4076389618919
 20
-513.5530995027218
 30
0.0
 10
200.651625260885
 20
-513.8366308611578
 30
0.0
 10
200.0090718891933
 20
-518.54710991814
 30
0.0
 10
199.5331157990197
 20
-522.0362595619088
 30
0.0
 10
198.4634674804666
 20
-524.7184817156423
 30
0.0
 10
192.600738557712
 20
-535.4804432472399
 30
0.0
 10
187.3386943305791
 20
-545.1397589050912
 30
0.0
 10
187.6628562838931
 20
-543.9657564911032
 30
0.0
 10
187.1326830035235
 20
-545.3582210225483
 30
0.0
 10
186.0479247114896
 20
-548.2072719251577
 30
0.0
 10
183.0713568292717
 20
-557.375575348971
 30
0.0
 10
186.7799052258339
 20
-567.4068321281472
 30
0.0
 10
191.3256710378902
 20
-579.7026793608602
 30
0.0
 10
202.6822668161625
 20
-584.5488951799612
 30
0.0
 10
205.300738554537
 20
-585.5748876791608
 30
0.0
 10
218.5396999978448
 20
-590.7624068253898
 30
0.0
 10
230.8279225484222
 20
-585.4479503238335
 30
0.0
 10
236.1409278988087
 20
-582.4704218184279
 30
0.0
 10
237.8708000229639
 20
-581.500962309035
 30
0.0
 10
239.9986727860666
 20
-581.5865589825378
 30
0.0
 10
241.6583850905749
 20
-582.6717614394744
 30
0.0
 10
241.6583850905749
 20
-582.6717614394744
 30
0.0
 10
243.400738545012
 20
-583.8109987907129
 30
0.0
 10
243.400738545012
 20
-583.8109987907129
 30
0.0
  0
SPLINE
  5
7D
330
1F
100
AcDbEntity
  8
Calque 2
 62
   250
420
  2565157
370
    35
100
AcDbSpline
210
0.0
220
0.0
230
1.0
 70
    11
 71
     3
 72
   254
 73
   250
 74
     0
 42
0.0000000001
 43
0.0000000001
 12
1.0
 22
0.0
 32
0.0
 13
1.0
 23
0.0
 33
0.0
 40
0.0
 40
0.0
 40
0.0
 40
0.0
 40
1.0
 40
1.0
 40
1.0
 40
2.0
 40
2.0
 40
2.0
 40
3.0
 40
3.0
 40
3.0
 40
4.0
 40
4.0
 40
4.0
 40
5.0
 40
5.0
 40
5.0
 40
6.0
 40
6.0
 40
6.0
 40
7.0
 40
7.0
 40
7.0
 40
8.0
 40
8.0
 40
8.0
 40
9.0
 40
9.0
 40
9.0
 40
10.0
 40
10.0
 40
10.0
 40
11.0
 40
11.0
 40
11.0
 40
12.0
 40
12.0
 40
12.0
 40
13.0
 40
13.0
 40
13.0
 40
14.0
 40
14.0
 40
14.0
 40
15.0
 40
15.0
 40
15.0
 40
16.0
 40
16.0
 40
16.0
 40
17.0
 40
17.0
 40
17.0
 40
18.0
 40
18.0
 40
18.0
 40
19.0
 40
19.0
 40
19.0
 40
20.0
 40
20.0
 40
20.0
 40
21.0
 40
21.0
 40
21.0
 40
22.0
 40
22.0
 40
22.0
 40
23.0
 40
23.0
 40
23.0
 40
24.0
 40
24.0
 40
24.0
 40
25.0
 40
25.0
 40
25.0
 40
26.0
 40
26.0
 40
26.0
 40
27.0
 40
27.0
 40
27.0
 40
28.0
 40
28.0
 40
28.0
 40
29.0
 40
29.0
 40
29.0
 40
30.0
 40
30.0
 40
30.0
 40
31.0
 40
31.0
 40
31.0
 40
32.0
 40
32.0
 40
32.0
 40
33.0
 40
33.0
 40
33.0
 40
34.0
 40
34.0
 40
34.0
 40
35.0
 40
35.0
 40
35.0
 40
36.0
 40
36.0
 40
36.0
 40
37.0
 40
37.0
 40
37.0
 40
38.0
 40
38.0
 40
38.0
 40
39.0
 40
39.0
 40
39.0
 40
40.0
 40
40.0
 40
40.0
 40
41.0
 40
41.0
 40
41.0
 40
42.0
 40
42.0
 40
42.0
 40
43.0
 40
43.0
 40
43.0
 40
44.0
 40
44.0
 40
44.0
 40
45.0
 40
45.0
 40
45.0
 40
46.0
 40
46.0
 40
46.0
 40
47.0
 40
47.0
 40
47.0
 40
48.0
 40
48.0
 40
48.0
 40
49.0
 40
49.0
 40
49.0
 40
50.0
 40
50.0
 40
50.0
 40
51.0
 40
51.0
 40
51.0
 40
52.0
 40
52.0
 40
52.0
 40
53.0
 40
53.0
 40
53.0
 40
54.0
 40
54.0
 40
54.0
 40
55.0
 40
55.0
 40
55.0
 40
56.0
 40
56.0
 40
56.0
 40
57.0
 40
57.0
 40
57.0
 40
58.0
 40
58.0
 40
58.0
 40
59.0
 40
59.0
 40
59.0
 40
60.0
 40
60.0
 40
60.0
 40
61.0
 40
61.0
 40
61.0
 40
62.0
 40
62.0
 40
62.0
 40
63.0
 40
63.0
 40
63.0
 40
64.0
 40
64.0
 40
64.0
 40
65.0
 40
65.0
 40
65.0
 40
66.0
 40
66.0
 40
66.0
 40
67.0
 40
67.0
 40
67.0
 40
68.0
 40
68.0
 40
68.0
 40
69.0
 40
69.0
 40
69.0
 40
70.0
 40
70.0
 40
70.0
 40
71.0
 40
71.0
 40
71.0
 40
72.0
 40
72.0
 40
72.0
 40
73.0
 40
73.0
 40
73.0
 40
74.0
 40
74.0
 40
74.0
 40
75.0
 40
75.0
 40
75.0
 40
76.0
 40
76.0
 40
76.0
 40
77.0
 40
77.0
 40
77.0
 40
78.0
 40
78.0
 40
78.0
 40
79.0
 40
79.0
 40
79.0
 40
80.0
 40
80.0
 40
80.0
 40
81.0
 40
81.0
 40
81.0
 40
82.0
 40
82.0
 40
82.0
 40
83.0
 40
83.0
 40
83.0
 40
83.0
 10
538.7926520490512
 20
-500.8019508012406
 30
0.0
 10
538.7926520490512
 20
-500.8019508012406
 30
0.0
 10
506.1337792836978
 20
-500.6912294270699
 30
0.0
 10
506.1337792836978
 20
-500.6912294270699
 30
0.0
 10
505.5690076786494
 20
-500.6893147165199
 30
0.0
 10
505.1138637907928
 20
-501.153594612518
 30
0.0
 10
505.1270009101103
 20
-501.7182166525421
 30
0.0
 10
505.1270009101103
 20
-501.7182166525421
 30
0.0
 10
505.2004484405064
 20
-504.8749280622998
 30
0.0
 10
505.2004484405064
 20
-504.8749280622998
 30
0.0
 10
505.212298918531
 20
-505.3842513709976
 30
0.0
 10
505.6032917515261
 20
-505.8029347504443
 30
0.0
 10
506.1104716524833
 20
-505.8510929758994
 30
0.0
 10
506.789894043653
 20
-505.915606133122
 30
0.0
 10
507.6213766433955
 20
-505.950357299239
 30
0.0
 10
507.6901190399223
 20
-505.744230757388
 30
0.0
 10
507.7806753823378
 20
-505.4724953884874
 30
0.0
 10
507.7317254254991
 20
-509.8055921217413
 30
0.0
 10
507.7044561747464
 20
-511.8107871651769
 30
0.0
 10
507.6969906110592
 20
-512.3597538910566
 30
0.0
 10
507.2499276715352
 20
-512.7997863111797
 30
0.0
 10
506.7009101847816
 20
-512.7997863111797
 30
0.0
 10
506.7009101847816
 20
-512.7997863111797
 30
0.0
 10
503.4020997197085
 20
-512.7997863111797
 30
0.0
 10
503.4020997197085
 20
-512.7997863111797
 30
0.0
 10
502.847800596785
 20
-512.7997863111797
 30
0.0
 10
502.3984523745785
 20
-512.3504380889731
 30
0.0
 10
502.3984523745785
 20
-511.796138966046
 30
0.0
 10
502.3984523745785
 20
-511.796138966046
 30
0.0
 10
502.3984523745785
 20
-509.7676334864212
 30
0.0
 10
502.3984523745785
 20
-509.7676334864212
 30
0.0
 10
502.3984523745785
 20
-509.2133343634973
 30
0.0
 10
501.9491041523684
 20
-508.7639861412908
 30
0.0
 10
501.3948050294449
 20
-508.7639861412908
 30
0.0
 10
501.3948050294449
 20
-508.7639861412908
 30
0.0
 10
497.7576552766752
 20
-508.7639861412908
 30
0.0
 10
497.7576552766752
 20
-508.7639861412908
 30
0.0
 10
497.2033561537517
 20
-508.7639861412908
 30
0.0
 10
496.7540079315452
 20
-509.2133343634973
 30
0.0
 10
496.7540079315452
 20
-509.7676334864212
 30
0.0
 10
496.7540079315452
 20
-509.7676334864212
 30
0.0
 10
496.7540079315452
 20
-511.796138966046
 30
0.0
 10
496.7540079315452
 20
-511.796138966046
 30
0.0
 10
496.7540079315452
 20
-512.3504380889731
 30
0.0
 10
496.3046597093351
 20
-512.7997863111797
 30
0.0
 10
495.7503605864115
 20
-512.7997863111797
 30
0.0
 10
495.7503605864115
 20
-512.7997863111797
 30
0.0
 10
491.9955608228206
 20
-512.7997863111797
 30
0.0
 10
491.9955608228206
 20
-512.7997863111797
 30
0.0
 10
491.4412616998971
 20
-512.7997863111797
 30
0.0
 10
490.9919134776906
 20
-512.3504380889731
 30
0.0
 10
490.9919134776906
 20
-511.796138966046
 30
0.0
 10
490.9919134776906
 20
-511.796138966046
 30
0.0
 10
490.9919134776906
 20
-508.0206919778655
 30
0.0
 10
490.9919134776906
 20
-508.0206919778655
 30
0.0
 10
490.9919134776906
 20
-507.47453927544
 30
0.0
 10
490.5552038734669
 20
-507.0286373595682
 30
0.0
 10
490.0091696407368
 20
-507.0172623407041
 30
0.0
 10
490.0091696407368
 20
-507.0172623407041
 30
0.0
 10
486.3720198879671
 20
-506.9414930123983
 30
0.0
 10
486.3720198879671
 20
-506.9414930123983
 30
0.0
 10
485.8096611374571
 20
-506.9297779201692
 30
0.0
 10
485.3474690346572
 20
-507.3824418875215
 30
0.0
 10
485.3474690346572
 20
-507.9449226495597
 30
0.0
 10
485.3474690346572
 20
-507.9449226495597
 30
0.0
 10
485.3474690346572
 20
-511.796138966046
 30
0.0
 10
485.3474690346572
 20
-511.796138966046
 30
0.0
 10
485.3474690346572
 20
-512.3504380889731
 30
0.0
 10
484.8981208124471
 20
-512.7997863111797
 30
0.0
 10
484.3438216895236
 20
-512.7997863111797
 30
0.0
 10
484.3438216895236
 20
-512.7997863111797
 30
0.0
 10
475.4150268032582
 20
-512.7997863111797
 30
0.0
 10
475.4150268032582
 20
-512.7997863111797
 30
0.0
 10
474.8607276803312
 20
-512.7997863111797
 30
0.0
 10
474.4113794581247
 20
-512.3504380889731
 30
0.0
 10
474.4113794581247
 20
-511.796138966046
 30
0.0
 10
474.4113794581247
 20
-511.796138966046
 30
0.0
 10
474.4113794581247
 20
-503.3376857409028
 30
0.0
 10
474.4113794581247
 20
-503.3376857409028
 30
0.0
 10
474.4113794581247
 20
-502.783386617979
 30
0.0
 10
474.8607276803312
 20
-502.3340383957724
 30
0.0
 10
475.4150268032582
 20
-502.3340383957724
 30
0.0
 10
475.4150268032582
 20
-502.3340383957724
 30
0.0
 10
476.2299328026632
 20
-502.3340383957724
 30
0.0
 10
476.2299328026632
 20
-502.3340383957724
 30
0.0
 10
476.7842319255867
 20
-502.3340383957724
 30
0.0
 10
477.2335801477968
 20
-501.8846901735659
 30
0.0
 10
477.2335801477968
 20
-501.3303910506389
 30
0.0
 10
477.2335801477968
 20
-501.3303910506389
 30
0.0
 10
477.2335801477968
 20
-492.989544772624
 30
0.0
 10
477.2335801477968
 20
-492.989544772624
 30
0.0
 10
477.2335801477968
 20
-492.4352456497008
 30
0.0
 10
476.7842319255867
 20
-491.9858974274942
 30
0.0
 10
476.2299328026632
 20
-491.9858974274942
 30
0.0
 10
476.2299328026632
 20
-491.9858974274942
 30
0.0
 10
464.2437448643167
 20
-491.9858974274942
 30
0.0
 10
464.2437448643167
 20
-491.9858974274942
 30
0.0
 10
463.6894457413932
 20
-491.9858974274942
 30
0.0
 10
463.2400975191867
 20
-492.4352456497008
 30
0.0
 10
463.2400975191867
 20
-492.989544772624
 30
0.0
 10
463.2400975191867
 20
-492.989544772624
 30
0.0
 10
463.2400975191867
 20
-501.3571535551987
 30
0.0
 10
463.2400975191867
 20
-501.3571535551987
 30
0.0
 10
463.2400975191867
 20
-501.9008900848691
 30
0.0
 10
463.673087677237
 20
-502.3457423382234
 30
0.0
 10
464.2166256756387
 20
-502.360434444581
 30
0.0
 10
464.2166256756387
 20
-502.360434444581
 30
0.0
 10
464.4336374348473
 20
-502.3663003819308
 30
0.0
 10
464.4336374348473
 20
-502.3663003819308
 30
0.0
 10
464.9793169637496
 20
-502.3810503749378
 30
0.0
 10
465.4131490079781
 20
-502.8292237847101
 30
0.0
 10
465.4101504491669
 20
-503.3750943913603
 30
0.0
 10
465.4101504491669
 20
-503.3750943913603
 30
0.0
 10
465.3621292043072
 20
-512.1170893700727
 30
0.0
 10
465.3621292043072
 20
-512.1170893700727
 30
0.0
 10
465.3591428491306
 20
-512.6607383741617
 30
0.0
 10
464.9238376842424
 20
-513.1031714615781
 30
0.0
 10
464.3803088794974
 20
-513.1149865526228
 30
0.0
 10
464.3803088794974
 20
-513.1149865526228
 30
0.0
 10
460.2426254185837
 20
-513.2049304643039
 30
0.0
 10
460.2426254185837
 20
-513.2049304643039
 30
0.0
 10
460.0144582190584
 20
-513.2098903049074
 30
0.0
 10
459.796305837269
 20
-513.2907137743217
 30
0.0
 10
459.6211989704343
 20
-513.4370778961029
 30
0.0
 10
458.831444600933
 20
-514.0971988085583
 30
0.0
 10
456.8781806642346
 20
-516.4574261436492
 30
0.0
 10
456.83129404721
 20
-523.6770724141442
 30
0.0
 10
456.7924745935848
 20
-529.654557553523
 30
0.0
 10
458.5729483007908
 20
-531.6603349897061
 30
0.0
 10
459.7875990742683
 20
-532.3332744970978
 30
0.0
 10
460.3047953141601
 20
-532.6198109983673
 30
0.0
 10
460.4488616058176
 20
-533.2974619235075
 30
0.0
 10
460.108212964088
 20
-533.7807357796254
 30
0.0
 10
457.4689954396027
 20
-537.5249598097707
 30
0.0
 10
449.0241401097479
 20
-549.4702553616902
 30
0.0
 10
448.7762086339138
 20
-549.3710682437674
 30
0.0
 10
448.5620982833597
 20
-549.2854178310868
 30
0.0
 10
448.4727423520166
 20
-552.2558852422992
 30
0.0
 10
448.439990709657
 20
-553.8764988529377
 30
0.0
 10
448.4286319408063
 20
-554.4385523585564
 30
0.0
 10
448.8813652490614
 20
-554.8979057396723
 30
0.0
 10
449.443533519962
 20
-554.8979057396723
 30
0.0
 10
449.443533519962
 20
-554.8979057396723
 30
0.0
 10
462.2364501740531
 20
-554.8979057396723
 30
0.0
 10
462.2364501740531
 20
-554.8979057396723
 30
0.0
 10
462.7907492969801
 20
-554.8979057396723
 30
0.0
 10
463.2400975191867
 20
-554.4485575174657
 30
0.0
 10
463.2400975191867
 20
-553.8942583945419
 30
0.0
 10
463.2400975191867
 20
-553.8942583945419
 30
0.0
 10
463.2400975191867
 20
-551.1355800178619
 30
0.0
 10
463.2400975191867
 20
-551.1355800178619
 30
0.0
 10
463.2400975191867
 20
-550.5826390746536
 30
0.0
 10
463.6873281659538
 20
-550.1338554360308
 30
0.0
 10
464.2402657870358
 20
-550.1319387027447
 30
0.0
 10
464.2402657870358
 20
-550.1319387027447
 30
0.0
 10
467.4142182728079
 20
-550.1209363398249
 30
0.0
 10
467.4142182728079
 20
-550.1209363398249
 30
0.0
 10
467.4125818524544
 20
-550.191905306821
 30
0.0
 10
467.4089860340394
 20
-550.2623575094943
 30
0.0
 10
467.4089860340394
 20
-550.333670986039
 30
0.0
 10
467.4089860340394
 20
-555.2063279129912
 30
0.0
 10
471.2449491339389
 20
-559.1563452052967
 30
0.0
 10
475.9768523784703
 20
-559.1563452052967
 30
0.0
 10
480.7087340911538
 20
-559.1563452052967
 30
0.0
 10
484.5447187228979
 20
-555.2063279129912
 30
0.0
 10
484.5447187228979
 20
-550.333670986039
 30
0.0
 10
484.5447187228979
 20
-550.242419019376
 30
0.0
 10
484.5407137993972
 20
-550.1522005813554
 30
0.0
 10
484.5380438503977
 20
-550.0615945700933
 30
0.0
 10
484.5380438503977
 20
-550.0615945700933
 30
0.0
 10
490.518083657387
 20
-550.0408809334889
 30
0.0
 10
490.518083657387
 20
-550.0408809334889
 30
0.0
 10
490.5149830714503
 20
-550.1383340720254
 30
0.0
 10
490.5108920205609
 20
-550.2354857647094
 30
0.0
 10
490.5108920205609
 20
-550.333670986039
 30
0.0
 10
490.5108920205609
 20
-555.2063279129912
 30
0.0
 10
494.3468335886124
 20
-559.1563452052967
 30
0.0
 10
499.0787583649918
 20
-559.1563452052967
 30
0.0
 10
503.810640077675
 20
-559.1563452052967
 30
0.0
 10
507.6466247094194
 20
-555.2063279129912
 30
0.0
 10
507.6466247094194
 20
-550.333670986039
 30
0.0
 10
507.6466247094194
 20
-550.2155903382841
 30
0.0
 10
507.6424044674515
 20
-550.0985432191708
 30
0.0
 10
507.6379258433207
 20
-549.9815391637536
 30
0.0
 10
507.6379258433207
 20
-549.9815391637536
 30
0.0
 10
513.198697529755
 20
-549.9622466290361
 30
0.0
 10
513.198697529755
 20
-549.9622466290361
 30
0.0
 10
513.1958553259781
 20
-550.0556517803793
 30
0.0
 10
513.1918073387845
 20
-550.1487124221773
 30
0.0
 10
513.1918073387845
 20
-550.2428065926175
 30
0.0
 10
513.1918073387845
 20
-555.1154635195658
 30
0.0
 10
517.0277919705289
 20
-559.0654808118751
 30
0.0
 10
521.7596736832122
 20
-559.0654808118751
 30
0.0
 10
526.491555395899
 20
-559.0654808118751
 30
0.0
 10
530.327540027643
 20
-555.1154635195658
 30
0.0
 10
530.327540027643
 20
-550.2428065926175
 30
0.0
 10
530.327540027643
 20
-550.128816995748
 30
0.0
 10
530.3233628493681
 20
-550.0158609275247
 30
0.0
 10
530.3191856710897
 20
-549.9029048593047
 30
0.0
 10
530.3191856710897
 20
-549.9029048593047
 30
0.0
 10
531.0910162508673
 20
-549.9002349103017
 30
0.0
 10
531.0910162508673
 20
-549.9002349103017
 30
0.0
 10
531.0910162508673
 20
-549.9002349103017
 30
0.0
 10
536.4892927028303
 20
-549.9002349103017
 30
0.0
 10
536.4892927028303
 20
-549.9002349103017
 30
0.0
 10
537.0462795798462
 20
-549.9002349103017
 30
0.0
 10
537.4967332291587
 20
-549.4466838844344
 30
0.0
 10
537.4929164837629
 20
-548.8897100846718
 30
0.0
 10
537.4929164837629
 20
-548.8897100846718
 30
0.0
 10
537.4479410202051
 20
-542.3264861242532
 30
0.0
 10
537.4479410202051
 20
-542.3264861242532
 30
0.0
 10
537.4441242748092
 20
-541.7695123244912
 30
0.0
 10
537.8945779241255
 20
-541.3159612986233
 30
0.0
 10
538.451564801138
 20
-541.3159612986233
 30
0.0
 10
538.451564801138
 20
-541.3159612986233
 30
0.0
 10
538.7892494645407
 20
-541.3159612986233
 30
0.0
 10
538.7892494645407
 20
-541.3159612986233
 30
0.0
 10
539.3435485874643
 20
-541.3159612986233
 30
0.0
 10
539.7928968096743
 20
-540.8666130764168
 30
0.0
 10
539.7928968096743
 20
-540.312313953493
 30
0.0
 10
539.7928968096743
 20
-540.312313953493
 30
0.0
 10
539.7928968096743
 20
-536.1459975341892
 30
0.0
 10
539.7928968096743
 20
-536.1459975341892
 30
0.0
 10
539.7928968096743
 20
-535.5916984112622
 30
0.0
 10
539.3435485874643
 20
-535.1423501890556
 30
0.0
 10
538.7892494645407
 20
-535.1423501890556
 30
0.0
 10
538.7892494645407
 20
-535.1423501890556
 30
0.0
 10
538.7892474654371
 20
-535.1423501890556
 30
0.0
 10
538.7892474654371
 20
-535.1423501890556
 30
0.0
 10
538.2381586392596
 20
-535.1423501890556
 30
0.0
 10
537.7901513682133
 20
-534.6980005072802
 30
0.0
 10
537.7856338425535
 20
-534.1469301975194
 30
0.0
 10
537.7856338425535
 20
-534.1469301975194
 30
0.0
 10
537.5673233472033
 20
-507.5163272202058
 30
0.0
 10
537.5673233472033
 20
-507.5163272202058
 30
0.0
 10
537.5625829809798
 20
-506.9380737071946
 30
0.0
 10
538.0462091316372
 20
-506.4754487709714
 30
0.0
 10
538.6236829408984
 20
-506.5058394932798
 30
0.0
 10
538.6236829408984
 20
-506.5058394932798
 30
0.0
 10
538.7365034937332
 20
-506.5117769021054
 30
0.0
 10
538.7365034937332
 20
-506.5117769021054
 30
0.0
 10
539.3107300722351
 20
-506.5419967323535
 30
0.0
 10
539.7928968096743
 20
-506.0845377471644
 30
0.0
 10
539.7928968096743
 20
-505.5095165287729
 30
0.0
 10
539.7928968096743
 20
-505.5095165287729
 30
0.0
 10
539.7928968096743
 20
-501.8055923786022
 30
0.0
 10
539.7928968096743
 20
-501.8055923786022
 30
0.0
 10
539.7928968096743
 20
-501.2526215841116
 30
0.0
 10
539.3456196657237
 20
-500.8038254934525
 30
0.0
 10
538.7926520490512
 20
-500.8019508012406
 30
0.0
  0
SPLINE
  5
7E
330
1F
100
AcDbEntity
  8
Calque 2
 62
   250
420
  2565157
370
    35
100
AcDbSpline
210
0.0
220
0.0
230
1.0
 70
    11
 71
     3
 72
    89
 73
    85
 74
     0
 42
0.0000000001
 43
0.0000000001
 12
1.0
 22
0.0
 32
0.0
 13
1.0
 23
0.0
 33
0.0
 40
0.0
 40
0.0
 40
0.0
 40
0.0
 40
1.0
 40
1.0
 40
1.0
 40
2.0
 40
2.0
 40
2.0
 40
3.0
 40
3.0
 40
3.0
 40
4.0
 40
4.0
 40
4.0
 40
5.0
 40
5.0
 40
5.0
 40
6.0
 40
6.0
 40
6.0
 40
7.0
 40
7.0
 40
7.0
 40
8.0
 40
8.0
 40
8.0
 40
9.0
 40
9.0
 40
9.0
 40
10.0
 40
10.0
 40
10.0
 40
11.0
 40
11.0
 40
11.0
 40
12.0
 40
12.0
 40
12.0
 40
13.0
 40
13.0
 40
13.0
 40
14.0
 40
14.0
 40
14.0
 40
15.0
 40
15.0
 40
15.0
 40
16.0
 40
16.0
 40
16.0
 40
17.0
 40
17.0
 40
17.0
 40
18.0
 40
18.0
 40
18.0
 40
19.0
 40
19.0
 40
19.0
 40
20.0
 40
20.0
 40
20.0
 40
21.0
 40
21.0
 40
21.0
 40
22.0
 40
22.0
 40
22.0
 40
23.0
 40
23.0
 40
23.0
 40
24.0
 40
24.0
 40
24.0
 40
25.0
 40
25.0
 40
25.0
 40
26.0
 40
26.0
 40
26.0
 40
27.0
 40
27.0
 40
27.0
 40
28.0
 40
28.0
 40
28.0
 40
28.0
 10
366.5730467403992
 20
-486.0549964889225
 30
0.0
 10
363.87245792136
 20
-485.2774169060536
 30
0.0
 10
359.4997058811656
 20
-484.4730086420958
 30
0.0
 10
354.7549911877982
 20
-485.7022187112329
 30
0.0
 10
352.5494625899893
 20
-486.2736093293065
 30
0.0
 10
351.0887851679363
 20
-487.070621403895
 30
0.0
 10
350.698046744368
 20
-487.2897187108361
 30
0.0
 10
349.5895872719888
 20
-487.911246234144
 30
0.0
 10
346.8251565272392
 20
-489.50383851551
 30
0.0
 10
345.0536023013346
 20
-492.5813853761798
 30
0.0
 10
343.0588704835301
 20
-496.0466131381703
 30
0.0
 10
343.8619653048348
 20
-498.7208146789792
 30
0.0
 10
342.0549911909732
 20
-499.4605520411267
 30
0.0
 10
341.0742586337116
 20
-499.8620456221605
 30
0.0
 10
340.495288805567
 20
-499.2144537983226
 30
0.0
 10
338.8799911917669
 20
-498.9313853745923
 30
0.0
 10
334.4309302865781
 20
-498.1517172025842
 30
0.0
 10
330.3625739643502
 20
-501.5819557135551
 30
0.0
 10
329.531380082993
 20
-502.2827742626434
 30
0.0
 10
328.3956612925874
 20
-503.2403708505374
 30
0.0
 10
325.6504584870142
 20
-505.8619377918864
 30
0.0
 10
324.7688800841836
 20
-510.220274260659
 30
0.0
 10
324.6022666537788
 20
-511.0439858252582
 30
0.0
 10
323.5541609479326
 20
-516.7129335099297
 30
0.0
 10
327.4147134168555
 20
-521.5091631467257
 30
0.0
 10
327.8717053329739
 20
-522.0769041167708
 30
0.0
 10
331.5720177981436
 20
-526.5449453449012
 30
0.0
 10
336.5869356367846
 20
-526.4480520343799
 30
0.0
 10
340.2581801087963
 20
-526.3771261310766
 30
0.0
 10
342.4556988596038
 20
-523.9018465567726
 30
0.0
 10
345.4063800790242
 20
-525.2133298124663
 30
0.0
 10
346.5172295863982
 20
-525.7070658251196
 30
0.0
 10
346.9264853981978
 20
-526.3782350211872
 30
0.0
 10
347.6994356340065
 20
-527.153607589759
 30
0.0
 10
351.2277301752251
 20
-530.6930340957643
 30
0.0
 10
357.7032608403821
 20
-531.7587851500504
 30
0.0
 10
362.3397134081242
 20
-530.8577742554996
 30
0.0
 10
368.2609712733974
 20
-529.707080065654
 30
0.0
 10
370.841950683561
 20
-525.4148140687371
 30
0.0
 10
374.33415784957
 20
-526.9772187009142
 30
0.0
 10
375.1904148005841
 20
-527.360313318874
 30
0.0
 10
375.2376987361175
 20
-527.7089354501333
 30
0.0
 10
376.2744356268628
 20
-528.5647187005173
 30
0.0
 10
379.7535729618791
 20
-531.4366041266386
 30
0.0
 10
385.6787926869603
 20
-532.8410080671247
 30
0.0
 10
390.2091578456013
 20
-531.2105520331892
 30
0.0
 10
395.4315780916916
 20
-529.3310371275151
 30
0.0
 10
399.2049911766857
 20
-523.2730735670184
 30
0.0
 10
399.2049911766857
 20
-523.2730735670184
 30
0.0
 10
399.2047973900666
 20
-523.2733965447221
 30
0.0
 10
401.5292894413502
 20
-524.597777376638
 30
0.0
 10
402.0272133982024
 20
-524.8605520347767
 30
0.0
 10
405.3762122512618
 20
-526.6278967846307
 30
0.0
 10
410.3191060624166
 20
-524.8171976612795
 30
0.0
 10
410.6702689515972
 20
-524.684163145932
 30
0.0
 10
414.7803324610409
 20
-523.127033816216
 30
0.0
 10
416.8129387973383
 20
-519.8916262208605
 30
0.0
 10
417.9022133942336
 20
-518.1577742586746
 30
0.0
 10
418.8269200861708
 20
-516.6858572126016
 30
0.0
 10
421.3932363086741
 20
-512.4614703626643
 30
0.0
 10
420.7244356157503
 20
-506.6924964837631
 30
0.0
 10
420.5727437551657
 20
-505.3841138140062
 30
0.0
 10
419.8773081677754
 20
-500.090035581819
 30
0.0
 10
415.4327689504065
 20
-496.2855520419205
 30
0.0
 10
411.5929085862432
 20
-492.9986618009054
 30
0.0
 10
407.0275111128827
 20
-492.5979541322779
 30
0.0
 10
406.8102547788451
 20
-492.5835600927049
 30
0.0
 10
406.8070680655193
 20
-492.5833447742339
 30
0.0
 10
406.7995749828408
 20
-492.5828710736079
 30
0.0
 10
406.7897133970117
 20
-492.5813853761798
 30
0.0
 10
406.0567908643729
 20
-492.4708516407202
 30
0.0
 10
406.2670062845138
 20
-488.892850831201
 30
0.0
 10
405.9077689527878
 20
-486.5841631554569
 30
0.0
 10
405.4405063457543
 20
-483.5812349098148
 30
0.0
 10
403.8290414006842
 20
-481.5636578025712
 30
0.0
 10
402.2036022870471
 20
-479.5286076016653
 30
0.0
 10
398.2140740558942
 20
-474.5337036146037
 30
0.0
 10
393.0636993691419
 20
-472.853907353768
 30
0.0
 10
391.7966578452044
 20
-472.4730520478736
 30
0.0
 10
390.1811449129372
 20
-471.9874550733036
 30
0.0
 10
384.205325347919
 20
-470.2901641869549
 30
0.0
 10
377.6855467376211
 20
-473.1786076032528
 30
0.0
 10
369.4813963490471
 20
-476.8132802335012
 30
0.0
 10
366.9430284636702
 20
-484.8174966587727
 30
0.0
 10
366.5730467403992
 20
-486.0549964889225
 30
0.0
  0
SPLINE
  5
7F
330
1F
100
AcDbEntity
  8
Calque 2
 62
   250
420
  2565157
370
    35
100
AcDbSpline
210
0.0
220
0.0
230
1.0
 70
    11
 71
     3
 72
    89
 73
    85
 74
     0
 42
0.0000000001
 43
0.0000000001
 12
1.0
 22
0.0
 32
0.0
 13
1.0
 23
0.0
 33
0.0
 40
0.0
 40
0.0
 40
0.0
 40
0.0
 40
1.0
 40
1.0
 40
1.0
 40
2.0
 40
2.0
 40
2.0
 40
3.0
 40
3.0
 40
3.0
 40
4.0
 40
4.0
 40
4.0
 40
5.0
 40
5.0
 40
5.0
 40
6.0
 40
6.0
 40
6.0
 40
7.0
 40
7.0
 40
7.0
 40
8.0
 40
8.0
 40
8.0
 40
9.0
 40
9.0
 40
9.0
 40
10.0
 40
10.0
 40
10.0
 40
11.0
 40
11.0
 40
11.0
 40
12.0
 40
12.0
 40
12.0
 40
13.0
 40
13.0
 40
13.0
 40
14.0
 40
14.0
 40
14.0
 40
15.0
 40
15.0
 40
15.0
 40
16.0
 40
16.0
 40
16.0
 40
17.0
 40
17.0
 40
17.0
 40
18.0
 40
18.0
 40
18.0
 40
19.0
 40
19.0
 40
19.0
 40
20.0
 40
20.0
 40
20.0
 40
21.0
 40
21.0
 40
21.0
 40
22.0
 40
22.0
 40
22.0
 40
23.0
 40
23.0
 40
23.0
 40
24.0
 40
24.0
 40
24.0
 40
25.0
 40
25.0
 40
25.0
 40
26.0
 40
26.0
 40
26.0
 40
27.0
 40
27.0
 40
27.0
 40
28.0
 40
28.0
 40
28.0
 40
28.0
 10
395.1575427399856
 20
-562.101972143795
 30
0.0
 10
393.6459370667518
 20
-561.6667360572902
 30
0.0
 10
391.1983683198859
 20
-561.2164831025177
 30
0.0
 10
388.5426002156066
 20
-561.9045111729185
 30
0.0
 10
387.3080955337284
 20
-562.2243367212668
 30
0.0
 10
386.4905078053123
 20
-562.6704497930139
 30
0.0
 10
386.2717990505211
 20
-562.793085541866
 30
0.0
 10
385.6513589393909
 20
-563.1409743147442
 30
0.0
 10
384.1040189046626
 20
-564.032398996168
 30
0.0
 10
383.1124235164884
 20
-565.7550001050184
 30
0.0
 10
381.9959085138638
 20
-567.6945985759734
 30
0.0
 10
382.4454262929025
 20
-569.1914344481967
 30
0.0
 10
381.4340052640334
 20
-569.6054890371216
 30
0.0
 10
380.885057980005
 20
-569.8302177964872
 30
0.0
 10
380.5609901061109
 20
-569.4677400035154
 30
0.0
 10
379.6568565261386
 20
-569.3092975808088
 30
0.0
 10
377.1665752743447
 20
-568.8728924443668
 30
0.0
 10
374.8893865168164
 20
-570.7929063158502
 30
0.0
 10
374.4241407978975
 20
-571.1851768041403
 30
0.0
 10
373.7884427772765
 20
-571.7211741483939
 30
0.0
 10
372.2518652332091
 20
-573.1885487569883
 30
0.0
 10
371.7584176910583
 20
-575.6280486488704
 30
0.0
 10
371.6651588414084
 20
-576.0891062765211
 30
0.0
 10
371.0785006578547
 20
-579.2621970562094
 30
0.0
 10
373.2393749726364
 20
-581.946799716936
 30
0.0
 10
373.4951679197738
 20
-582.2645824409121
 30
0.0
 10
375.5663507950253
 20
-584.7654875846652
 30
0.0
 10
378.3733602154376
 20
-584.711253309215
 30
0.0
 10
380.4282728080578
 20
-584.6715538195893
 30
0.0
 10
381.6582941231664
 20
-583.2860609148587
 30
0.0
 10
383.3098844873652
 20
-584.0201399111446
 30
0.0
 10
383.9316623772875
 20
-584.2964997007401
 30
0.0
 10
384.1607359047205
 20
-584.6721745007412
 30
0.0
 10
384.5933807980664
 20
-585.1061752509687
 30
0.0
 10
386.5682797563055
 20
-587.0873051248554
 30
0.0
 10
390.1928407489499
 20
-587.6838399725739
 30
0.0
 10
392.7880110894638
 20
-587.1795154451773
 30
0.0
 10
396.1023279224208
 20
-586.5354352159825
 30
0.0
 10
397.5469843956336
 20
-584.1329170739247
 30
0.0
 10
399.501684099283
 20
-585.0074447655323
 30
0.0
 10
399.9809584174518
 20
-585.2218750385935
 30
0.0
 10
400.0074247438693
 20
-585.4170099616579
 30
0.0
 10
400.587719439107
 20
-585.8960191344761
 30
0.0
 10
402.5351035416006
 20
-587.5035049806773
 30
0.0
 10
405.8516379538221
 20
-588.2895946471184
 30
0.0
 10
408.3874277887472
 20
-587.3769764160545
 30
0.0
 10
411.3105829230501
 20
-586.3249519929701
 30
0.0
 10
413.4226825461117
 20
-582.9341166233839
 30
0.0
 10
413.4226825461117
 20
-582.9341166233839
 30
0.0
 10
413.4226825461117
 20
-582.9341166233839
 30
0.0
 10
414.7236663976313
 20
-583.6755955852537
 30
0.0
 10
415.00237031313
 20
-583.822678940268
 30
0.0
 10
416.8769117576662
 20
-584.8119181504793
 30
0.0
 10
419.6436070333299
 20
-583.7984121150212
 30
0.0
 10
419.8401640996174
 20
-583.7239484548311
 30
0.0
 10
422.1406976997093
 20
-582.852373518222
 30
0.0
 10
423.2784122780044
 20
-581.0414127225997
 30
0.0
 10
423.8881140025977
 20
-580.0709204936045
 30
0.0
 10
424.4057018233533
 20
-579.2470415892368
 30
0.0
 10
425.8421508428812
 20
-576.882517570145
 30
0.0
 10
425.4678017696125
 20
-573.653438940102
 30
0.0
 10
425.3828949983826
 20
-572.9210954406308
 30
0.0
 10
424.9936375253985
 20
-569.957831046619
 30
0.0
 10
422.5058872064566
 20
-567.8283402992304
 30
0.0
 10
420.356594922497
 20
-565.9885630252547
 30
0.0
 10
417.8011963839804
 20
-565.764274166122
 30
0.0
 10
417.6795910863632
 20
-565.7562173632024
 30
0.0
 10
417.677807381305
 20
-565.7560968425903
 30
0.0
 10
417.6736132640027
 20
-565.7558316972431
 30
0.0
 10
417.6680934199689
 20
-565.7550001050184
 30
0.0
 10
417.2578533084171
 20
-565.6931308487949
 30
0.0
 10
417.375517582016
 20
-563.6904097072493
 30
0.0
 10
417.1744409927785
 20
-562.3981636001124
 30
0.0
 10
416.9128992124437
 20
-560.7173289093832
 30
0.0
 10
416.0109108993681
 20
-559.5880266698133
 30
0.0
 10
415.1011007985663
 20
-558.4489441825691
 30
0.0
 10
412.8680346371333
 20
-555.6531371530505
 30
0.0
 10
409.9852056996421
 20
-554.7129016237254
 30
0.0
 10
409.2760021576947
 20
-554.4997247650283
 30
0.0
 10
408.3717480571142
 20
-554.2279206545737
 30
0.0
 10
405.0268913010459
 20
-553.2778928255117
 30
0.0
 10
401.3775633226144
 20
-554.8946467067819
 30
0.0
 10
396.7854387518458
 20
-556.929088873436
 30
0.0
 10
395.3646333077708
 20
-561.4093040298296
 30
0.0
 10
395.1575427399856
 20
-562.101972143795
 30
0.0
  0
SPLINE
  5
80
330
1F
100
AcDbEntity
  8
Calque 2
 62
   250
420
  2565157
370
    35
100
AcDbSpline
210
0.0
220
0.0
230
1.0
 70
    11
 71
     3
 72
    89
 73
    85
 74
     0
 42
0.0000000001
 43
0.0000000001
 12
1.0
 22
0.0
 32
0.0
 13
1.0
 23
0.0
 33
0.0
 40
0.0
 40
0.0
 40
0.0
 40
0.0
 40
1.0
 40
1.0
 40
1.0
 40
2.0
 40
2.0
 40
2.0
 40
3.0
 40
3.0
 40
3.0
 40
4.0
 40
4.0
 40
4.0
 40
5.0
 40
5.0
 40
5.0
 40
6.0
 40
6.0
 40
6.0
 40
7.0
 40
7.0
 40
7.0
 40
8.0
 40
8.0
 40
8.0
 40
9.0
 40
9.0
 40
9.0
 40
10.0
 40
10.0
 40
10.0
 40
11.0
 40
11.0
 40
11.0
 40
12.0
 40
12.0
 40
12.0
 40
13.0
 40
13.0
 40
13.0
 40
14.0
 40
14.0
 40
14.0
 40
15.0
 40
15.0
 40
15.0
 40
16.0
 40
16.0
 40
16.0
 40
17.0
 40
17.0
 40
17.0
 40
18.0
 40
18.0
 40
18.0
 40
19.0
 40
19.0
 40
19.0
 40
20.0
 40
20.0
 40
20.0
 40
21.0
 40
21.0
 40
21.0
 40
22.0
 40
22.0
 40
22.0
 40
23.0
 40
23.0
 40
23.0
 40
24.0
 40
24.0
 40
24.0
 40
25.0
 40
25.0
 40
25.0
 40
26.0
 40
26.0
 40
26.0
 40
27.0
 40
27.0
 40
27.0
 40
28.0
 40
28.0
 40
28.0
 40
28.0
 10
345.7515821092555
 20
-540.8377421593824
 30
0.0
 10
347.6134879836569
 20
-540.3016442600249
 30
0.0
 10
350.6282574492986
 20
-539.7470494764235
 30
0.0
 10
353.8994744881325
 20
-540.5945214917216
 30
0.0
 10
355.4200638586303
 20
-540.9884635613349
 30
0.0
 10
356.4271197471288
 20
-541.5379590836761
 30
0.0
 10
356.6965121703799
 20
-541.689014497964
 30
0.0
 10
357.4607333611542
 20
-542.1175231767646
 30
0.0
 10
359.3666546945107
 20
-543.2155270281809
 30
0.0
 10
360.58804285863
 20
-545.3373245185282
 30
0.0
 10
361.9632995666862
 20
-547.7264064405095
 30
0.0
 10
361.4096103285669
 20
-549.5701197532985
 30
0.0
 10
362.6554185366384
 20
-550.0801275451231
 30
0.0
 10
363.3315791193438
 20
-550.356935051646
 30
0.0
 10
363.7307466329468
 20
-549.9104564865069
 30
0.0
 10
364.8444045488869
 20
-549.7152965431831
 30
0.0
 10
367.9117847352013
 20
-549.1777586777681
 30
0.0
 10
370.7166902734728
 20
-551.5427174561647
 30
0.0
 10
371.2897522514657
 20
-552.0258928897172
 30
0.0
 10
372.0727672267588
 20
-552.686102507641
 30
0.0
 10
373.9654319648351
 20
-554.4935271899858
 30
0.0
 10
374.5732312695718
 20
-557.4983579204488
 30
0.0
 10
374.6881019683493
 20
-558.0662612569812
 30
0.0
 10
375.4107125918001
 20
-561.9746855684857
 30
0.0
 10
372.7490762590269
 20
-565.2814192971954
 30
0.0
 10
372.4340057354399
 20
-565.6728451372796
 30
0.0
 10
369.882845978083
 20
-568.7533112010715
 30
0.0
 10
366.4253388902008
 20
-568.686508649273
 30
0.0
 10
363.894219898482
 20
-568.637609181355
 30
0.0
 10
362.3791528723095
 20
-566.9310415069974
 30
0.0
 10
360.3448221895931
 20
-567.8352363109071
 30
0.0
 10
359.578953202511
 20
-568.1756398465282
 30
0.0
 10
359.2967940693626
 20
-568.6383736992393
 30
0.0
 10
358.7638878473654
 20
-569.1729499849803
 30
0.0
 10
356.3313248867223
 20
-571.613187816338
 30
0.0
 10
351.8668064453184
 20
-572.3479639266696
 30
0.0
 10
348.6702301241796
 20
-571.7267669987973
 30
0.0
 10
344.5878519682637
 20
-570.9334273178101
 30
0.0
 10
342.8084101327665
 20
-567.9741485050087
 30
0.0
 10
340.4007274114194
 20
-569.0513396501408
 30
0.0
 10
339.8103858400333
 20
-569.3154620943014
 30
0.0
 10
339.7777861948227
 20
-569.5558176751099
 30
0.0
 10
339.0630137372266
 20
-570.1458326561997
 30
0.0
 10
336.6643419378057
 20
-572.125838019268
 30
0.0
 10
332.579232299697
 20
-573.0940964701134
 30
0.0
 10
329.4557973501253
 20
-571.9699876659614
 30
0.0
 10
325.8552288867026
 20
-570.6741666140447
 30
0.0
 10
323.2536703157119
 20
-566.4975374801112
 30
0.0
 10
323.2536703157119
 20
-566.4975374801112
 30
0.0
 10
323.2536703157119
 20
-566.4975374801112
 30
0.0
 10
321.6511958618482
 20
-567.4108471210901
 30
0.0
 10
321.3079049714563
 20
-567.5920156411294
 30
0.0
 10
318.9989564214283
 20
-568.8105016054967
 30
0.0
 10
315.5911058969884
 20
-567.5621252102668
 30
0.0
 10
315.3489986048273
 20
-567.4704053068476
 30
0.0
 10
312.5153382792677
 20
-566.3968511892916
 30
0.0
 10
311.1139691960125
 20
-564.1662174973001
 30
0.0
 10
310.3629749104972
 20
-562.9708229481464
 30
0.0
 10
309.7254410476884
 20
-561.956017963607
 30
0.0
 10
307.9561086650062
 20
-559.0435380494843
 30
0.0
 10
308.4172095666474
 20
-555.0661512372194
 30
0.0
 10
308.5217926725354
 20
-554.1640941148742
 30
0.0
 10
309.0012568533584
 20
-550.5141214532223
 30
0.0
 10
312.0655195873564
 20
-547.8911415306203
 30
0.0
 10
314.7128898640514
 20
-545.6250134163715
 30
0.0
 10
317.8604776473599
 20
-545.3487477529384
 30
0.0
 10
318.0102638131559
 20
-545.3388238627759
 30
0.0
 10
318.0124608748543
 20
-545.3386754126592
 30
0.0
 10
318.0176269388477
 20
-545.3383488224088
 30
0.0
 10
318.0244259541055
 20
-545.3373245166159
 30
0.0
 10
318.5297352997457
 20
-545.2611176502248
 30
0.0
 10
318.3848034528137
 20
-542.7942849806939
 30
0.0
 10
318.632477624355
 20
-541.2025731602039
 30
0.0
 10
318.9546292184941
 20
-539.1322210571981
 30
0.0
 10
320.0656447224426
 20
-537.7412137919056
 30
0.0
 10
321.1862946388464
 20
-536.3381597998034
 30
0.0
 10
323.9368525903663
 20
-532.8944511502066
 30
0.0
 10
327.4877496454998
 20
-531.7363250025564
 30
0.0
 10
328.3613043458267
 20
-531.4737464396069
 30
0.0
 10
329.4751107118864
 20
-531.1389543183401
 30
0.0
 10
333.5951061269717
 20
-529.9687665988924
 30
0.0
 10
338.0901310668398
 20
-531.9601877760931
 30
0.0
 10
343.7464367194297
 20
-534.4660925160814
 30
0.0
 10
345.4965002770981
 20
-539.9845548147997
 30
0.0
 10
345.7515821092555
 20
-540.8377421593824
 30
0.0
  0
SPLINE
  5
81
330
1F
100
AcDbEntity
  8
Calque 2
 62
   250
420
  2565157
370
    35
100
AcDbSpline
210
0.0
220
0.0
230
1.0
 70
    11
 71
     3
 72
    17
 73
    13
 74
     0
 42
0.0000000001
 43
0.0000000001
 12
1.0
 22
0.0
 32
0.0
 13
1.0
 23
0.0
 33
0.0
 40
0.0
 40
0.0
 40
0.0
 40
0.0
 40
1.0
 40
1.0
 40
1.0
 40
2.0
 40
2.0
 40
2.0
 40
3.0
 40
3.0
 40
3.0
 40
4.0
 40
4.0
 40
4.0
 40
4.0
 10
343.1351850994018
 20
-373.560572334711
 30
0.0
 10
343.1351850994018
 20
-376.1010805828371
 30
0.0
 10
341.0756949489966
 20
-378.1605694359253
 30
0.0
 10
338.5351851005516
 20
-378.1605694359253
 30
0.0
 10
335.994675252107
 20
-378.1605694359253
 30
0.0
 10
333.9351851017017
 20
-376.1010805828371
 30
0.0
 10
333.9351851017017
 20
-373.560572334711
 30
0.0
 10
333.9351851017017
 20
-371.0200640865848
 30
0.0
 10
335.994675252107
 20
-368.9605752334964
 30
0.0
 10
338.5351851005516
 20
-368.9605752334964
 30
0.0
 10
341.0756949489966
 20
-368.9605752334964
 30
0.0
 10
343.1351850994018
 20
-371.0200640865848
 30
0.0
 10
343.1351850994018
 20
-373.560572334711
 30
0.0
  0
HATCH
  5
82
330
1F
100
AcDbEntity
  8
Calque 2
 62
     7
420
 16711679
100
AcDbHatch
 10
0.0
 20
0.0
 30
0.0
210
0.0
220
0.0
230
1.0
  2
SOLID
 70
     1
 71
     0
 91
        1
 92
        1
 93
        1
 72
     4
 94
        3
 73
     0
 74
     1
 95
       17
 96
       13
 40
0.0
 40
0.0
 40
0.0
 40
0.0
 40
1.0
 40
1.0
 40
1.0
 40
2.0
 40
2.0
 40
2.0
 40
3.0
 40
3.0
 40
3.0
 40
4.0
 40
4.0
 40
4.0
 40
4.0
 10
343.1351850994018
 20
-373.560572334711
 10
343.1351850994018
 20
-376.1010805828371
 10
341.0756949489966
 20
-378.1605694359253
 10
338.5351851005516
 20
-378.1605694359253
 10
335.994675252107
 20
-378.1605694359253
 10
333.9351851017017
 20
-376.1010805828371
 10
333.9351851017017
 20
-373.560572334711
 10
333.9351851017017
 20
-371.0200640865848
 10
335.994675252107
 20
-368.9605752334964
 10
338.5351851005516
 20
-368.9605752334964
 10
341.0756949489966
 20
-368.9605752334964
 10
343.1351850994018
 20
-371.0200640865848
 10
343.1351850994018
 20
-373.560572334711
 97
        0
 97
        0
 75
     2
 76
     1
 98
        0
  0
SPLINE
  5
83
330
1F
100
AcDbEntity
  8
Calque 2
 62
   250
420
  2565157
370
    35
100
AcDbSpline
210
0.0
220
0.0
230
1.0
 70
    11
 71
     3
 72
    17
 73
    13
 74
     0
 42
0.0000000001
 43
0.0000000001
 12
1.0
 22
0.0
 32
0.0
 13
1.0
 23
0.0
 33
0.0
 40
0.0
 40
0.0
 40
0.0
 40
0.0
 40
1.0
 40
1.0
 40
1.0
 40
2.0
 40
2.0
 40
2.0
 40
3.0
 40
3.0
 40
3.0
 40
4.0
 40
4.0
 40
4.0
 40
4.0
 10
364.5915423829355
 20
-366.451310148097
 30
0.0
 10
364.5915423829355
 20
-369.0194326163101
 30
0.0
 10
362.5096664700247
 20
-371.1013072178011
 30
0.0
 10
359.9415423840964
 20
-371.1013072178011
 30
0.0
 10
357.3734182981712
 20
-371.1013072178011
 30
0.0
 10
355.2915423852604
 20
-369.0194326163101
 30
0.0
 10
355.2915423852604
 20
-366.451310148097
 30
0.0
 10
355.2915423852604
 20
-363.8831876798839
 30
0.0
 10
357.3734182981712
 20
-361.8013130783926
 30
0.0
 10
359.9415423840964
 20
-361.8013130783926
 30
0.0
 10
362.5096664700247
 20
-361.8013130783926
 30
0.0
 10
364.5915423829355
 20
-363.8831876798839
 30
0.0
 10
364.5915423829355
 20
-366.451310148097
 30
0.0
  0
HATCH
  5
84
330
1F
100
AcDbEntity
  8
Calque 2
 62
     7
420
 16711679
100
AcDbHatch
 10
0.0
 20
0.0
 30
0.0
210
0.0
220
0.0
230
1.0
  2
SOLID
 70
     1
 71
     0
 91
        1
 92
        1
 93
        1
 72
     4
 94
        3
 73
     0
 74
     1
 95
       17
 96
       13
 40
0.0
 40
0.0
 40
0.0
 40
0.0
 40
1.0
 40
1.0
 40
1.0
 40
2.0
 40
2.0
 40
2.0
 40
3.0
 40
3.0
 40
3.0
 40
4.0
 40
4.0
 40
4.0
 40
4.0
 10
364.5915423829355
 20
-366.451310148097
 10
364.5915423829355
 20
-369.0194326163101
 10
362.5096664700247
 20
-371.1013072178011
 10
359.9415423840964
 20
-371.1013072178011
 10
357.3734182981712
 20
-371.1013072178011
 10
355.2915423852604
 20
-369.0194326163101
 10
355.2915423852604
 20
-366.451310148097
 10
355.2915423852604
 20
-363.8831876798839
 10
357.3734182981712
 20
-361.8013130783926
 10
359.9415423840964
 20
-361.8013130783926
 10
362.5096664700247
 20
-361.8013130783926
 10
364.5915423829355
 20
-363.8831876798839
 10
364.5915423829355
 20
-366.451310148097
 97
        0
 97
        0
 75
     2
 76
     1
 98
        0
  0
SPLINE
  5
85
330
1F
100
AcDbEntity
  8
Calque 2
 62
   250
420
  2565157
370
    35
100
AcDbSpline
210
0.0
220
0.0
230
1.0
 70
    11
 71
     3
 72
    17
 73
    13
 74
     0
 42
0.0000000001
 43
0.0000000001
 12
1.0
 22
0.0
 32
0.0
 13
1.0
 23
0.0
 33
0.0
 40
0.0
 40
0.0
 40
0.0
 40
0.0
 40
1.0
 40
1.0
 40
1.0
 40
2.0
 40
2.0
 40
2.0
 40
3.0
 40
3.0
 40
3.0
 40
4.0
 40
4.0
 40
4.0
 40
4.0
 10
385.4611110147463
 20
-371.1013072178011
 30
0.0
 10
385.4611110147463
 20
-373.6970439061047
 30
0.0
 10
383.3568493393321
 20
-375.801304255999
 30
0.0
 10
380.7611110159211
 20
-375.801304255999
 30
0.0
 10
378.16537269251
 20
-375.801304255999
 30
0.0
 10
376.0611110170959
 20
-373.6970439061047
 30
0.0
 10
376.0611110170959
 20
-371.1013072178011
 30
0.0
 10
376.0611110170959
 20
-368.5055705295011
 30
0.0
 10
378.16537269251
 20
-366.4013101796072
 30
0.0
 10
380.7611110159211
 20
-366.4013101796072
 30
0.0
 10
383.3568493393321
 20
-366.4013101796072
 30
0.0
 10
385.4611110147463
 20
-368.5055705295011
 30
0.0
 10
385.4611110147463
 20
-371.1013072178011
 30
0.0
  0
HATCH
  5
86
330
1F
100
AcDbEntity
  8
Calque 2
 62
     7
420
 16711679
100
AcDbHatch
 10
0.0
 20
0.0
 30
0.0
210
0.0
220
0.0
230
1.0
  2
SOLID
 70
     1
 71
     0
 91
        1
 92
        1
 93
        1
 72
     4
 94
        3
 73
     0
 74
     1
 95
       17
 96
       13
 40
0.0
 40
0.0
 40
0.0
 40
0.0
 40
1.0
 40
1.0
 40
1.0
 40
2.0
 40
2.0
 40
2.0
 40
3.0
 40
3.0
 40
3.0
 40
4.0
 40
4.0
 40
4.0
 40
4.0
 10
385.4611110147463
 20
-371.1013072178011
 10
385.4611110147463
 20
-373.6970439061047
 10
383.3568493393321
 20
-375.801304255999
 10
380.7611110159211
 20
-375.801304255999
 10
378.16537269251
 20
-375.801304255999
 10
376.0611110170959
 20
-373.6970439061047
 10
376.0611110170959
 20
-371.1013072178011
 10
376.0611110170959
 20
-368.5055705295011
 10
378.16537269251
 20
-366.4013101796072
 10
380.7611110159211
 20
-366.4013101796072
 10
383.3568493393321
 20
-366.4013101796072
 10
385.4611110147463
 20
-368.5055705295011
 10
385.4611110147463
 20
-371.1013072178011
 97
        0
 97
        0
 75
     2
 76
     1
 98
        0
  0
SPLINE
  5
87
330
1F
100
AcDbEntity
  8
Calque 2
 62
   250
420
  2565157
370
    35
100
AcDbSpline
210
0.0
220
0.0
230
1.0
 70
    11
 71
     3
 72
    17
 73
    13
 74
     0
 42
0.0000000001
 43
0.0000000001
 12
1.0
 22
0.0
 32
0.0
 13
1.0
 23
0.0
 33
0.0
 40
0.0
 40
0.0
 40
0.0
 40
0.0
 40
1.0
 40
1.0
 40
1.0
 40
2.0
 40
2.0
 40
2.0
 40
3.0
 40
3.0
 40
3.0
 40
4.0
 40
4.0
 40
4.0
 40
4.0
 10
345.426846047569
 20
-396.7282210781921
 30
0.0
 10
345.426846047569
 20
-399.3515719865828
 30
0.0
 10
343.3001986096505
 20
-401.47821808488
 30
0.0
 10
340.6768460487564
 20
-401.47821808488
 30
0.0
 10
338.0534934878626
 20
-401.47821808488
 30
0.0
 10
335.9268460499442
 20
-399.3515719865828
 30
0.0
 10
335.9268460499442
 20
-396.7282210781921
 30
0.0
 10
335.9268460499442
 20
-394.1048701698052
 30
0.0
 10
338.0534934878626
 20
-391.9782240715047
 30
0.0
 10
340.6768460487564
 20
-391.9782240715047
 30
0.0
 10
343.3001986096505
 20
-391.9782240715047
 30
0.0
 10
345.426846047569
 20
-394.1048701698052
 30
0.0
 10
345.426846047569
 20
-396.7282210781921
 30
0.0
  0
HATCH
  5
88
330
1F
100
AcDbEntity
  8
Calque 2
 62
     7
420
 16711679
100
AcDbHatch
 10
0.0
 20
0.0
 30
0.0
210
0.0
220
0.0
230
1.0
  2
SOLID
 70
     1
 71
     0
 91
        1
 92
        1
 93
        1
 72
     4
 94
        3
 73
     0
 74
     1
 95
       17
 96
       13
 40
0.0
 40
0.0
 40
0.0
 40
0.0
 40
1.0
 40
1.0
 40
1.0
 40
2.0
 40
2.0
 40
2.0
 40
3.0
 40
3.0
 40
3.0
 40
4.0
 40
4.0
 40
4.0
 40
4.0
 10
345.426846047569
 20
-396.7282210781921
 10
345.426846047569
 20
-399.3515719865828
 10
343.3001986096505
 20
-401.47821808488
 10
340.6768460487564
 20
-401.47821808488
 10
338.0534934878626
 20
-401.47821808488
 10
335.9268460499442
 20
-399.3515719865828
 10
335.9268460499442
 20
-396.7282210781921
 10
335.9268460499442
 20
-394.1048701698052
 10
338.0534934878626
 20
-391.9782240715047
 10
340.6768460487564
 20
-391.9782240715047
 10
343.3001986096505
 20
-391.9782240715047
 10
345.426846047569
 20
-394.1048701698052
 10
345.426846047569
 20
-396.7282210781921
 97
        0
 97
        0
 75
     2
 76
     1
 98
        0
  0
SPLINE
  5
89
330
1F
100
AcDbEntity
  8
Calque 2
 62
   250
420
  2565157
370
    35
100
AcDbSpline
210
0.0
220
0.0
230
1.0
 70
    11
 71
     3
 72
    17
 73
    13
 74
     0
 42
0.0000000001
 43
0.0000000001
 12
1.0
 22
0.0
 32
0.0
 13
1.0
 23
0.0
 33
0.0
 40
0.0
 40
0.0
 40
0.0
 40
0.0
 40
1.0
 40
1.0
 40
1.0
 40
2.0
 40
2.0
 40
2.0
 40
3.0
 40
3.0
 40
3.0
 40
4.0
 40
4.0
 40
4.0
 40
4.0
 10
397.2445104078953
 20
-388.9921159532649
 30
0.0
 10
397.2445104078953
 20
-391.6706953018295
 30
0.0
 10
395.0730914449705
 20
-393.8421128969359
 30
0.0
 10
392.3945104091087
 20
-393.8421128969359
 30
0.0
 10
389.7159293732504
 20
-393.8421128969359
 30
0.0
 10
387.5445104103225
 20
-391.6706953018295
 30
0.0
 10
387.5445104103225
 20
-388.9921159532649
 30
0.0
 10
387.5445104103225
 20
-386.3135366047001
 30
0.0
 10
389.7159293732504
 20
-384.1421190095937
 30
0.0
 10
392.3945104091087
 20
-384.1421190095937
 30
0.0
 10
395.0730914449705
 20
-384.1421190095937
 30
0.0
 10
397.2445104078953
 20
-386.3135366047001
 30
0.0
 10
397.2445104078953
 20
-388.9921159532649
 30
0.0
  0
HATCH
  5
8A
330
1F
100
AcDbEntity
  8
Calque 2
 62
     7
420
 16711679
100
AcDbHatch
 10
0.0
 20
0.0
 30
0.0
210
0.0
220
0.0
230
1.0
  2
SOLID
 70
     1
 71
     0
 91
        1
 92
        1
 93
        1
 72
     4
 94
        3
 73
     0
 74
     1
 95
       17
 96
       13
 40
0.0
 40
0.0
 40
0.0
 40
0.0
 40
1.0
 40
1.0
 40
1.0
 40
2.0
 40
2.0
 40
2.0
 40
3.0
 40
3.0
 40
3.0
 40
4.0
 40
4.0
 40
4.0
 40
4.0
 10
397.2445104078953
 20
-388.9921159532649
 10
397.2445104078953
 20
-391.6706953018295
 10
395.0730914449705
 20
-393.8421128969359
 10
392.3945104091087
 20
-393.8421128969359
 10
389.7159293732504
 20
-393.8421128969359
 10
387.5445104103225
 20
-391.6706953018295
 10
387.5445104103225
 20
-388.9921159532649
 10
387.5445104103225
 20
-386.3135366047001
 10
389.7159293732504
 20
-384.1421190095937
 10
392.3945104091087
 20
-384.1421190095937
 10
395.0730914449705
 20
-384.1421190095937
 10
397.2445104078953
 20
-386.3135366047001
 10
397.2445104078953
 20
-388.9921159532649
 97
        0
 97
        0
 75
     2
 76
     1
 98
        0
  0
SPLINE
  5
8B
330
1F
100
AcDbEntity
  8
Calque 2
 62
   250
420
  2565157
370
    35
100
AcDbSpline
210
0.0
220
0.0
230
1.0
 70
    11
 71
     3
 72
    17
 73
    13
 74
     0
 42
0.0000000001
 43
0.0000000001
 12
1.0
 22
0.0
 32
0.0
 13
1.0
 23
0.0
 33
0.0
 40
0.0
 40
0.0
 40
0.0
 40
0.0
 40
1.0
 40
1.0
 40
1.0
 40
2.0
 40
2.0
 40
2.0
 40
3.0
 40
3.0
 40
3.0
 40
4.0
 40
4.0
 40
4.0
 40
4.0
 10
369.4915423817117
 20
-388.9921159532649
 30
0.0
 10
369.4915423817117
 20
-391.6430810817426
 30
0.0
 10
367.342509181287
 20
-393.792112928446
 30
0.0
 10
364.6915423829108
 20
-393.792112928446
 30
0.0
 10
362.040575584535
 20
-393.792112928446
 30
0.0
 10
359.8915423841103
 20
-391.6430810817426
 30
0.0
 10
359.8915423841103
 20
-388.9921159532649
 30
0.0
 10
359.8915423841103
 20
-386.3411508247873
 30
0.0
 10
362.040575584535
 20
-384.1921189780839
 30
0.0
 10
364.6915423829108
 20
-384.1921189780839
 30
0.0
 10
367.342509181287
 20
-384.1921189780839
 30
0.0
 10
369.4915423817117
 20
-386.3411508247873
 30
0.0
 10
369.4915423817117
 20
-388.9921159532649
 30
0.0
  0
HATCH
  5
8C
330
1F
100
AcDbEntity
  8
Calque 2
 62
     7
420
 16711679
100
AcDbHatch
 10
0.0
 20
0.0
 30
0.0
210
0.0
220
0.0
230
1.0
  2
SOLID
 70
     1
 71
     0
 91
        1
 92
        1
 93
        1
 72
     4
 94
        3
 73
     0
 74
     1
 95
       17
 96
       13
 40
0.0
 40
0.0
 40
0.0
 40
0.0
 40
1.0
 40
1.0
 40
1.0
 40
2.0
 40
2.0
 40
2.0
 40
3.0
 40
3.0
 40
3.0
 40
4.0
 40
4.0
 40
4.0
 40
4.0
 10
369.4915423817117
 20
-388.9921159532649
 10
369.4915423817117
 20
-391.6430810817426
 10
367.342509181287
 20
-393.792112928446
 10
364.6915423829108
 20
-393.792112928446
 10
362.040575584535
 20
-393.792112928446
 10
359.8915423841103
 20
-391.6430810817426
 10
359.8915423841103
 20
-388.9921159532649
 10
359.8915423841103
 20
-386.3411508247873
 10
362.040575584535
 20
-384.1921189780839
 10
364.6915423829108
 20
-384.1921189780839
 10
367.342509181287
 20
-384.1921189780839
 10
369.4915423817117
 20
-386.3411508247873
 10
369.4915423817117
 20
-388.9921159532649
 97
        0
 97
        0
 75
     2
 76
     1
 98
        0
  0
SPLINE
  5
8D
330
1F
100
AcDbEntity
  8
Calque 2
 62
   250
420
  2565157
370
    35
100
AcDbSpline
210
0.0
220
0.0
230
1.0
 70
    11
 71
     3
 72
    17
 73
    13
 74
     0
 42
0.0000000001
 43
0.0000000001
 12
1.0
 22
0.0
 32
0.0
 13
1.0
 23
0.0
 33
0.0
 40
0.0
 40
0.0
 40
0.0
 40
0.0
 40
1.0
 40
1.0
 40
1.0
 40
2.0
 40
2.0
 40
2.0
 40
3.0
 40
3.0
 40
3.0
 40
4.0
 40
4.0
 40
4.0
 40
4.0
 10
350.3268460463438
 20
-414.9800789097281
 30
0.0
 10
350.3268460463438
 20
-417.6862724783873
 30
0.0
 10
348.1330413209122
 20
-419.8800758218927
 30
0.0
 10
345.4268460475686
 20
-419.8800758218927
 30
0.0
 10
342.7206507742257
 20
-419.8800758218927
 30
0.0
 10
340.5268460487938
 20
-417.6862724783873
 30
0.0
 10
340.5268460487938
 20
-414.9800789097281
 30
0.0
 10
340.5268460487938
 20
-412.2738853410767
 30
0.0
 10
342.7206507742257
 20
-410.0800819975674
 30
0.0
 10
345.4268460475686
 20
-410.0800819975674
 30
0.0
 10
348.1330413209122
 20
-410.0800819975674
 30
0.0
 10
350.3268460463438
 20
-412.2738853410767
 30
0.0
 10
350.3268460463438
 20
-414.9800789097281
 30
0.0
  0
HATCH
  5
8E
330
1F
100
AcDbEntity
  8
Calque 2
 62
     7
420
 16711679
100
AcDbHatch
 10
0.0
 20
0.0
 30
0.0
210
0.0
220
0.0
230
1.0
  2
SOLID
 70
     1
 71
     0
 91
        1
 92
        1
 93
        1
 72
     4
 94
        3
 73
     0
 74
     1
 95
       17
 96
       13
 40
0.0
 40
0.0
 40
0.0
 40
0.0
 40
1.0
 40
1.0
 40
1.0
 40
2.0
 40
2.0
 40
2.0
 40
3.0
 40
3.0
 40
3.0
 40
4.0
 40
4.0
 40
4.0
 40
4.0
 10
350.3268460463438
 20
-414.9800789097281
 10
350.3268460463438
 20
-417.6862724783873
 10
348.1330413209122
 20
-419.8800758218927
 10
345.4268460475686
 20
-419.8800758218927
 10
342.7206507742257
 20
-419.8800758218927
 10
340.5268460487938
 20
-417.6862724783873
 10
340.5268460487938
 20
-414.9800789097281
 10
340.5268460487938
 20
-412.2738853410767
 10
342.7206507742257
 20
-410.0800819975674
 10
345.4268460475686
 20
-410.0800819975674
 10
348.1330413209122
 20
-410.0800819975674
 10
350.3268460463438
 20
-412.2738853410767
 10
350.3268460463438
 20
-414.9800789097281
 97
        0
 97
        0
 75
     2
 76
     1
 98
        0
  0
SPLINE
  5
8F
330
1F
100
AcDbEntity
  8
Calque 2
 62
   250
420
  2565157
370
    35
100
AcDbSpline
210
0.0
220
0.0
230
1.0
 70
    11
 71
     3
 72
    17
 73
    13
 74
     0
 42
0.0000000001
 43
0.0000000001
 12
1.0
 22
0.0
 32
0.0
 13
1.0
 23
0.0
 33
0.0
 40
0.0
 40
0.0
 40
0.0
 40
0.0
 40
1.0
 40
1.0
 40
1.0
 40
2.0
 40
2.0
 40
2.0
 40
3.0
 40
3.0
 40
3.0
 40
4.0
 40
4.0
 40
4.0
 40
4.0
 10
399.7945104072602
 20
-408.650641265707
 30
0.0
 10
399.7945104072602
 20
-411.3844490544527
 30
0.0
 10
397.5783199193218
 20
-413.6006381463611
 30
0.0
 10
394.8445104084949
 20
-413.6006381463611
 30
0.0
 10
392.1107008976714
 20
-413.6006381463611
 30
0.0
 10
389.8945104097334
 20
-411.3844490544527
 30
0.0
 10
389.8945104097334
 20
-408.650641265707
 30
0.0
 10
389.8945104097334
 20
-405.9168334769651
 30
0.0
 10
392.1107008976714
 20
-403.7006443850528
 30
0.0
 10
394.8445104084949
 20
-403.7006443850528
 30
0.0
 10
397.5783199193218
 20
-403.7006443850528
 30
0.0
 10
399.7945104072602
 20
-405.9168334769651
 30
0.0
 10
399.7945104072602
 20
-408.650641265707
 30
0.0
  0
HATCH
  5
90
330
1F
100
AcDbEntity
  8
Calque 2
 62
     7
420
 16711679
100
AcDbHatch
 10
0.0
 20
0.0
 30
0.0
210
0.0
220
0.0
230
1.0
  2
SOLID
 70
     1
 71
     0
 91
        1
 92
        1
 93
        1
 72
     4
 94
        3
 73
     0
 74
     1
 95
       17
 96
       13
 40
0.0
 40
0.0
 40
0.0
 40
0.0
 40
1.0
 40
1.0
 40
1.0
 40
2.0
 40
2.0
 40
2.0
 40
3.0
 40
3.0
 40
3.0
 40
4.0
 40
4.0
 40
4.0
 40
4.0
 10
399.7945104072602
 20
-408.650641265707
 10
399.7945104072602
 20
-411.3844490544527
 10
397.5783199193218
 20
-413.6006381463611
 10
394.8445104084949
 20
-413.6006381463611
 10
392.1107008976714
 20
-413.6006381463611
 10
389.8945104097334
 20
-411.3844490544527
 10
389.8945104097334
 20
-408.650641265707
 10
389.8945104097334
 20
-405.9168334769651
 10
392.1107008976714
 20
-403.7006443850528
 10
394.8445104084949
 20
-403.7006443850528
 10
397.5783199193218
 20
-403.7006443850528
 10
399.7945104072602
 20
-405.9168334769651
 10
399.7945104072602
 20
-408.650641265707
 97
        0
 97
        0
 75
     2
 76
     1
 98
        0
  0
INSERT
  5
93
330
1F
100
AcDbEntity
  8
Calque 3
100
AcDbBlockReference
  2
block 2
 10
0.0
 20
0.0
 30
0.0
  0
ENDSEC
  0
SECTION
  2
OBJECTS
  0
DICTIONARY
  5
C
330
0
100
AcDbDictionary
281
     1
  3
ACAD_GROUP
350
D
  3
ACAD_LAYOUT
350
1A
  3
ACAD_MATERIAL
350
3B
  3
ACAD_MLEADERSTYLE
350
D7
  3
ACAD_MLINESTYLE
350
17
  3
ACAD_PLOTSETTINGS
350
19
  3
ACAD_PLOTSTYLENAME
350
E
  3
ACAD_TABLESTYLE
350
D6
  3
ACAD_VISUALSTYLE
350
2A
  0
SUN
  5
3F
330
29
100
AcDbSun
 90
        1
290
     0
 63
     7
421
 16777215
 40
1.0
291
     1
 91
  2455826
 92
 54000000
292
     0
 70
     2
 71
   256
280
     1
  0
DICTIONARY
  5
D
102
{ACAD_REACTORS
330
C
102
}
330
C
100
AcDbDictionary
281
     1
  0
DICTIONARY
  5
1A
102
{ACAD_REACTORS
330
C
102
}
330
C
100
AcDbDictionary
281
     1
  3
Layout1
350
1E
  3
Layout2
350
26
  3
Model
350
22
  0
DICTIONARY
  5
3B
102
{ACAD_REACTORS
330
C
102
}
330
C
100
AcDbDictionary
281
     1
  3
ByBlock
350
3D
  3
ByLayer
350
3C
  3
Global
350
3E
  0
DICTIONARY
  5
D7
102
{ACAD_REACTORS
330
C
102
}
330
C
100
AcDbDictionary
281
     1
  0
DICTIONARY
  5
17
102
{ACAD_REACTORS
330
C
102
}
330
C
100
AcDbDictionary
281
     1
  3
Standard
350
18
  0
DICTIONARY
  5
19
102
{ACAD_REACTORS
330
C
102
}
330
C
100
AcDbDictionary
281
     1
  0
ACDBDICTIONARYWDFLT
  5
E
102
{ACAD_REACTORS
330
C
102
}
330
C
100
AcDbDictionary
281
     1
  3
Normal
350
F
100
AcDbDictionaryWithDefault
340
F
  0
DICTIONARY
  5
D6
102
{ACAD_REACTORS
330
C
102
}
330
C
100
AcDbDictionary
281
     1
  0
DICTIONARY
  5
2A
102
{ACAD_REACTORS
330
C
102
}
330
C
100
AcDbDictionary
281
     1
  3
2dWireframe
350
2F
  3
3D Hidden
350
31
  3
3dWireframe
350
30
  3
Basic
350
32
  3
Brighten
350
36
  3
ColorChange
350
3A
  3
Conceptual
350
34
  3
Dim
350
35
  3
Facepattern
350
39
  3
Flat
350
2B
  3
FlatWithEdges
350
2C
  3
Gouraud
350
2D
  3
GouraudWithEdges
350
2E
  3
Linepattern
350
38
  3
Realistic
350
33
  3
Thicken
350
37
  0
LAYOUT
  5
1E
102
{ACAD_REACTORS
330
1A
102
}
330
1A
100
AcDbPlotSettings
  1

  2
none_device
  4

  6

 40
0.0
 41
0.0
 42
0.0
 43
0.0
 44
0.0
 45
0.0
 46
0.0
 47
0.0
 48
0.0
 49
0.0
140
0.0
141
0.0
142
1.0
143
1.0
 70
   688
 72
     0
 73
     0
 74
     5
  7

 75
    16
 76
     0
 77
     2
 78
   300
147
1.0
148
0.0
149
0.0
100
AcDbLayout
  1
Layout1
 70
     1
 71
     1
 10
0.0
 20
0.0
 11
12.0
 21
9.0
 12
0.0
 22
0.0
 32
0.0
 14
1.000000000000000E+20
 24
1.000000000000000E+20
 34
1.000000000000000E+20
 15
-1.000000000000000E+20
 25
-1.000000000000000E+20
 35
-1.000000000000000E+20
146
0.0
 13
0.0
 23
0.0
 33
0.0
 16
1.0
 26
0.0
 36
0.0
 17
0.0
 27
1.0
 37
0.0
 76
     0
330
1B
  0
LAYOUT
  5
26
102
{ACAD_REACTORS
330
1A
102
}
330
1A
100
AcDbPlotSettings
  1

  2
none_device
  4

  6

 40
0.0
 41
0.0
 42
0.0
 43
0.0
 44
0.0
 45
0.0
 46
0.0
 47
0.0
 48
0.0
 49
0.0
140
0.0
141
0.0
142
1.0
143
1.0
 70
   688
 72
     0
 73
     0
 74
     5
  7

 75
    16
 76
     0
 77
     2
 78
   300
147
1.0
148
0.0
149
0.0
100
AcDbLayout
  1
Layout2
 70
     1
 71
     2
 10
0.0
 20
0.0
 11
0.0
 21
0.0
 12
0.0
 22
0.0
 32
0.0
 14
0.0
 24
0.0
 34
0.0
 15
0.0
 25
0.0
 35
0.0
146
0.0
 13
0.0
 23
0.0
 33
0.0
 16
1.0
 26
0.0
 36
0.0
 17
0.0
 27
1.0
 37
0.0
 76
     0
330
23
  0
LAYOUT
  5
22
102
{ACAD_REACTORS
330
1A
102
}
330
1A
100
AcDbPlotSettings
  1

  2
none_device
  4

  6

 40
0.0
 41
0.0
 42
0.0
 43
0.0
 44
0.0
 45
0.0
 46
0.0
 47
0.0
 48
0.0
 49
0.0
140
0.0
141
0.0
142
1.0
143
1.0
 70
  1712
 72
     0
 73
     0
 74
     0
  7

 75
     0
 76
     0
 77
     2
 78
   300
147
1.0
148
0.0
149
0.0
100
AcDbLayout
  1
Model
 70
     1
 71
     0
 10
0.0
 20
0.0
 11
12.0
 21
9.0
 12
0.0
 22
0.0
 32
0.0
 14
1.000000000000000E+20
 24
1.000000000000000E+20
 34
1.000000000000000E+20
 15
-1.000000000000000E+20
 25
-1.000000000000000E+20
 35
-1.000000000000000E+20
146
0.0
 13
0.0
 23
0.0
 33
0.0
 16
1.0
 26
0.0
 36
0.0
 17
0.0
 27
1.0
 37
0.0
 76
     0
330
1F
331
29
  0
MATERIAL
  5
3D
102
{ACAD_REACTORS
330
3B
102
}
330
3B
100
AcDbMaterial
  1
ByBlock
 72
     1
 94
      127
  0
MATERIAL
  5
3C
102
{ACAD_REACTORS
330
3B
102
}
330
3B
100
AcDbMaterial
  1
ByLayer
 72
     1
 94
      127
  0
MATERIAL
  5
3E
102
{ACAD_REACTORS
330
3B
102
}
330
3B
100
AcDbMaterial
  1
Global
 72
     1
 94
      127
  0
MLINESTYLE
  5
18
102
{ACAD_REACTORS
330
17
102
}
330
17
100
AcDbMlineStyle
  2
Standard
 70
     0
  3

 62
   256
 51
90.0
 52
90.0
 71
     2
 49
0.5
 62
   256
  6
BYLAYER
 49
-0.5
 62
   256
  6
BYLAYER
  0
ACDBPLACEHOLDER
  5
F
102
{ACAD_REACTORS
330
E
102
}
330
E
  0
VISUALSTYLE
  5
2F
102
{ACAD_REACTORS
330
2A
102
}
330
2A
100
AcDbVisualStyle
  2
2dWireframe
 70
     4
177
     2
291
     0
 71
     0
176
     1
 72
     2
176
     1
 73
     0
176
     1
 90
        0
176
     1
 40
-0.6
176
     1
 41
-30.0
176
     1
 62
     5
 63
     7
421
 16777215
176
     1
 74
     1
176
     1
 91
        4
176
     1
 64
     7
176
     1
 65
   257
176
     1
 75
     1
176
     1
175
     1
176
     1
 42
1.0
176
     1
 92
        0
176
     1
 66
   257
176
     1
 43
1.0
176
     1
 76
     1
176
     1
 77
     6
176
     1
 78
     2
176
     1
 67
     7
176
     1
 79
     5
176
     1
170
     0
176
     1
171
     0
176
     1
290
     0
176
     1
 93
        1
176
     1
 44
0.0
176
     1
173
     0
176
     1
  0
VISUALSTYLE
  5
31
102
{ACAD_REACTORS
330
2A
102
}
330
2A
100
AcDbVisualStyle
  2
3D Hidden
 70
     6
177
     2
291
     0
 71
     1
176
     1
 72
     2
176
     1
 73
     2
176
     1
 90
        0
176
     1
 40
-0.6
176
     1
 41
-30.0
176
     1
 62
     5
 63
     7
421
 16777215
176
     1
 74
     2
176
     1
 91
        2
176
     1
 64
     7
176
     1
 65
   257
176
     1
 75
     2
176
     1
175
     1
176
     1
 42
40.0
176
     1
 92
        0
176
     1
 66
   257
176
     1
 43
1.0
176
     1
 76
     1
176
     1
 77
     6
176
     1
 78
     2
176
     1
 67
     7
176
     1
 79
     3
176
     1
170
     0
176
     1
171
     0
176
     1
290
     0
176
     1
 93
        1
176
     1
 44
0.0
176
     1
173
     0
176
     1
  0
VISUALSTYLE
  5
30
102
{ACAD_REACTORS
330
2A
102
}
330
2A
100
AcDbVisualStyle
  2
3dWireframe
 70
     5
177
     2
291
     0
 71
     0
176
     1
 72
     2
176
     1
 73
     0
176
     1
 90
        0
176
     1
 40
-0.6
176
     1
 41
-30.0
176
     1
 62
     5
 63
     7
421
 16777215
176
     1
 74
     1
176
     1
 91
        4
176
     1
 64
     7
176
     1
 65
   257
176
     1
 75
     1
176
     1
175
     1
176
     1
 42
1.0
176
     1
 92
        0
176
     1
 66
   257
176
     1
 43
1.0
176
     1
 76
     1
176
     1
 77
     6
176
     1
 78
     2
176
     1
 67
     7
176
     1
 79
     5
176
     1
170
     0
176
     1
171
     0
176
     1
290
     0
176
     1
 93
        1
176
     1
 44
0.0
176
     1
173
     0
176
     1
  0
VISUALSTYLE
  5
32
102
{ACAD_REACTORS
330
2A
102
}
330
2A
100
AcDbVisualStyle
  2
Basic
 70
     7
177
     2
291
     1
 71
     1
176
     1
 72
     0
176
     1
 73
     1
176
     1
 90
        0
176
     1
 40
-0.6
176
     1
 41
-30.0
176
     1
 62
     5
 63
     7
421
 16777215
176
     1
 74
     0
176
     1
 91
        4
176
     1
 64
     7
176
     1
 65
   257
176
     1
 75
     1
176
     1
175
     1
176
     1
 42
1.0
176
     1
 92
        8
176
     1
 66
     7
176
     1
 43
1.0
176
     1
 76
     1
176
     1
 77
     6
176
     1
 78
     2
176
     1
 67
     7
176
     1
 79
     5
176
     1
170
     0
176
     1
171
     0
176
     1
290
     0
176
     1
 93
        1
176
     1
 44
0.0
176
     1
173
     0
176
     1
  0
VISUALSTYLE
  5
36
102
{ACAD_REACTORS
330
2A
102
}
330
2A
100
AcDbVisualStyle
  2
Brighten
 70
    12
177
     2
291
     1
 71
     2
176
     1
 72
     2
176
     1
 73
     0
176
     1
 90
        0
176
     1
 40
-0.6
176
     1
 41
-30.0
176
     1
 62
     5
 63
     7
421
 16777215
176
     1
 74
     1
176
     1
 91
        4
176
     1
 64
     7
176
     1
 65
   257
176
     1
 75
     1
176
     1
175
     1
176
     1
 42
1.0
176
     1
 92
        8
176
     1
 66
     7
176
     1
 43
1.0
176
     1
 76
     1
176
     1
 77
     6
176
     1
 78
     2
176
     1
 67
     7
176
     1
 79
     5
176
     1
170
     0
176
     1
171
     0
176
     1
290
     0
176
     1
 93
        1
176
     1
 44
50.0
176
     1
173
     0
176
     1
  0
VISUALSTYLE
  5
3A
102
{ACAD_REACTORS
330
2A
102
}
330
2A
100
AcDbVisualStyle
  2
ColorChange
 70
    16
177
     2
291
     1
 71
     2
176
     1
 72
     2
176
     1
 73
     3
176
     1
 90
        0
176
     1
 40
-0.6
176
     1
 41
-30.0
176
     1
 62
     5
 63
     8
421
  8421504
176
     1
 74
     1
176
     1
 91
        4
176
     1
 64
     7
176
     1
 65
   257
176
     1
 75
     1
176
     1
175
     1
176
     1
 42
1.0
176
     1
 92
        8
176
     1
 66
     8
424
  8421504
176
     1
 43
1.0
176
     1
 76
     1
176
     1
 77
     6
176
     1
 78
     2
176
     1
 67
     7
176
     1
 79
     5
176
     1
170
     0
176
     1
171
     0
176
     1
290
     0
176
     1
 93
        1
176
     1
 44
0.0
176
     1
173
     0
176
     1
  0
VISUALSTYLE
  5
34
102
{ACAD_REACTORS
330
2A
102
}
330
2A
100
AcDbVisualStyle
  2
Conceptual
 70
     9
177
     2
291
     0
 71
     3
176
     1
 72
     2
176
     1
 73
     0
176
     1
 90
        0
176
     1
 40
-0.6
176
     1
 41
-30.0
176
     1
 62
     5
 63
     7
421
 16777215
176
     1
 74
     2
176
     1
 91
        2
176
     1
 64
     7
176
     1
 65
   257
176
     1
 75
     1
176
     1
175
     1
176
     1
 42
40.0
176
     1
 92
        8
176
     1
 66
     7
176
     1
 43
1.0
176
     1
 76
     1
176
     1
 77
     6
176
     1
 78
     2
176
     1
 67
     7
176
     1
 79
     3
176
     1
170
     0
176
     1
171
     0
176
     1
290
     0
176
     1
 93
        1
176
     1
 44
0.0
176
     1
173
     0
176
     1
  0
VISUALSTYLE
  5
35
102
{ACAD_REACTORS
330
2A
102
}
330
2A
100
AcDbVisualStyle
  2
Dim
 70
    11
177
     2
291
     1
 71
     2
176
     1
 72
     2
176
     1
 73
     0
176
     1
 90
        0
176
     1
 40
-0.6
176
     1
 41
-30.0
176
     1
 62
     5
 63
     7
421
 16777215
176
     1
 74
     1
176
     1
 91
        4
176
     1
 64
     7
176
     1
 65
   257
176
     1
 75
     1
176
     1
175
     1
176
     1
 42
1.0
176
     1
 92
        8
176
     1
 66
     7
176
     1
 43
1.0
176
     1
 76
     1
176
     1
 77
     6
176
     1
 78
     2
176
     1
 67
     7
176
     1
 79
     5
176
     1
170
     0
176
     1
171
     0
176
     1
290
     0
176
     1
 93
        1
176
     1
 44
-50.0
176
     1
173
     0
176
     1
  0
VISUALSTYLE
  5
39
102
{ACAD_REACTORS
330
2A
102
}
330
2A
100
AcDbVisualStyle
  2
Facepattern
 70
    15
177
     2
291
     1
 71
     2
176
     1
 72
     2
176
     1
 73
     0
176
     1
 90
        0
176
     1
 40
-0.6
176
     1
 41
-30.0
176
     1
 62
     5
 63
     7
421
 16777215
176
     1
 74
     1
176
     1
 91
        4
176
     1
 64
     7
176
     1
 65
   257
176
     1
 75
     1
176
     1
175
     1
176
     1
 42
1.0
176
     1
 92
        8
176
     1
 66
     7
176
     1
 43
1.0
176
     1
 76
     1
176
     1
 77
     6
176
     1
 78
     2
176
     1
 67
     7
176
     1
 79
     5
176
     1
170
     0
176
     1
171
     0
176
     1
290
     0
176
     1
 93
        1
176
     1
 44
0.0
176
     1
173
     0
176
     1
  0
VISUALSTYLE
  5
2B
102
{ACAD_REACTORS
330
2A
102
}
330
2A
100
AcDbVisualStyle
  2
Flat
 70
     0
177
     2
291
     1
 71
     2
176
     1
 72
     1
176
     1
 73
     1
176
     1
 90
        2
176
     1
 40
-0.6
176
     1
 41
30.0
176
     1
 62
     5
 63
     7
421
 16777215
176
     1
 74
     0
176
     1
 91
        4
176
     1
 64
     7
176
     1
 65
   257
176
     1
 75
     1
176
     1
175
     1
176
     1
 42
1.0
176
     1
 92
        8
176
     1
 66
     7
176
     1
 43
1.0
176
     1
 76
     1
176
     1
 77
     6
176
     1
 78
     2
176
     1
 67
     7
176
     1
 79
     5
176
     1
170
     0
176
     1
171
     0
176
     1
290
     0
176
     1
 93
       13
176
     1
 44
0.0
176
     1
173
     0
176
     1
  0
VISUALSTYLE
  5
2C
102
{ACAD_REACTORS
330
2A
102
}
330
2A
100
AcDbVisualStyle
  2
FlatWithEdges
 70
     1
177
     2
291
     1
 71
     2
176
     1
 72
     1
176
     1
 73
     1
176
     1
 90
        2
176
     1
 40
-0.6
176
     1
 41
30.0
176
     1
 62
     5
 63
     7
421
 16777215
176
     1
 74
     1
176
     1
 91
        4
176
     1
 64
     7
176
     1
 65
   257
176
     1
 75
     1
176
     1
175
     1
176
     1
 42
1.0
176
     1
 92
        0
176
     1
 66
   257
176
     1
 43
1.0
176
     1
 76
     1
176
     1
 77
     6
176
     1
 78
     2
176
     1
 67
     7
176
     1
 79
     5
176
     1
170
     0
176
     1
171
     0
176
     1
290
     0
176
     1
 93
       13
176
     1
 44
0.0
176
     1
173
     0
176
     1
  0
VISUALSTYLE
  5
2D
102
{ACAD_REACTORS
330
2A
102
}
330
2A
100
AcDbVisualStyle
  2
Gouraud
 70
     2
177
     2
291
     1
 71
     2
176
     1
 72
     2
176
     1
 73
     1
176
     1
 90
        2
176
     1
 40
-0.6
176
     1
 41
30.0
176
     1
 62
     5
 63
     7
421
 16777215
176
     1
 74
     0
176
     1
 91
        4
176
     1
 64
     7
176
     1
 65
   257
176
     1
 75
     1
176
     1
175
     1
176
     1
 42
1.0
176
     1
 92
        0
176
     1
 66
     7
176
     1
 43
1.0
176
     1
 76
     1
176
     1
 77
     6
176
     1
 78
     2
176
     1
 67
     7
176
     1
 79
     5
176
     1
170
     0
176
     1
171
     0
176
     1
290
     0
176
     1
 93
       13
176
     1
 44
0.0
176
     1
173
     0
176
     1
  0
VISUALSTYLE
  5
2E
102
{ACAD_REACTORS
330
2A
102
}
330
2A
100
AcDbVisualStyle
  2
GouraudWithEdges
 70
     3
177
     2
291
     1
 71
     2
176
     1
 72
     2
176
     1
 73
     1
176
     1
 90
        2
176
     1
 40
-0.6
176
     1
 41
30.0
176
     1
 62
     5
 63
     7
421
 16777215
176
     1
 74
     1
176
     1
 91
        4
176
     1
 64
     7
176
     1
 65
   257
176
     1
 75
     1
176
     1
175
     1
176
     1
 42
1.0
176
     1
 92
        0
176
     1
 66
   257
176
     1
 43
1.0
176
     1
 76
     1
176
     1
 77
     6
176
     1
 78
     2
176
     1
 67
     7
176
     1
 79
     5
176
     1
170
     0
176
     1
171
     0
176
     1
290
     0
176
     1
 93
       13
176
     1
 44
0.0
176
     1
173
     0
176
     1
  0
VISUALSTYLE
  5
38
102
{ACAD_REACTORS
330
2A
102
}
330
2A
100
AcDbVisualStyle
  2
Linepattern
 70
    14
177
     2
291
     1
 71
     2
176
     1
 72
     2
176
     1
 73
     0
176
     1
 90
        0
176
     1
 40
-0.6
176
     1
 41
-30.0
176
     1
 62
     5
 63
     7
421
 16777215
176
     1
 74
     1
176
     1
 91
        4
176
     1
 64
     7
176
     1
 65
   257
176
     1
 75
     7
176
     1
175
     7
176
     1
 42
1.0
176
     1
 92
        8
176
     1
 66
     7
176
     1
 43
1.0
176
     1
 76
     1
176
     1
 77
     6
176
     1
 78
     2
176
     1
 67
     7
176
     1
 79
     5
176
     1
170
     0
176
     1
171
     0
176
     1
290
     0
176
     1
 93
        1
176
     1
 44
0.0
176
     1
173
     0
176
     1
  0
VISUALSTYLE
  5
33
102
{ACAD_REACTORS
330
2A
102
}
330
2A
100
AcDbVisualStyle
  2
Realistic
 70
     8
177
     2
291
     0
 71
     2
176
     1
 72
     2
176
     1
 73
     0
176
     1
 90
        0
176
     1
 40
-0.6
176
     1
 41
-30.0
176
     1
 62
     5
 63
     7
421
 16777215
176
     1
 74
     1
176
     1
 91
        0
176
     1
 64
     7
176
     1
 65
   257
176
     1
 75
     1
176
     1
175
     1
176
     1
 42
1.0
176
     1
 92
        8
176
     1
 66
     8
424
  7895160
176
     1
 43
1.0
176
     1
 76
     1
176
     1
 77
     6
176
     1
 78
     2
176
     1
 67
     7
176
     1
 79
     5
176
     1
170
     0
176
     1
171
     0
176
     1
290
     0
176
     1
 93
       13
176
     1
 44
0.0
176
     1
173
     0
176
     1
  0
VISUALSTYLE
  5
37
102
{ACAD_REACTORS
330
2A
102
}
330
2A
100
AcDbVisualStyle
  2
Thicken
 70
    13
177
     2
291
     1
 71
     2
176
     1
 72
     2
176
     1
 73
     0
176
     1
 90
        0
176
     1
 40
-0.6
176
     1
 41
-30.0
176
     1
 62
     5
 63
     7
421
 16777215
176
     1
 74
     1
176
     1
 91
        4
176
     1
 64
     7
176
     1
 65
   257
176
     1
 75
     1
176
     1
175
     1
176
     1
 42
1.0
176
     1
 92
       12
176
     1
 66
     7
176
     1
 43
1.0
176
     1
 76
     1
176
     1
 77
     6
176
     1
 78
     2
176
     1
 67
     7
176
     1
 79
     5
176
     1
170
     0
176
     1
171
     0
176
     1
290
     0
176
     1
 93
        1
176
     1
 44
0.0
176
     1
173
     0
176
     1
  0
ENDSEC
  0
EOF
