  0
SECTION
  2
HEADER
  9
$ACADVER
  1
AC1006
  9
$EXTMIN
 10
-4.645201
 20
-17.706236
  9
$EXTMAX
 10
15.042843
 20
-1.561488
  9
$LTSCALE
 40
0.000394
  9
$PDMODE
 70
    35
  9
$PDSIZE
 40
0.000315
  0
ENDSEC
  0
SECTION
  2
TABLES
  0
TABLE
  2
LTYPE
 70
     9
  0
LTYPE
  2
CONTINUOUS
 70
    64
  3
Solid line
 72
    65
 73
     0
 40
0.000000
  0
LTYPE
  2
DASHED
 70
    64
  3
__ __ __ __ __ __ __ __ __ __ __ __ __ __ __
 72
    65
 73
     2
 40
0.000003
 49
0.000002
 49
-0.000001
  0
LTYPE
  2
HIDDEN
 70
    64
  3
 _ _ _ _ _ _ _ _ _ _ _ _ _ _ _ _ _ _ _ _ _ _
 72
    65
 73
     2
 40
0.000001
 49
0.000001
 49
-0.000000
  0
LTYPE
  2
CENTER
 70
    64
  3
____ _ ____ _ ____ _ ____ _ ____ _ ____ _ ____
 72
    65
 73
     4
 40
0.000008
 49
0.000005
 49
-0.000001
 49
0.000001
 49
-0.000001
  0
LTYPE
  2
PHANTOM
 70
    64
  3
_____ _ _ _____ _ _ _____ _ _ _____ _ _ ____
 72
    65
 73
     6
 40
0.000010
 49
0.000005
 49
-0.000001
 49
0.000001
 49
-0.000001
 49
0.000001
 49
-0.000001
  0
LTYPE
  2
DOT
 70
    64
  3
...............................................
 72
    65
 73
     2
 40
0.000001
 49
0.000000
 49
-0.000001
  0
LTYPE
  2
DASHDOT
 70
    64
  3
__ . __ . __ . __ . __ . __ . __ . __ . __ . __
 72
    65
 73
     4
 40
0.000004
 49
0.000002
 49
-0.000001
 49
0.000000
 49
-0.000001
  0
LTYPE
  2
BORDER
 70
    64
  3
__ __ . __ __ . __ __ . __ __ . __ __ . __ __
 72
    65
 73
     6
 40
0.000007
 49
0.000002
 49
-0.000001
 49
0.000002
 49
-0.000001
 49
0.000000
 49
-0.000001
  0
LTYPE
  2
DIVIDE
 70
    64
  3
__ . . __ . . __ . . __ . . __ . . __ . . __
 72
    65
 73
     6
 40
0.000005
 49
0.000002
 49
-0.000001
 49
0.000000
 49
-0.000001
 49
0.000000
 49
-0.000001
  0
LTYPE
  2
DOTDOT
 70
    64
  3
 . .  . .  . .  . .  . .  . . 
 72
    65
 73
     5
 40
0.000002
 49
-0.000001
 49
0.000000
 49
-0.000001
 49
0.000000
 49
-0.000001
  0
ENDTAB
  0
TABLE
  2
STYLE
 70
     2
  0
STYLE
 70
     0
  2
SN0
 40
0.000000
 41
0.000004
 50
0.000000
 71
     0
 42
0.000000
  3
ROMAND
  0
STYLE
 70
    68
  2
SV0
 40
0.000000
 41
0.000004
 50
0.000000
 71
     0
 42
0.000000
  3
ROMAND
  0
ENDTAB
  0
TABLE
  2
LAYER
 70
     3
  0
LAYER
  2
FOREGROUND
 70
    64
 62
     7
  6
CONTINUOUS
  0
LAYER
  2
BACKGROUND
 70
    65
 62
    -7
  6
CONTINUOUS
  0
LAYER
  2
CAPA_1
 70
    64
 62
     7
  6
CONTINUOUS
  0
ENDTAB
  0
ENDSEC
  0
SECTION
  2
ENTITIES
  0
POLYLINE
  8
CAPA_1
 62
    39
  6
CONTINUOUS
 66
     1
 40
0.003000
 41
0.003000
 70
     1
  0
VERTEX
  8
CAPA_1
 62
    39
  6
CONTINUOUS
 10
-4.643701
 20
-17.704736
  0
VERTEX
  8
CAPA_1
 62
    39
  6
CONTINUOUS
 10
15.041339
 20
-17.704736
  0
VERTEX
  8
CAPA_1
 62
    39
  6
CONTINUOUS
 10
15.041339
 20
-1.562988
  0
VERTEX
  8
CAPA_1
 62
    39
  6
CONTINUOUS
 10
-4.643701
 20
-1.562988
  0
SEQEND
  8
0
  0
POLYLINE
  8
CAPA_1
 62
    39
  6
CONTINUOUS
 66
     1
 40
0.003000
 41
0.003000
 70
     1
  0
VERTEX
  8
CAPA_1
 62
    39
  6
CONTINUOUS
 10
-2.281496
 20
-1.956693
  0
VERTEX
  8
CAPA_1
 62
    39
  6
CONTINUOUS
 10
-2.152659
 20
-1.961930
  0
VERTEX
  8
CAPA_1
 62
    39
  6
CONTINUOUS
 10
-2.026631
 20
-1.977368
  0
VERTEX
  8
CAPA_1
 62
    39
  6
CONTINUOUS
 10
-1.903823
 20
-2.002597
  0
VERTEX
  8
CAPA_1
 62
    39
  6
CONTINUOUS
 10
-1.784646
 20
-2.037205
  0
VERTEX
  8
CAPA_1
 62
    39
  6
CONTINUOUS
 10
-1.669511
 20
-2.080782
  0
VERTEX
  8
CAPA_1
 62
    39
  6
CONTINUOUS
 10
-1.558828
 20
-2.132917
  0
VERTEX
  8
CAPA_1
 62
    39
  6
CONTINUOUS
 10
-1.453008
 20
-2.193201
  0
VERTEX
  8
CAPA_1
 62
    39
  6
CONTINUOUS
 10
-1.352461
 20
-2.261221
  0
VERTEX
  8
CAPA_1
 62
    39
  6
CONTINUOUS
 10
-1.257599
 20
-2.336568
  0
VERTEX
  8
CAPA_1
 62
    39
  6
CONTINUOUS
 10
-1.168831
 20
-2.418831
  0
VERTEX
  8
CAPA_1
 62
    39
  6
CONTINUOUS
 10
-1.086568
 20
-2.507599
  0
VERTEX
  8
CAPA_1
 62
    39
  6
CONTINUOUS
 10
-1.011221
 20
-2.602461
  0
VERTEX
  8
CAPA_1
 62
    39
  6
CONTINUOUS
 10
-0.943201
 20
-2.703008
  0
VERTEX
  8
CAPA_1
 62
    39
  6
CONTINUOUS
 10
-0.882917
 20
-2.808828
  0
VERTEX
  8
CAPA_1
 62
    39
  6
CONTINUOUS
 10
-0.830782
 20
-2.919511
  0
VERTEX
  8
CAPA_1
 62
    39
  6
CONTINUOUS
 10
-0.787205
 20
-3.034646
  0
VERTEX
  8
CAPA_1
 62
    39
  6
CONTINUOUS
 10
-0.752597
 20
-3.153823
  0
VERTEX
  8
CAPA_1
 62
    39
  6
CONTINUOUS
 10
-0.727368
 20
-3.276631
  0
VERTEX
  8
CAPA_1
 62
    39
  6
CONTINUOUS
 10
-0.711930
 20
-3.402659
  0
VERTEX
  8
CAPA_1
 62
    39
  6
CONTINUOUS
 10
-0.706693
 20
-3.531496
  0
VERTEX
  8
CAPA_1
 62
    39
  6
CONTINUOUS
 10
-0.711930
 20
-3.660334
  0
VERTEX
  8
CAPA_1
 62
    39
  6
CONTINUOUS
 10
-0.727368
 20
-3.786361
  0
VERTEX
  8
CAPA_1
 62
    39
  6
CONTINUOUS
 10
-0.752597
 20
-3.909169
  0
VERTEX
  8
CAPA_1
 62
    39
  6
CONTINUOUS
 10
-0.787205
 20
-4.028346
  0
VERTEX
  8
CAPA_1
 62
    39
  6
CONTINUOUS
 10
-0.830782
 20
-4.143481
  0
VERTEX
  8
CAPA_1
 62
    39
  6
CONTINUOUS
 10
-0.882917
 20
-4.254164
  0
VERTEX
  8
CAPA_1
 62
    39
  6
CONTINUOUS
 10
-0.943201
 20
-4.359984
  0
VERTEX
  8
CAPA_1
 62
    39
  6
CONTINUOUS
 10
-1.011221
 20
-4.460531
  0
VERTEX
  8
CAPA_1
 62
    39
  6
CONTINUOUS
 10
-1.086568
 20
-4.555393
  0
VERTEX
  8
CAPA_1
 62
    39
  6
CONTINUOUS
 10
-1.168831
 20
-4.644161
  0
VERTEX
  8
CAPA_1
 62
    39
  6
CONTINUOUS
 10
-1.257599
 20
-4.726424
  0
VERTEX
  8
CAPA_1
 62
    39
  6
CONTINUOUS
 10
-1.352461
 20
-4.801771
  0
VERTEX
  8
CAPA_1
 62
    39
  6
CONTINUOUS
 10
-1.453008
 20
-4.869791
  0
VERTEX
  8
CAPA_1
 62
    39
  6
CONTINUOUS
 10
-1.558828
 20
-4.930075
  0
VERTEX
  8
CAPA_1
 62
    39
  6
CONTINUOUS
 10
-1.669511
 20
-4.982210
  0
VERTEX
  8
CAPA_1
 62
    39
  6
CONTINUOUS
 10
-1.784646
 20
-5.025787
  0
VERTEX
  8
CAPA_1
 62
    39
  6
CONTINUOUS
 10
-1.903823
 20
-5.060395
  0
VERTEX
  8
CAPA_1
 62
    39
  6
CONTINUOUS
 10
-2.026631
 20
-5.085624
  0
VERTEX
  8
CAPA_1
 62
    39
  6
CONTINUOUS
 10
-2.152659
 20
-5.101062
  0
VERTEX
  8
CAPA_1
 62
    39
  6
CONTINUOUS
 10
-2.281496
 20
-5.106299
  0
VERTEX
  8
CAPA_1
 62
    39
  6
CONTINUOUS
 10
-2.281496
 20
-5.106299
  0
VERTEX
  8
CAPA_1
 62
    39
  6
CONTINUOUS
 10
-2.410334
 20
-5.101062
  0
VERTEX
  8
CAPA_1
 62
    39
  6
CONTINUOUS
 10
-2.536361
 20
-5.085624
  0
VERTEX
  8
CAPA_1
 62
    39
  6
CONTINUOUS
 10
-2.659169
 20
-5.060395
  0
VERTEX
  8
CAPA_1
 62
    39
  6
CONTINUOUS
 10
-2.778346
 20
-5.025787
  0
VERTEX
  8
CAPA_1
 62
    39
  6
CONTINUOUS
 10
-2.893481
 20
-4.982210
  0
VERTEX
  8
CAPA_1
 62
    39
  6
CONTINUOUS
 10
-3.004164
 20
-4.930075
  0
VERTEX
  8
CAPA_1
 62
    39
  6
CONTINUOUS
 10
-3.109984
 20
-4.869791
  0
VERTEX
  8
CAPA_1
 62
    39
  6
CONTINUOUS
 10
-3.210531
 20
-4.801771
  0
VERTEX
  8
CAPA_1
 62
    39
  6
CONTINUOUS
 10
-3.305393
 20
-4.726424
  0
VERTEX
  8
CAPA_1
 62
    39
  6
CONTINUOUS
 10
-3.394161
 20
-4.644161
  0
VERTEX
  8
CAPA_1
 62
    39
  6
CONTINUOUS
 10
-3.476424
 20
-4.555393
  0
VERTEX
  8
CAPA_1
 62
    39
  6
CONTINUOUS
 10
-3.551771
 20
-4.460531
  0
VERTEX
  8
CAPA_1
 62
    39
  6
CONTINUOUS
 10
-3.619791
 20
-4.359984
  0
VERTEX
  8
CAPA_1
 62
    39
  6
CONTINUOUS
 10
-3.680075
 20
-4.254164
  0
VERTEX
  8
CAPA_1
 62
    39
  6
CONTINUOUS
 10
-3.732210
 20
-4.143481
  0
VERTEX
  8
CAPA_1
 62
    39
  6
CONTINUOUS
 10
-3.775787
 20
-4.028346
  0
VERTEX
  8
CAPA_1
 62
    39
  6
CONTINUOUS
 10
-3.810395
 20
-3.909169
  0
VERTEX
  8
CAPA_1
 62
    39
  6
CONTINUOUS
 10
-3.835624
 20
-3.786361
  0
VERTEX
  8
CAPA_1
 62
    39
  6
CONTINUOUS
 10
-3.851062
 20
-3.660334
  0
VERTEX
  8
CAPA_1
 62
    39
  6
CONTINUOUS
 10
-3.856299
 20
-3.531496
  0
VERTEX
  8
CAPA_1
 62
    39
  6
CONTINUOUS
 10
-3.851062
 20
-3.402659
  0
VERTEX
  8
CAPA_1
 62
    39
  6
CONTINUOUS
 10
-3.835624
 20
-3.276631
  0
VERTEX
  8
CAPA_1
 62
    39
  6
CONTINUOUS
 10
-3.810395
 20
-3.153823
  0
VERTEX
  8
CAPA_1
 62
    39
  6
CONTINUOUS
 10
-3.775787
 20
-3.034646
  0
VERTEX
  8
CAPA_1
 62
    39
  6
CONTINUOUS
 10
-3.732210
 20
-2.919511
  0
VERTEX
  8
CAPA_1
 62
    39
  6
CONTINUOUS
 10
-3.680075
 20
-2.808828
  0
VERTEX
  8
CAPA_1
 62
    39
  6
CONTINUOUS
 10
-3.619791
 20
-2.703008
  0
VERTEX
  8
CAPA_1
 62
    39
  6
CONTINUOUS
 10
-3.551771
 20
-2.602461
  0
VERTEX
  8
CAPA_1
 62
    39
  6
CONTINUOUS
 10
-3.476424
 20
-2.507599
  0
VERTEX
  8
CAPA_1
 62
    39
  6
CONTINUOUS
 10
-3.394161
 20
-2.418831
  0
VERTEX
  8
CAPA_1
 62
    39
  6
CONTINUOUS
 10
-3.305393
 20
-2.336568
  0
VERTEX
  8
CAPA_1
 62
    39
  6
CONTINUOUS
 10
-3.210531
 20
-2.261221
  0
VERTEX
  8
CAPA_1
 62
    39
  6
CONTINUOUS
 10
-3.109984
 20
-2.193201
  0
VERTEX
  8
CAPA_1
 62
    39
  6
CONTINUOUS
 10
-3.004164
 20
-2.132917
  0
VERTEX
  8
CAPA_1
 62
    39
  6
CONTINUOUS
 10
-2.893481
 20
-2.080782
  0
VERTEX
  8
CAPA_1
 62
    39
  6
CONTINUOUS
 10
-2.778346
 20
-2.037205
  0
VERTEX
  8
CAPA_1
 62
    39
  6
CONTINUOUS
 10
-2.659169
 20
-2.002597
  0
VERTEX
  8
CAPA_1
 62
    39
  6
CONTINUOUS
 10
-2.536361
 20
-1.977368
  0
VERTEX
  8
CAPA_1
 62
    39
  6
CONTINUOUS
 10
-2.410334
 20
-1.961930
  0
VERTEX
  8
CAPA_1
 62
    39
  6
CONTINUOUS
 10
-2.281496
 20
-1.956693
  0
SEQEND
  8
0
  0
POLYLINE
  8
CAPA_1
 62
    39
  6
CONTINUOUS
 66
     1
 40
0.003000
 41
0.003000
 70
     1
  0
VERTEX
  8
CAPA_1
 62
    39
  6
CONTINUOUS
 10
-2.281496
 20
-2.166791
  0
VERTEX
  8
CAPA_1
 62
    39
  6
CONTINUOUS
 10
-1.973146
 20
-3.115783
  0
VERTEX
  8
CAPA_1
 62
    39
  6
CONTINUOUS
 10
-1.971697
 20
-3.116504
  0
VERTEX
  8
CAPA_1
 62
    39
  6
CONTINUOUS
 10
-1.970304
 20
-3.117318
  0
VERTEX
  8
CAPA_1
 62
    39
  6
CONTINUOUS
 10
-1.968976
 20
-3.118224
  0
VERTEX
  8
CAPA_1
 62
    39
  6
CONTINUOUS
 10
-0.971957
 20
-3.118224
  0
VERTEX
  8
CAPA_1
 62
    39
  6
CONTINUOUS
 10
-1.781193
 20
-3.706571
  0
VERTEX
  8
CAPA_1
 62
    39
  6
CONTINUOUS
 10
-1.472157
 20
-4.657681
  0
VERTEX
  8
CAPA_1
 62
    39
  6
CONTINUOUS
 10
-2.281803
 20
-4.069878
  0
VERTEX
  8
CAPA_1
 62
    39
  6
CONTINUOUS
 10
-3.090835
 20
-4.657681
  0
VERTEX
  8
CAPA_1
 62
    39
  6
CONTINUOUS
 10
-2.781996
 20
-3.706024
  0
VERTEX
  8
CAPA_1
 62
    39
  6
CONTINUOUS
 10
-3.591035
 20
-3.118224
  0
VERTEX
  8
CAPA_1
 62
    39
  6
CONTINUOUS
 10
-2.593280
 20
-3.118224
  0
VERTEX
  8
CAPA_1
 62
    39
  6
CONTINUOUS
 10
-2.592239
 20
-3.117624
  0
VERTEX
  8
CAPA_1
 62
    39
  6
CONTINUOUS
 10
-2.591179
 20
-3.117082
  0
VERTEX
  8
CAPA_1
 62
    39
  6
CONTINUOUS
 10
-2.590110
 20
-3.116602
  0
SEQEND
  8
0
  0
POLYLINE
  8
CAPA_1
 62
    39
  6
CONTINUOUS
 66
     1
 40
0.003000
 41
0.003000
 70
     1
  0
VERTEX
  8
CAPA_1
 62
    39
  6
CONTINUOUS
 10
1.458661
 20
-1.956693
  0
VERTEX
  8
CAPA_1
 62
    39
  6
CONTINUOUS
 10
1.587499
 20
-1.961930
  0
VERTEX
  8
CAPA_1
 62
    39
  6
CONTINUOUS
 10
1.713527
 20
-1.977368
  0
VERTEX
  8
CAPA_1
 62
    39
  6
CONTINUOUS
 10
1.836334
 20
-2.002597
  0
VERTEX
  8
CAPA_1
 62
    39
  6
CONTINUOUS
 10
1.955511
 20
-2.037205
  0
VERTEX
  8
CAPA_1
 62
    39
  6
CONTINUOUS
 10
2.070646
 20
-2.080782
  0
VERTEX
  8
CAPA_1
 62
    39
  6
CONTINUOUS
 10
2.181329
 20
-2.132917
  0
VERTEX
  8
CAPA_1
 62
    39
  6
CONTINUOUS
 10
2.287149
 20
-2.193201
  0
VERTEX
  8
CAPA_1
 62
    39
  6
CONTINUOUS
 10
2.387696
 20
-2.261221
  0
VERTEX
  8
CAPA_1
 62
    39
  6
CONTINUOUS
 10
2.482559
 20
-2.336568
  0
VERTEX
  8
CAPA_1
 62
    39
  6
CONTINUOUS
 10
2.571327
 20
-2.418831
  0
VERTEX
  8
CAPA_1
 62
    39
  6
CONTINUOUS
 10
2.653590
 20
-2.507599
  0
VERTEX
  8
CAPA_1
 62
    39
  6
CONTINUOUS
 10
2.728936
 20
-2.602461
  0
VERTEX
  8
CAPA_1
 62
    39
  6
CONTINUOUS
 10
2.796957
 20
-2.703008
  0
VERTEX
  8
CAPA_1
 62
    39
  6
CONTINUOUS
 10
2.857240
 20
-2.808828
  0
VERTEX
  8
CAPA_1
 62
    39
  6
CONTINUOUS
 10
2.909375
 20
-2.919511
  0
VERTEX
  8
CAPA_1
 62
    39
  6
CONTINUOUS
 10
2.952953
 20
-3.034646
  0
VERTEX
  8
CAPA_1
 62
    39
  6
CONTINUOUS
 10
2.987561
 20
-3.153823
  0
VERTEX
  8
CAPA_1
 62
    39
  6
CONTINUOUS
 10
3.012789
 20
-3.276631
  0
VERTEX
  8
CAPA_1
 62
    39
  6
CONTINUOUS
 10
3.028227
 20
-3.402659
  0
VERTEX
  8
CAPA_1
 62
    39
  6
CONTINUOUS
 10
3.033465
 20
-3.531496
  0
VERTEX
  8
CAPA_1
 62
    39
  6
CONTINUOUS
 10
3.028227
 20
-3.660334
  0
VERTEX
  8
CAPA_1
 62
    39
  6
CONTINUOUS
 10
3.012789
 20
-3.786361
  0
VERTEX
  8
CAPA_1
 62
    39
  6
CONTINUOUS
 10
2.987561
 20
-3.909169
  0
VERTEX
  8
CAPA_1
 62
    39
  6
CONTINUOUS
 10
2.952953
 20
-4.028346
  0
VERTEX
  8
CAPA_1
 62
    39
  6
CONTINUOUS
 10
2.909375
 20
-4.143481
  0
VERTEX
  8
CAPA_1
 62
    39
  6
CONTINUOUS
 10
2.857240
 20
-4.254164
  0
VERTEX
  8
CAPA_1
 62
    39
  6
CONTINUOUS
 10
2.796957
 20
-4.359984
  0
VERTEX
  8
CAPA_1
 62
    39
  6
CONTINUOUS
 10
2.728936
 20
-4.460531
  0
VERTEX
  8
CAPA_1
 62
    39
  6
CONTINUOUS
 10
2.653590
 20
-4.555393
  0
VERTEX
  8
CAPA_1
 62
    39
  6
CONTINUOUS
 10
2.571327
 20
-4.644161
  0
VERTEX
  8
CAPA_1
 62
    39
  6
CONTINUOUS
 10
2.482559
 20
-4.726424
  0
VERTEX
  8
CAPA_1
 62
    39
  6
CONTINUOUS
 10
2.387696
 20
-4.801771
  0
VERTEX
  8
CAPA_1
 62
    39
  6
CONTINUOUS
 10
2.287149
 20
-4.869791
  0
VERTEX
  8
CAPA_1
 62
    39
  6
CONTINUOUS
 10
2.181329
 20
-4.930075
  0
VERTEX
  8
CAPA_1
 62
    39
  6
CONTINUOUS
 10
2.070646
 20
-4.982210
  0
VERTEX
  8
CAPA_1
 62
    39
  6
CONTINUOUS
 10
1.955511
 20
-5.025787
  0
VERTEX
  8
CAPA_1
 62
    39
  6
CONTINUOUS
 10
1.836334
 20
-5.060395
  0
VERTEX
  8
CAPA_1
 62
    39
  6
CONTINUOUS
 10
1.713527
 20
-5.085624
  0
VERTEX
  8
CAPA_1
 62
    39
  6
CONTINUOUS
 10
1.587499
 20
-5.101062
  0
VERTEX
  8
CAPA_1
 62
    39
  6
CONTINUOUS
 10
1.458661
 20
-5.106299
  0
VERTEX
  8
CAPA_1
 62
    39
  6
CONTINUOUS
 10
1.458661
 20
-5.106299
  0
VERTEX
  8
CAPA_1
 62
    39
  6
CONTINUOUS
 10
1.329824
 20
-5.101062
  0
VERTEX
  8
CAPA_1
 62
    39
  6
CONTINUOUS
 10
1.203796
 20
-5.085624
  0
VERTEX
  8
CAPA_1
 62
    39
  6
CONTINUOUS
 10
1.080988
 20
-5.060395
  0
VERTEX
  8
CAPA_1
 62
    39
  6
CONTINUOUS
 10
0.961812
 20
-5.025787
  0
VERTEX
  8
CAPA_1
 62
    39
  6
CONTINUOUS
 10
0.846677
 20
-4.982210
  0
VERTEX
  8
CAPA_1
 62
    39
  6
CONTINUOUS
 10
0.735994
 20
-4.930075
  0
VERTEX
  8
CAPA_1
 62
    39
  6
CONTINUOUS
 10
0.630174
 20
-4.869791
  0
VERTEX
  8
CAPA_1
 62
    39
  6
CONTINUOUS
 10
0.529627
 20
-4.801771
  0
VERTEX
  8
CAPA_1
 62
    39
  6
CONTINUOUS
 10
0.434764
 20
-4.726424
  0
VERTEX
  8
CAPA_1
 62
    39
  6
CONTINUOUS
 10
0.345996
 20
-4.644161
  0
VERTEX
  8
CAPA_1
 62
    39
  6
CONTINUOUS
 10
0.263733
 20
-4.555393
  0
VERTEX
  8
CAPA_1
 62
    39
  6
CONTINUOUS
 10
0.188386
 20
-4.460531
  0
VERTEX
  8
CAPA_1
 62
    39
  6
CONTINUOUS
 10
0.120366
 20
-4.359984
  0
VERTEX
  8
CAPA_1
 62
    39
  6
CONTINUOUS
 10
0.060083
 20
-4.254164
  0
VERTEX
  8
CAPA_1
 62
    39
  6
CONTINUOUS
 10
0.007947
 20
-4.143481
  0
VERTEX
  8
CAPA_1
 62
    39
  6
CONTINUOUS
 10
-0.035630
 20
-4.028346
  0
VERTEX
  8
CAPA_1
 62
    39
  6
CONTINUOUS
 10
-0.070238
 20
-3.909169
  0
VERTEX
  8
CAPA_1
 62
    39
  6
CONTINUOUS
 10
-0.095466
 20
-3.786361
  0
VERTEX
  8
CAPA_1
 62
    39
  6
CONTINUOUS
 10
-0.110904
 20
-3.660334
  0
VERTEX
  8
CAPA_1
 62
    39
  6
CONTINUOUS
 10
-0.116142
 20
-3.531496
  0
VERTEX
  8
CAPA_1
 62
    39
  6
CONTINUOUS
 10
-0.110904
 20
-3.402659
  0
VERTEX
  8
CAPA_1
 62
    39
  6
CONTINUOUS
 10
-0.095466
 20
-3.276631
  0
VERTEX
  8
CAPA_1
 62
    39
  6
CONTINUOUS
 10
-0.070238
 20
-3.153823
  0
VERTEX
  8
CAPA_1
 62
    39
  6
CONTINUOUS
 10
-0.035630
 20
-3.034646
  0
VERTEX
  8
CAPA_1
 62
    39
  6
CONTINUOUS
 10
0.007947
 20
-2.919511
  0
VERTEX
  8
CAPA_1
 62
    39
  6
CONTINUOUS
 10
0.060083
 20
-2.808828
  0
VERTEX
  8
CAPA_1
 62
    39
  6
CONTINUOUS
 10
0.120366
 20
-2.703008
  0
VERTEX
  8
CAPA_1
 62
    39
  6
CONTINUOUS
 10
0.188386
 20
-2.602461
  0
VERTEX
  8
CAPA_1
 62
    39
  6
CONTINUOUS
 10
0.263733
 20
-2.507599
  0
VERTEX
  8
CAPA_1
 62
    39
  6
CONTINUOUS
 10
0.345996
 20
-2.418831
  0
VERTEX
  8
CAPA_1
 62
    39
  6
CONTINUOUS
 10
0.434764
 20
-2.336568
  0
VERTEX
  8
CAPA_1
 62
    39
  6
CONTINUOUS
 10
0.529627
 20
-2.261221
  0
VERTEX
  8
CAPA_1
 62
    39
  6
CONTINUOUS
 10
0.630174
 20
-2.193201
  0
VERTEX
  8
CAPA_1
 62
    39
  6
CONTINUOUS
 10
0.735994
 20
-2.132917
  0
VERTEX
  8
CAPA_1
 62
    39
  6
CONTINUOUS
 10
0.846677
 20
-2.080782
  0
VERTEX
  8
CAPA_1
 62
    39
  6
CONTINUOUS
 10
0.961812
 20
-2.037205
  0
VERTEX
  8
CAPA_1
 62
    39
  6
CONTINUOUS
 10
1.080988
 20
-2.002597
  0
VERTEX
  8
CAPA_1
 62
    39
  6
CONTINUOUS
 10
1.203796
 20
-1.977368
  0
VERTEX
  8
CAPA_1
 62
    39
  6
CONTINUOUS
 10
1.329824
 20
-1.961930
  0
SEQEND
  8
0
  0
POLYLINE
  8
CAPA_1
 62
    39
  6
CONTINUOUS
 66
     1
 40
0.003000
 41
0.003000
 70
     1
  0
VERTEX
  8
CAPA_1
 62
    39
  6
CONTINUOUS
 10
1.458661
 20
-2.166791
  0
VERTEX
  8
CAPA_1
 62
    39
  6
CONTINUOUS
 10
1.767012
 20
-3.115783
  0
VERTEX
  8
CAPA_1
 62
    39
  6
CONTINUOUS
 10
1.768460
 20
-3.116504
  0
VERTEX
  8
CAPA_1
 62
    39
  6
CONTINUOUS
 10
1.769853
 20
-3.117318
  0
VERTEX
  8
CAPA_1
 62
    39
  6
CONTINUOUS
 10
1.771181
 20
-3.118224
  0
VERTEX
  8
CAPA_1
 62
    39
  6
CONTINUOUS
 10
2.768201
 20
-3.118224
  0
VERTEX
  8
CAPA_1
 62
    39
  6
CONTINUOUS
 10
1.958965
 20
-3.706571
  0
VERTEX
  8
CAPA_1
 62
    39
  6
CONTINUOUS
 10
2.268000
 20
-4.657681
  0
VERTEX
  8
CAPA_1
 62
    39
  6
CONTINUOUS
 10
1.458354
 20
-4.069878
  0
VERTEX
  8
CAPA_1
 62
    39
  6
CONTINUOUS
 10
0.649323
 20
-4.657681
  0
VERTEX
  8
CAPA_1
 62
    39
  6
CONTINUOUS
 10
0.958161
 20
-3.706024
  0
VERTEX
  8
CAPA_1
 62
    39
  6
CONTINUOUS
 10
0.149122
 20
-3.118224
  0
VERTEX
  8
CAPA_1
 62
    39
  6
CONTINUOUS
 10
1.146878
 20
-3.118224
  0
VERTEX
  8
CAPA_1
 62
    39
  6
CONTINUOUS
 10
1.147918
 20
-3.117624
  0
VERTEX
  8
CAPA_1
 62
    39
  6
CONTINUOUS
 10
1.148978
 20
-3.117082
  0
VERTEX
  8
CAPA_1
 62
    39
  6
CONTINUOUS
 10
1.150047
 20
-3.116602
  0
SEQEND
  8
0
  0
POLYLINE
  8
CAPA_1
 62
    39
  6
CONTINUOUS
 66
     1
 40
0.003000
 41
0.003000
 70
     1
  0
VERTEX
  8
CAPA_1
 62
    39
  6
CONTINUOUS
 10
5.198819
 20
-1.956693
  0
VERTEX
  8
CAPA_1
 62
    39
  6
CONTINUOUS
 10
5.327656
 20
-1.961930
  0
VERTEX
  8
CAPA_1
 62
    39
  6
CONTINUOUS
 10
5.453684
 20
-1.977368
  0
VERTEX
  8
CAPA_1
 62
    39
  6
CONTINUOUS
 10
5.576492
 20
-2.002597
  0
VERTEX
  8
CAPA_1
 62
    39
  6
CONTINUOUS
 10
5.695669
 20
-2.037205
  0
VERTEX
  8
CAPA_1
 62
    39
  6
CONTINUOUS
 10
5.810804
 20
-2.080782
  0
VERTEX
  8
CAPA_1
 62
    39
  6
CONTINUOUS
 10
5.921487
 20
-2.132917
  0
VERTEX
  8
CAPA_1
 62
    39
  6
CONTINUOUS
 10
6.027307
 20
-2.193201
  0
VERTEX
  8
CAPA_1
 62
    39
  6
CONTINUOUS
 10
6.127853
 20
-2.261221
  0
VERTEX
  8
CAPA_1
 62
    39
  6
CONTINUOUS
 10
6.222716
 20
-2.336568
  0
VERTEX
  8
CAPA_1
 62
    39
  6
CONTINUOUS
 10
6.311484
 20
-2.418831
  0
VERTEX
  8
CAPA_1
 62
    39
  6
CONTINUOUS
 10
6.393747
 20
-2.507599
  0
VERTEX
  8
CAPA_1
 62
    39
  6
CONTINUOUS
 10
6.469094
 20
-2.602461
  0
VERTEX
  8
CAPA_1
 62
    39
  6
CONTINUOUS
 10
6.537114
 20
-2.703008
  0
VERTEX
  8
CAPA_1
 62
    39
  6
CONTINUOUS
 10
6.597398
 20
-2.808828
  0
VERTEX
  8
CAPA_1
 62
    39
  6
CONTINUOUS
 10
6.649533
 20
-2.919511
  0
VERTEX
  8
CAPA_1
 62
    39
  6
CONTINUOUS
 10
6.693110
 20
-3.034646
  0
VERTEX
  8
CAPA_1
 62
    39
  6
CONTINUOUS
 10
6.727718
 20
-3.153823
  0
VERTEX
  8
CAPA_1
 62
    39
  6
CONTINUOUS
 10
6.752947
 20
-3.276631
  0
VERTEX
  8
CAPA_1
 62
    39
  6
CONTINUOUS
 10
6.768385
 20
-3.402659
  0
VERTEX
  8
CAPA_1
 62
    39
  6
CONTINUOUS
 10
6.773622
 20
-3.531496
  0
VERTEX
  8
CAPA_1
 62
    39
  6
CONTINUOUS
 10
6.768385
 20
-3.660334
  0
VERTEX
  8
CAPA_1
 62
    39
  6
CONTINUOUS
 10
6.752947
 20
-3.786361
  0
VERTEX
  8
CAPA_1
 62
    39
  6
CONTINUOUS
 10
6.727718
 20
-3.909169
  0
VERTEX
  8
CAPA_1
 62
    39
  6
CONTINUOUS
 10
6.693110
 20
-4.028346
  0
VERTEX
  8
CAPA_1
 62
    39
  6
CONTINUOUS
 10
6.649533
 20
-4.143481
  0
VERTEX
  8
CAPA_1
 62
    39
  6
CONTINUOUS
 10
6.597398
 20
-4.254164
  0
VERTEX
  8
CAPA_1
 62
    39
  6
CONTINUOUS
 10
6.537114
 20
-4.359984
  0
VERTEX
  8
CAPA_1
 62
    39
  6
CONTINUOUS
 10
6.469094
 20
-4.460531
  0
VERTEX
  8
CAPA_1
 62
    39
  6
CONTINUOUS
 10
6.393747
 20
-4.555393
  0
VERTEX
  8
CAPA_1
 62
    39
  6
CONTINUOUS
 10
6.311484
 20
-4.644161
  0
VERTEX
  8
CAPA_1
 62
    39
  6
CONTINUOUS
 10
6.222716
 20
-4.726424
  0
VERTEX
  8
CAPA_1
 62
    39
  6
CONTINUOUS
 10
6.127853
 20
-4.801771
  0
VERTEX
  8
CAPA_1
 62
    39
  6
CONTINUOUS
 10
6.027307
 20
-4.869791
  0
VERTEX
  8
CAPA_1
 62
    39
  6
CONTINUOUS
 10
5.921487
 20
-4.930075
  0
VERTEX
  8
CAPA_1
 62
    39
  6
CONTINUOUS
 10
5.810804
 20
-4.982210
  0
VERTEX
  8
CAPA_1
 62
    39
  6
CONTINUOUS
 10
5.695669
 20
-5.025787
  0
VERTEX
  8
CAPA_1
 62
    39
  6
CONTINUOUS
 10
5.576492
 20
-5.060395
  0
VERTEX
  8
CAPA_1
 62
    39
  6
CONTINUOUS
 10
5.453684
 20
-5.085624
  0
VERTEX
  8
CAPA_1
 62
    39
  6
CONTINUOUS
 10
5.327656
 20
-5.101062
  0
VERTEX
  8
CAPA_1
 62
    39
  6
CONTINUOUS
 10
5.198819
 20
-5.106299
  0
VERTEX
  8
CAPA_1
 62
    39
  6
CONTINUOUS
 10
5.069981
 20
-5.101062
  0
VERTEX
  8
CAPA_1
 62
    39
  6
CONTINUOUS
 10
4.943953
 20
-5.085624
  0
VERTEX
  8
CAPA_1
 62
    39
  6
CONTINUOUS
 10
4.821146
 20
-5.060395
  0
VERTEX
  8
CAPA_1
 62
    39
  6
CONTINUOUS
 10
4.701969
 20
-5.025787
  0
VERTEX
  8
CAPA_1
 62
    39
  6
CONTINUOUS
 10
4.586834
 20
-4.982210
  0
VERTEX
  8
CAPA_1
 62
    39
  6
CONTINUOUS
 10
4.476151
 20
-4.930075
  0
VERTEX
  8
CAPA_1
 62
    39
  6
CONTINUOUS
 10
4.370331
 20
-4.869791
  0
VERTEX
  8
CAPA_1
 62
    39
  6
CONTINUOUS
 10
4.269784
 20
-4.801771
  0
VERTEX
  8
CAPA_1
 62
    39
  6
CONTINUOUS
 10
4.174922
 20
-4.726424
  0
VERTEX
  8
CAPA_1
 62
    39
  6
CONTINUOUS
 10
4.086154
 20
-4.644161
  0
VERTEX
  8
CAPA_1
 62
    39
  6
CONTINUOUS
 10
4.003891
 20
-4.555393
  0
VERTEX
  8
CAPA_1
 62
    39
  6
CONTINUOUS
 10
3.928544
 20
-4.460531
  0
VERTEX
  8
CAPA_1
 62
    39
  6
CONTINUOUS
 10
3.860524
 20
-4.359984
  0
VERTEX
  8
CAPA_1
 62
    39
  6
CONTINUOUS
 10
3.800240
 20
-4.254164
  0
VERTEX
  8
CAPA_1
 62
    39
  6
CONTINUOUS
 10
3.748105
 20
-4.143481
  0
VERTEX
  8
CAPA_1
 62
    39
  6
CONTINUOUS
 10
3.704528
 20
-4.028346
  0
VERTEX
  8
CAPA_1
 62
    39
  6
CONTINUOUS
 10
3.669920
 20
-3.909169
  0
VERTEX
  8
CAPA_1
 62
    39
  6
CONTINUOUS
 10
3.644691
 20
-3.786361
  0
VERTEX
  8
CAPA_1
 62
    39
  6
CONTINUOUS
 10
3.629253
 20
-3.660334
  0
VERTEX
  8
CAPA_1
 62
    39
  6
CONTINUOUS
 10
3.624016
 20
-3.531496
  0
VERTEX
  8
CAPA_1
 62
    39
  6
CONTINUOUS
 10
3.629253
 20
-3.402659
  0
VERTEX
  8
CAPA_1
 62
    39
  6
CONTINUOUS
 10
3.644691
 20
-3.276631
  0
VERTEX
  8
CAPA_1
 62
    39
  6
CONTINUOUS
 10
3.669920
 20
-3.153823
  0
VERTEX
  8
CAPA_1
 62
    39
  6
CONTINUOUS
 10
3.704528
 20
-3.034646
  0
VERTEX
  8
CAPA_1
 62
    39
  6
CONTINUOUS
 10
3.748105
 20
-2.919511
  0
VERTEX
  8
CAPA_1
 62
    39
  6
CONTINUOUS
 10
3.800240
 20
-2.808828
  0
VERTEX
  8
CAPA_1
 62
    39
  6
CONTINUOUS
 10
3.860524
 20
-2.703008
  0
VERTEX
  8
CAPA_1
 62
    39
  6
CONTINUOUS
 10
3.928544
 20
-2.602461
  0
VERTEX
  8
CAPA_1
 62
    39
  6
CONTINUOUS
 10
4.003891
 20
-2.507599
  0
VERTEX
  8
CAPA_1
 62
    39
  6
CONTINUOUS
 10
4.086154
 20
-2.418831
  0
VERTEX
  8
CAPA_1
 62
    39
  6
CONTINUOUS
 10
4.174922
 20
-2.336568
  0
VERTEX
  8
CAPA_1
 62
    39
  6
CONTINUOUS
 10
4.269784
 20
-2.261221
  0
VERTEX
  8
CAPA_1
 62
    39
  6
CONTINUOUS
 10
4.370331
 20
-2.193201
  0
VERTEX
  8
CAPA_1
 62
    39
  6
CONTINUOUS
 10
4.476151
 20
-2.132917
  0
VERTEX
  8
CAPA_1
 62
    39
  6
CONTINUOUS
 10
4.586834
 20
-2.080782
  0
VERTEX
  8
CAPA_1
 62
    39
  6
CONTINUOUS
 10
4.701969
 20
-2.037205
  0
VERTEX
  8
CAPA_1
 62
    39
  6
CONTINUOUS
 10
4.821146
 20
-2.002597
  0
VERTEX
  8
CAPA_1
 62
    39
  6
CONTINUOUS
 10
4.943953
 20
-1.977368
  0
VERTEX
  8
CAPA_1
 62
    39
  6
CONTINUOUS
 10
5.069981
 20
-1.961930
  0
SEQEND
  8
0
  0
POLYLINE
  8
CAPA_1
 62
    39
  6
CONTINUOUS
 66
     1
 40
0.003000
 41
0.003000
 70
     1
  0
VERTEX
  8
CAPA_1
 62
    39
  6
CONTINUOUS
 10
5.198819
 20
-2.166791
  0
VERTEX
  8
CAPA_1
 62
    39
  6
CONTINUOUS
 10
5.507169
 20
-3.115783
  0
VERTEX
  8
CAPA_1
 62
    39
  6
CONTINUOUS
 10
5.508618
 20
-3.116504
  0
VERTEX
  8
CAPA_1
 62
    39
  6
CONTINUOUS
 10
5.510011
 20
-3.117318
  0
VERTEX
  8
CAPA_1
 62
    39
  6
CONTINUOUS
 10
5.511339
 20
-3.118224
  0
VERTEX
  8
CAPA_1
 62
    39
  6
CONTINUOUS
 10
6.508358
 20
-3.118224
  0
VERTEX
  8
CAPA_1
 62
    39
  6
CONTINUOUS
 10
5.699122
 20
-3.706571
  0
VERTEX
  8
CAPA_1
 62
    39
  6
CONTINUOUS
 10
6.008157
 20
-4.657681
  0
VERTEX
  8
CAPA_1
 62
    39
  6
CONTINUOUS
 10
5.198512
 20
-4.069878
  0
VERTEX
  8
CAPA_1
 62
    39
  6
CONTINUOUS
 10
4.389480
 20
-4.657681
  0
VERTEX
  8
CAPA_1
 62
    39
  6
CONTINUOUS
 10
4.698319
 20
-3.706024
  0
VERTEX
  8
CAPA_1
 62
    39
  6
CONTINUOUS
 10
3.889280
 20
-3.118224
  0
VERTEX
  8
CAPA_1
 62
    39
  6
CONTINUOUS
 10
4.887035
 20
-3.118224
  0
VERTEX
  8
CAPA_1
 62
    39
  6
CONTINUOUS
 10
4.888076
 20
-3.117624
  0
VERTEX
  8
CAPA_1
 62
    39
  6
CONTINUOUS
 10
4.889135
 20
-3.117082
  0
VERTEX
  8
CAPA_1
 62
    39
  6
CONTINUOUS
 10
4.890205
 20
-3.116602
  0
SEQEND
  8
0
  0
POLYLINE
  8
CAPA_1
 62
    39
  6
CONTINUOUS
 66
     1
 40
0.003000
 41
0.003000
 70
     1
  0
VERTEX
  8
CAPA_1
 62
    39
  6
CONTINUOUS
 10
8.938976
 20
-1.956693
  0
VERTEX
  8
CAPA_1
 62
    39
  6
CONTINUOUS
 10
9.067814
 20
-1.961930
  0
VERTEX
  8
CAPA_1
 62
    39
  6
CONTINUOUS
 10
9.193842
 20
-1.977368
  0
VERTEX
  8
CAPA_1
 62
    39
  6
CONTINUOUS
 10
9.316649
 20
-2.002597
  0
VERTEX
  8
CAPA_1
 62
    39
  6
CONTINUOUS
 10
9.435826
 20
-2.037205
  0
VERTEX
  8
CAPA_1
 62
    39
  6
CONTINUOUS
 10
9.550961
 20
-2.080782
  0
VERTEX
  8
CAPA_1
 62
    39
  6
CONTINUOUS
 10
9.661644
 20
-2.132917
  0
VERTEX
  8
CAPA_1
 62
    39
  6
CONTINUOUS
 10
9.767464
 20
-2.193201
  0
VERTEX
  8
CAPA_1
 62
    39
  6
CONTINUOUS
 10
9.868011
 20
-2.261221
  0
VERTEX
  8
CAPA_1
 62
    39
  6
CONTINUOUS
 10
9.962874
 20
-2.336568
  0
VERTEX
  8
CAPA_1
 62
    39
  6
CONTINUOUS
 10
10.051642
 20
-2.418831
  0
VERTEX
  8
CAPA_1
 62
    39
  6
CONTINUOUS
 10
10.133905
 20
-2.507599
  0
VERTEX
  8
CAPA_1
 62
    39
  6
CONTINUOUS
 10
10.209251
 20
-2.602461
  0
VERTEX
  8
CAPA_1
 62
    39
  6
CONTINUOUS
 10
10.277272
 20
-2.703008
  0
VERTEX
  8
CAPA_1
 62
    39
  6
CONTINUOUS
 10
10.337555
 20
-2.808828
  0
VERTEX
  8
CAPA_1
 62
    39
  6
CONTINUOUS
 10
10.389690
 20
-2.919511
  0
VERTEX
  8
CAPA_1
 62
    39
  6
CONTINUOUS
 10
10.433268
 20
-3.034646
  0
VERTEX
  8
CAPA_1
 62
    39
  6
CONTINUOUS
 10
10.467876
 20
-3.153823
  0
VERTEX
  8
CAPA_1
 62
    39
  6
CONTINUOUS
 10
10.493104
 20
-3.276631
  0
VERTEX
  8
CAPA_1
 62
    39
  6
CONTINUOUS
 10
10.508542
 20
-3.402659
  0
VERTEX
  8
CAPA_1
 62
    39
  6
CONTINUOUS
 10
10.513780
 20
-3.531496
  0
VERTEX
  8
CAPA_1
 62
    39
  6
CONTINUOUS
 10
10.508542
 20
-3.660334
  0
VERTEX
  8
CAPA_1
 62
    39
  6
CONTINUOUS
 10
10.493104
 20
-3.786361
  0
VERTEX
  8
CAPA_1
 62
    39
  6
CONTINUOUS
 10
10.467876
 20
-3.909169
  0
VERTEX
  8
CAPA_1
 62
    39
  6
CONTINUOUS
 10
10.433268
 20
-4.028346
  0
VERTEX
  8
CAPA_1
 62
    39
  6
CONTINUOUS
 10
10.389690
 20
-4.143481
  0
VERTEX
  8
CAPA_1
 62
    39
  6
CONTINUOUS
 10
10.337555
 20
-4.254164
  0
VERTEX
  8
CAPA_1
 62
    39
  6
CONTINUOUS
 10
10.277272
 20
-4.359984
  0
VERTEX
  8
CAPA_1
 62
    39
  6
CONTINUOUS
 10
10.209251
 20
-4.460531
  0
VERTEX
  8
CAPA_1
 62
    39
  6
CONTINUOUS
 10
10.133905
 20
-4.555393
  0
VERTEX
  8
CAPA_1
 62
    39
  6
CONTINUOUS
 10
10.051642
 20
-4.644161
  0
VERTEX
  8
CAPA_1
 62
    39
  6
CONTINUOUS
 10
9.962874
 20
-4.726424
  0
VERTEX
  8
CAPA_1
 62
    39
  6
CONTINUOUS
 10
9.868011
 20
-4.801771
  0
VERTEX
  8
CAPA_1
 62
    39
  6
CONTINUOUS
 10
9.767464
 20
-4.869791
  0
VERTEX
  8
CAPA_1
 62
    39
  6
CONTINUOUS
 10
9.661644
 20
-4.930075
  0
VERTEX
  8
CAPA_1
 62
    39
  6
CONTINUOUS
 10
9.550961
 20
-4.982210
  0
VERTEX
  8
CAPA_1
 62
    39
  6
CONTINUOUS
 10
9.435826
 20
-5.025787
  0
VERTEX
  8
CAPA_1
 62
    39
  6
CONTINUOUS
 10
9.316649
 20
-5.060395
  0
VERTEX
  8
CAPA_1
 62
    39
  6
CONTINUOUS
 10
9.193842
 20
-5.085624
  0
VERTEX
  8
CAPA_1
 62
    39
  6
CONTINUOUS
 10
9.067814
 20
-5.101062
  0
VERTEX
  8
CAPA_1
 62
    39
  6
CONTINUOUS
 10
8.938976
 20
-5.106299
  0
VERTEX
  8
CAPA_1
 62
    39
  6
CONTINUOUS
 10
8.938976
 20
-5.106299
  0
VERTEX
  8
CAPA_1
 62
    39
  6
CONTINUOUS
 10
8.810139
 20
-5.101062
  0
VERTEX
  8
CAPA_1
 62
    39
  6
CONTINUOUS
 10
8.684111
 20
-5.085624
  0
VERTEX
  8
CAPA_1
 62
    39
  6
CONTINUOUS
 10
8.561303
 20
-5.060395
  0
VERTEX
  8
CAPA_1
 62
    39
  6
CONTINUOUS
 10
8.442127
 20
-5.025787
  0
VERTEX
  8
CAPA_1
 62
    39
  6
CONTINUOUS
 10
8.326992
 20
-4.982210
  0
VERTEX
  8
CAPA_1
 62
    39
  6
CONTINUOUS
 10
8.216309
 20
-4.930075
  0
VERTEX
  8
CAPA_1
 62
    39
  6
CONTINUOUS
 10
8.110489
 20
-4.869791
  0
VERTEX
  8
CAPA_1
 62
    39
  6
CONTINUOUS
 10
8.009942
 20
-4.801771
  0
VERTEX
  8
CAPA_1
 62
    39
  6
CONTINUOUS
 10
7.915079
 20
-4.726424
  0
VERTEX
  8
CAPA_1
 62
    39
  6
CONTINUOUS
 10
7.826311
 20
-4.644161
  0
VERTEX
  8
CAPA_1
 62
    39
  6
CONTINUOUS
 10
7.744048
 20
-4.555393
  0
VERTEX
  8
CAPA_1
 62
    39
  6
CONTINUOUS
 10
7.668701
 20
-4.460531
  0
VERTEX
  8
CAPA_1
 62
    39
  6
CONTINUOUS
 10
7.600681
 20
-4.359984
  0
VERTEX
  8
CAPA_1
 62
    39
  6
CONTINUOUS
 10
7.540398
 20
-4.254164
  0
VERTEX
  8
CAPA_1
 62
    39
  6
CONTINUOUS
 10
7.488262
 20
-4.143481
  0
VERTEX
  8
CAPA_1
 62
    39
  6
CONTINUOUS
 10
7.444685
 20
-4.028346
  0
VERTEX
  8
CAPA_1
 62
    39
  6
CONTINUOUS
 10
7.410077
 20
-3.909169
  0
VERTEX
  8
CAPA_1
 62
    39
  6
CONTINUOUS
 10
7.384849
 20
-3.786361
  0
VERTEX
  8
CAPA_1
 62
    39
  6
CONTINUOUS
 10
7.369411
 20
-3.660334
  0
VERTEX
  8
CAPA_1
 62
    39
  6
CONTINUOUS
 10
7.364173
 20
-3.531496
  0
VERTEX
  8
CAPA_1
 62
    39
  6
CONTINUOUS
 10
7.369411
 20
-3.402659
  0
VERTEX
  8
CAPA_1
 62
    39
  6
CONTINUOUS
 10
7.384849
 20
-3.276631
  0
VERTEX
  8
CAPA_1
 62
    39
  6
CONTINUOUS
 10
7.410077
 20
-3.153823
  0
VERTEX
  8
CAPA_1
 62
    39
  6
CONTINUOUS
 10
7.444685
 20
-3.034646
  0
VERTEX
  8
CAPA_1
 62
    39
  6
CONTINUOUS
 10
7.488262
 20
-2.919511
  0
VERTEX
  8
CAPA_1
 62
    39
  6
CONTINUOUS
 10
7.540398
 20
-2.808828
  0
VERTEX
  8
CAPA_1
 62
    39
  6
CONTINUOUS
 10
7.600681
 20
-2.703008
  0
VERTEX
  8
CAPA_1
 62
    39
  6
CONTINUOUS
 10
7.668701
 20
-2.602461
  0
VERTEX
  8
CAPA_1
 62
    39
  6
CONTINUOUS
 10
7.744048
 20
-2.507599
  0
VERTEX
  8
CAPA_1
 62
    39
  6
CONTINUOUS
 10
7.826311
 20
-2.418831
  0
VERTEX
  8
CAPA_1
 62
    39
  6
CONTINUOUS
 10
7.915079
 20
-2.336568
  0
VERTEX
  8
CAPA_1
 62
    39
  6
CONTINUOUS
 10
8.009942
 20
-2.261221
  0
VERTEX
  8
CAPA_1
 62
    39
  6
CONTINUOUS
 10
8.110489
 20
-2.193201
  0
VERTEX
  8
CAPA_1
 62
    39
  6
CONTINUOUS
 10
8.216309
 20
-2.132917
  0
VERTEX
  8
CAPA_1
 62
    39
  6
CONTINUOUS
 10
8.326992
 20
-2.080782
  0
VERTEX
  8
CAPA_1
 62
    39
  6
CONTINUOUS
 10
8.442127
 20
-2.037205
  0
VERTEX
  8
CAPA_1
 62
    39
  6
CONTINUOUS
 10
8.561303
 20
-2.002597
  0
VERTEX
  8
CAPA_1
 62
    39
  6
CONTINUOUS
 10
8.684111
 20
-1.977368
  0
VERTEX
  8
CAPA_1
 62
    39
  6
CONTINUOUS
 10
8.810139
 20
-1.961930
  0
SEQEND
  8
0
  0
POLYLINE
  8
CAPA_1
 62
    39
  6
CONTINUOUS
 66
     1
 40
0.003000
 41
0.003000
 70
     1
  0
VERTEX
  8
CAPA_1
 62
    39
  6
CONTINUOUS
 10
8.938976
 20
-2.166791
  0
VERTEX
  8
CAPA_1
 62
    39
  6
CONTINUOUS
 10
9.247327
 20
-3.115783
  0
VERTEX
  8
CAPA_1
 62
    39
  6
CONTINUOUS
 10
9.248775
 20
-3.116504
  0
VERTEX
  8
CAPA_1
 62
    39
  6
CONTINUOUS
 10
9.250168
 20
-3.117318
  0
VERTEX
  8
CAPA_1
 62
    39
  6
CONTINUOUS
 10
9.251496
 20
-3.118224
  0
VERTEX
  8
CAPA_1
 62
    39
  6
CONTINUOUS
 10
10.248516
 20
-3.118224
  0
VERTEX
  8
CAPA_1
 62
    39
  6
CONTINUOUS
 10
9.439280
 20
-3.706571
  0
VERTEX
  8
CAPA_1
 62
    39
  6
CONTINUOUS
 10
9.748315
 20
-4.657681
  0
VERTEX
  8
CAPA_1
 62
    39
  6
CONTINUOUS
 10
8.938669
 20
-4.069878
  0
VERTEX
  8
CAPA_1
 62
    39
  6
CONTINUOUS
 10
8.129638
 20
-4.657681
  0
VERTEX
  8
CAPA_1
 62
    39
  6
CONTINUOUS
 10
8.438476
 20
-3.706024
  0
VERTEX
  8
CAPA_1
 62
    39
  6
CONTINUOUS
 10
7.629437
 20
-3.118224
  0
VERTEX
  8
CAPA_1
 62
    39
  6
CONTINUOUS
 10
8.627193
 20
-3.118224
  0
VERTEX
  8
CAPA_1
 62
    39
  6
CONTINUOUS
 10
8.628233
 20
-3.117624
  0
VERTEX
  8
CAPA_1
 62
    39
  6
CONTINUOUS
 10
8.629293
 20
-3.117082
  0
VERTEX
  8
CAPA_1
 62
    39
  6
CONTINUOUS
 10
8.630362
 20
-3.116602
  0
SEQEND
  8
0
  0
POLYLINE
  8
CAPA_1
 62
    39
  6
CONTINUOUS
 66
     1
 40
0.003000
 41
0.003000
 70
     1
  0
VERTEX
  8
CAPA_1
 62
    39
  6
CONTINUOUS
 10
12.679134
 20
-1.956693
  0
VERTEX
  8
CAPA_1
 62
    39
  6
CONTINUOUS
 10
12.807971
 20
-1.961930
  0
VERTEX
  8
CAPA_1
 62
    39
  6
CONTINUOUS
 10
12.933999
 20
-1.977368
  0
VERTEX
  8
CAPA_1
 62
    39
  6
CONTINUOUS
 10
13.056807
 20
-2.002597
  0
VERTEX
  8
CAPA_1
 62
    39
  6
CONTINUOUS
 10
13.175983
 20
-2.037205
  0
VERTEX
  8
CAPA_1
 62
    39
  6
CONTINUOUS
 10
13.291119
 20
-2.080782
  0
VERTEX
  8
CAPA_1
 62
    39
  6
CONTINUOUS
 10
13.401802
 20
-2.132917
  0
VERTEX
  8
CAPA_1
 62
    39
  6
CONTINUOUS
 10
13.507622
 20
-2.193201
  0
VERTEX
  8
CAPA_1
 62
    39
  6
CONTINUOUS
 10
13.608168
 20
-2.261221
  0
VERTEX
  8
CAPA_1
 62
    39
  6
CONTINUOUS
 10
13.703031
 20
-2.336568
  0
VERTEX
  8
CAPA_1
 62
    39
  6
CONTINUOUS
 10
13.791799
 20
-2.418831
  0
VERTEX
  8
CAPA_1
 62
    39
  6
CONTINUOUS
 10
13.874062
 20
-2.507599
  0
VERTEX
  8
CAPA_1
 62
    39
  6
CONTINUOUS
 10
13.949409
 20
-2.602461
  0
VERTEX
  8
CAPA_1
 62
    39
  6
CONTINUOUS
 10
14.017429
 20
-2.703008
  0
VERTEX
  8
CAPA_1
 62
    39
  6
CONTINUOUS
 10
14.077712
 20
-2.808828
  0
VERTEX
  8
CAPA_1
 62
    39
  6
CONTINUOUS
 10
14.129848
 20
-2.919511
  0
VERTEX
  8
CAPA_1
 62
    39
  6
CONTINUOUS
 10
14.173425
 20
-3.034646
  0
VERTEX
  8
CAPA_1
 62
    39
  6
CONTINUOUS
 10
14.208033
 20
-3.153823
  0
VERTEX
  8
CAPA_1
 62
    39
  6
CONTINUOUS
 10
14.233262
 20
-3.276631
  0
VERTEX
  8
CAPA_1
 62
    39
  6
CONTINUOUS
 10
14.248700
 20
-3.402659
  0
VERTEX
  8
CAPA_1
 62
    39
  6
CONTINUOUS
 10
14.253937
 20
-3.531496
  0
VERTEX
  8
CAPA_1
 62
    39
  6
CONTINUOUS
 10
14.248700
 20
-3.660334
  0
VERTEX
  8
CAPA_1
 62
    39
  6
CONTINUOUS
 10
14.233262
 20
-3.786361
  0
VERTEX
  8
CAPA_1
 62
    39
  6
CONTINUOUS
 10
14.208033
 20
-3.909169
  0
VERTEX
  8
CAPA_1
 62
    39
  6
CONTINUOUS
 10
14.173425
 20
-4.028346
  0
VERTEX
  8
CAPA_1
 62
    39
  6
CONTINUOUS
 10
14.129848
 20
-4.143481
  0
VERTEX
  8
CAPA_1
 62
    39
  6
CONTINUOUS
 10
14.077712
 20
-4.254164
  0
VERTEX
  8
CAPA_1
 62
    39
  6
CONTINUOUS
 10
14.017429
 20
-4.359984
  0
VERTEX
  8
CAPA_1
 62
    39
  6
CONTINUOUS
 10
13.949409
 20
-4.460531
  0
VERTEX
  8
CAPA_1
 62
    39
  6
CONTINUOUS
 10
13.874062
 20
-4.555393
  0
VERTEX
  8
CAPA_1
 62
    39
  6
CONTINUOUS
 10
13.791799
 20
-4.644161
  0
VERTEX
  8
CAPA_1
 62
    39
  6
CONTINUOUS
 10
13.703031
 20
-4.726424
  0
VERTEX
  8
CAPA_1
 62
    39
  6
CONTINUOUS
 10
13.608168
 20
-4.801771
  0
VERTEX
  8
CAPA_1
 62
    39
  6
CONTINUOUS
 10
13.507622
 20
-4.869791
  0
VERTEX
  8
CAPA_1
 62
    39
  6
CONTINUOUS
 10
13.401802
 20
-4.930075
  0
VERTEX
  8
CAPA_1
 62
    39
  6
CONTINUOUS
 10
13.291119
 20
-4.982210
  0
VERTEX
  8
CAPA_1
 62
    39
  6
CONTINUOUS
 10
13.175983
 20
-5.025787
  0
VERTEX
  8
CAPA_1
 62
    39
  6
CONTINUOUS
 10
13.056807
 20
-5.060395
  0
VERTEX
  8
CAPA_1
 62
    39
  6
CONTINUOUS
 10
12.933999
 20
-5.085624
  0
VERTEX
  8
CAPA_1
 62
    39
  6
CONTINUOUS
 10
12.807971
 20
-5.101062
  0
VERTEX
  8
CAPA_1
 62
    39
  6
CONTINUOUS
 10
12.679134
 20
-5.106299
  0
VERTEX
  8
CAPA_1
 62
    39
  6
CONTINUOUS
 10
12.550296
 20
-5.101062
  0
VERTEX
  8
CAPA_1
 62
    39
  6
CONTINUOUS
 10
12.424268
 20
-5.085624
  0
VERTEX
  8
CAPA_1
 62
    39
  6
CONTINUOUS
 10
12.301461
 20
-5.060395
  0
VERTEX
  8
CAPA_1
 62
    39
  6
CONTINUOUS
 10
12.182284
 20
-5.025787
  0
VERTEX
  8
CAPA_1
 62
    39
  6
CONTINUOUS
 10
12.067149
 20
-4.982210
  0
VERTEX
  8
CAPA_1
 62
    39
  6
CONTINUOUS
 10
11.956466
 20
-4.930075
  0
VERTEX
  8
CAPA_1
 62
    39
  6
CONTINUOUS
 10
11.850646
 20
-4.869791
  0
VERTEX
  8
CAPA_1
 62
    39
  6
CONTINUOUS
 10
11.750099
 20
-4.801771
  0
VERTEX
  8
CAPA_1
 62
    39
  6
CONTINUOUS
 10
11.655237
 20
-4.726424
  0
VERTEX
  8
CAPA_1
 62
    39
  6
CONTINUOUS
 10
11.566469
 20
-4.644161
  0
VERTEX
  8
CAPA_1
 62
    39
  6
CONTINUOUS
 10
11.484206
 20
-4.555393
  0
VERTEX
  8
CAPA_1
 62
    39
  6
CONTINUOUS
 10
11.408859
 20
-4.460531
  0
VERTEX
  8
CAPA_1
 62
    39
  6
CONTINUOUS
 10
11.340838
 20
-4.359984
  0
VERTEX
  8
CAPA_1
 62
    39
  6
CONTINUOUS
 10
11.280555
 20
-4.254164
  0
VERTEX
  8
CAPA_1
 62
    39
  6
CONTINUOUS
 10
11.228420
 20
-4.143481
  0
VERTEX
  8
CAPA_1
 62
    39
  6
CONTINUOUS
 10
11.184843
 20
-4.028346
  0
VERTEX
  8
CAPA_1
 62
    39
  6
CONTINUOUS
 10
11.150235
 20
-3.909169
  0
VERTEX
  8
CAPA_1
 62
    39
  6
CONTINUOUS
 10
11.125006
 20
-3.786361
  0
VERTEX
  8
CAPA_1
 62
    39
  6
CONTINUOUS
 10
11.109568
 20
-3.660334
  0
VERTEX
  8
CAPA_1
 62
    39
  6
CONTINUOUS
 10
11.104331
 20
-3.531496
  0
VERTEX
  8
CAPA_1
 62
    39
  6
CONTINUOUS
 10
11.109568
 20
-3.402659
  0
VERTEX
  8
CAPA_1
 62
    39
  6
CONTINUOUS
 10
11.125006
 20
-3.276631
  0
VERTEX
  8
CAPA_1
 62
    39
  6
CONTINUOUS
 10
11.150235
 20
-3.153823
  0
VERTEX
  8
CAPA_1
 62
    39
  6
CONTINUOUS
 10
11.184843
 20
-3.034646
  0
VERTEX
  8
CAPA_1
 62
    39
  6
CONTINUOUS
 10
11.228420
 20
-2.919511
  0
VERTEX
  8
CAPA_1
 62
    39
  6
CONTINUOUS
 10
11.280555
 20
-2.808828
  0
VERTEX
  8
CAPA_1
 62
    39
  6
CONTINUOUS
 10
11.340838
 20
-2.703008
  0
VERTEX
  8
CAPA_1
 62
    39
  6
CONTINUOUS
 10
11.408859
 20
-2.602461
  0
VERTEX
  8
CAPA_1
 62
    39
  6
CONTINUOUS
 10
11.484206
 20
-2.507599
  0
VERTEX
  8
CAPA_1
 62
    39
  6
CONTINUOUS
 10
11.566469
 20
-2.418831
  0
VERTEX
  8
CAPA_1
 62
    39
  6
CONTINUOUS
 10
11.655237
 20
-2.336568
  0
VERTEX
  8
CAPA_1
 62
    39
  6
CONTINUOUS
 10
11.750099
 20
-2.261221
  0
VERTEX
  8
CAPA_1
 62
    39
  6
CONTINUOUS
 10
11.850646
 20
-2.193201
  0
VERTEX
  8
CAPA_1
 62
    39
  6
CONTINUOUS
 10
11.956466
 20
-2.132917
  0
VERTEX
  8
CAPA_1
 62
    39
  6
CONTINUOUS
 10
12.067149
 20
-2.080782
  0
VERTEX
  8
CAPA_1
 62
    39
  6
CONTINUOUS
 10
12.182284
 20
-2.037205
  0
VERTEX
  8
CAPA_1
 62
    39
  6
CONTINUOUS
 10
12.301461
 20
-2.002597
  0
VERTEX
  8
CAPA_1
 62
    39
  6
CONTINUOUS
 10
12.424268
 20
-1.977368
  0
VERTEX
  8
CAPA_1
 62
    39
  6
CONTINUOUS
 10
12.550296
 20
-1.961930
  0
SEQEND
  8
0
  0
POLYLINE
  8
CAPA_1
 62
    39
  6
CONTINUOUS
 66
     1
 40
0.003000
 41
0.003000
 70
     1
  0
VERTEX
  8
CAPA_1
 62
    39
  6
CONTINUOUS
 10
12.679134
 20
-2.166791
  0
VERTEX
  8
CAPA_1
 62
    39
  6
CONTINUOUS
 10
12.987484
 20
-3.115783
  0
VERTEX
  8
CAPA_1
 62
    39
  6
CONTINUOUS
 10
12.988933
 20
-3.116504
  0
VERTEX
  8
CAPA_1
 62
    39
  6
CONTINUOUS
 10
12.990326
 20
-3.117318
  0
VERTEX
  8
CAPA_1
 62
    39
  6
CONTINUOUS
 10
12.991654
 20
-3.118224
  0
VERTEX
  8
CAPA_1
 62
    39
  6
CONTINUOUS
 10
13.988673
 20
-3.118224
  0
VERTEX
  8
CAPA_1
 62
    39
  6
CONTINUOUS
 10
13.179437
 20
-3.706571
  0
VERTEX
  8
CAPA_1
 62
    39
  6
CONTINUOUS
 10
13.488472
 20
-4.657681
  0
VERTEX
  8
CAPA_1
 62
    39
  6
CONTINUOUS
 10
12.678827
 20
-4.069878
  0
VERTEX
  8
CAPA_1
 62
    39
  6
CONTINUOUS
 10
11.869795
 20
-4.657681
  0
VERTEX
  8
CAPA_1
 62
    39
  6
CONTINUOUS
 10
12.178634
 20
-3.706024
  0
VERTEX
  8
CAPA_1
 62
    39
  6
CONTINUOUS
 10
11.369594
 20
-3.118224
  0
VERTEX
  8
CAPA_1
 62
    39
  6
CONTINUOUS
 10
12.367350
 20
-3.118224
  0
VERTEX
  8
CAPA_1
 62
    39
  6
CONTINUOUS
 10
12.368391
 20
-3.117624
  0
VERTEX
  8
CAPA_1
 62
    39
  6
CONTINUOUS
 10
12.369450
 20
-3.117082
  0
VERTEX
  8
CAPA_1
 62
    39
  6
CONTINUOUS
 10
12.370520
 20
-3.116602
  0
SEQEND
  8
0
  0
POLYLINE
  8
CAPA_1
 62
    39
  6
CONTINUOUS
 66
     1
 40
0.003000
 41
0.003000
 70
     1
  0
VERTEX
  8
CAPA_1
 62
    39
  6
CONTINUOUS
 10
-4.249996
 20
-9.437008
  0
VERTEX
  8
CAPA_1
 62
    39
  6
CONTINUOUS
 10
14.647634
 20
-9.437008
  0
VERTEX
  8
CAPA_1
 62
    39
  6
CONTINUOUS
 10
14.647634
 20
-5.500000
  0
VERTEX
  8
CAPA_1
 62
    39
  6
CONTINUOUS
 10
-4.249996
 20
-5.500000
  0
SEQEND
  8
0
  0
POLYLINE
  8
CAPA_1
 62
    39
  6
CONTINUOUS
 66
     1
 40
0.003000
 41
0.003000
 70
     1
  0
VERTEX
  8
CAPA_1
 62
    39
  6
CONTINUOUS
 10
12.679134
 20
-7.409449
  0
VERTEX
  8
CAPA_1
 62
    39
  6
CONTINUOUS
 10
12.708901
 20
-7.417531
  0
VERTEX
  8
CAPA_1
 62
    39
  6
CONTINUOUS
 10
12.730107
 20
-7.438737
  0
VERTEX
  8
CAPA_1
 62
    39
  6
CONTINUOUS
 10
12.738189
 20
-7.468504
  0
VERTEX
  8
CAPA_1
 62
    39
  6
CONTINUOUS
 10
12.730107
 20
-7.498271
  0
VERTEX
  8
CAPA_1
 62
    39
  6
CONTINUOUS
 10
12.708901
 20
-7.519477
  0
VERTEX
  8
CAPA_1
 62
    39
  6
CONTINUOUS
 10
12.679134
 20
-7.527559
  0
VERTEX
  8
CAPA_1
 62
    39
  6
CONTINUOUS
 10
12.649367
 20
-7.519477
  0
VERTEX
  8
CAPA_1
 62
    39
  6
CONTINUOUS
 10
12.628161
 20
-7.498271
  0
VERTEX
  8
CAPA_1
 62
    39
  6
CONTINUOUS
 10
12.620079
 20
-7.468504
  0
VERTEX
  8
CAPA_1
 62
    39
  6
CONTINUOUS
 10
12.628161
 20
-7.438737
  0
VERTEX
  8
CAPA_1
 62
    39
  6
CONTINUOUS
 10
12.649367
 20
-7.417531
  0
SEQEND
  8
0
  0
POLYLINE
  8
CAPA_1
 62
    39
  6
CONTINUOUS
 66
     1
 40
0.003000
 41
0.003000
 70
     1
  0
VERTEX
  8
CAPA_1
 62
    39
  6
CONTINUOUS
 10
10.809055
 20
-7.409449
  0
VERTEX
  8
CAPA_1
 62
    39
  6
CONTINUOUS
 10
10.838822
 20
-7.417531
  0
VERTEX
  8
CAPA_1
 62
    39
  6
CONTINUOUS
 10
10.860028
 20
-7.438737
  0
VERTEX
  8
CAPA_1
 62
    39
  6
CONTINUOUS
 10
10.868110
 20
-7.468504
  0
VERTEX
  8
CAPA_1
 62
    39
  6
CONTINUOUS
 10
10.860028
 20
-7.498271
  0
VERTEX
  8
CAPA_1
 62
    39
  6
CONTINUOUS
 10
10.838822
 20
-7.519477
  0
VERTEX
  8
CAPA_1
 62
    39
  6
CONTINUOUS
 10
10.809055
 20
-7.527559
  0
VERTEX
  8
CAPA_1
 62
    39
  6
CONTINUOUS
 10
10.779288
 20
-7.519477
  0
VERTEX
  8
CAPA_1
 62
    39
  6
CONTINUOUS
 10
10.758082
 20
-7.498271
  0
VERTEX
  8
CAPA_1
 62
    39
  6
CONTINUOUS
 10
10.750000
 20
-7.468504
  0
VERTEX
  8
CAPA_1
 62
    39
  6
CONTINUOUS
 10
10.758082
 20
-7.438737
  0
VERTEX
  8
CAPA_1
 62
    39
  6
CONTINUOUS
 10
10.779288
 20
-7.417531
  0
SEQEND
  8
0
  0
POLYLINE
  8
CAPA_1
 62
    39
  6
CONTINUOUS
 66
     1
 40
0.003000
 41
0.003000
 70
     1
  0
VERTEX
  8
CAPA_1
 62
    39
  6
CONTINUOUS
 10
8.938976
 20
-7.409449
  0
VERTEX
  8
CAPA_1
 62
    39
  6
CONTINUOUS
 10
8.968744
 20
-7.417531
  0
VERTEX
  8
CAPA_1
 62
    39
  6
CONTINUOUS
 10
8.989949
 20
-7.438737
  0
VERTEX
  8
CAPA_1
 62
    39
  6
CONTINUOUS
 10
8.998031
 20
-7.468504
  0
VERTEX
  8
CAPA_1
 62
    39
  6
CONTINUOUS
 10
8.989949
 20
-7.498271
  0
VERTEX
  8
CAPA_1
 62
    39
  6
CONTINUOUS
 10
8.968744
 20
-7.519477
  0
VERTEX
  8
CAPA_1
 62
    39
  6
CONTINUOUS
 10
8.938976
 20
-7.527559
  0
VERTEX
  8
CAPA_1
 62
    39
  6
CONTINUOUS
 10
8.909209
 20
-7.519477
  0
VERTEX
  8
CAPA_1
 62
    39
  6
CONTINUOUS
 10
8.888003
 20
-7.498271
  0
VERTEX
  8
CAPA_1
 62
    39
  6
CONTINUOUS
 10
8.879921
 20
-7.468504
  0
VERTEX
  8
CAPA_1
 62
    39
  6
CONTINUOUS
 10
8.888003
 20
-7.438737
  0
VERTEX
  8
CAPA_1
 62
    39
  6
CONTINUOUS
 10
8.909209
 20
-7.417531
  0
SEQEND
  8
0
  0
POLYLINE
  8
CAPA_1
 62
    39
  6
CONTINUOUS
 66
     1
 40
0.003000
 41
0.003000
 70
     1
  0
VERTEX
  8
CAPA_1
 62
    39
  6
CONTINUOUS
 10
7.068898
 20
-7.409449
  0
VERTEX
  8
CAPA_1
 62
    39
  6
CONTINUOUS
 10
7.098665
 20
-7.417531
  0
VERTEX
  8
CAPA_1
 62
    39
  6
CONTINUOUS
 10
7.119871
 20
-7.438737
  0
VERTEX
  8
CAPA_1
 62
    39
  6
CONTINUOUS
 10
7.127953
 20
-7.468504
  0
VERTEX
  8
CAPA_1
 62
    39
  6
CONTINUOUS
 10
7.119871
 20
-7.498271
  0
VERTEX
  8
CAPA_1
 62
    39
  6
CONTINUOUS
 10
7.098665
 20
-7.519477
  0
VERTEX
  8
CAPA_1
 62
    39
  6
CONTINUOUS
 10
7.068898
 20
-7.527559
  0
VERTEX
  8
CAPA_1
 62
    39
  6
CONTINUOUS
 10
7.039130
 20
-7.519477
  0
VERTEX
  8
CAPA_1
 62
    39
  6
CONTINUOUS
 10
7.017925
 20
-7.498271
  0
VERTEX
  8
CAPA_1
 62
    39
  6
CONTINUOUS
 10
7.009843
 20
-7.468504
  0
VERTEX
  8
CAPA_1
 62
    39
  6
CONTINUOUS
 10
7.017925
 20
-7.438737
  0
VERTEX
  8
CAPA_1
 62
    39
  6
CONTINUOUS
 10
7.039130
 20
-7.417531
  0
SEQEND
  8
0
  0
POLYLINE
  8
CAPA_1
 62
    39
  6
CONTINUOUS
 66
     1
 40
0.003000
 41
0.003000
 70
     1
  0
VERTEX
  8
CAPA_1
 62
    39
  6
CONTINUOUS
 10
5.198819
 20
-7.409449
  0
VERTEX
  8
CAPA_1
 62
    39
  6
CONTINUOUS
 10
5.228586
 20
-7.417531
  0
VERTEX
  8
CAPA_1
 62
    39
  6
CONTINUOUS
 10
5.249792
 20
-7.438737
  0
VERTEX
  8
CAPA_1
 62
    39
  6
CONTINUOUS
 10
5.257874
 20
-7.468504
  0
VERTEX
  8
CAPA_1
 62
    39
  6
CONTINUOUS
 10
5.249792
 20
-7.498271
  0
VERTEX
  8
CAPA_1
 62
    39
  6
CONTINUOUS
 10
5.228586
 20
-7.519477
  0
VERTEX
  8
CAPA_1
 62
    39
  6
CONTINUOUS
 10
5.198819
 20
-7.527559
  0
VERTEX
  8
CAPA_1
 62
    39
  6
CONTINUOUS
 10
5.169052
 20
-7.519477
  0
VERTEX
  8
CAPA_1
 62
    39
  6
CONTINUOUS
 10
5.147846
 20
-7.498271
  0
VERTEX
  8
CAPA_1
 62
    39
  6
CONTINUOUS
 10
5.139764
 20
-7.468504
  0
VERTEX
  8
CAPA_1
 62
    39
  6
CONTINUOUS
 10
5.147846
 20
-7.438737
  0
VERTEX
  8
CAPA_1
 62
    39
  6
CONTINUOUS
 10
5.169052
 20
-7.417531
  0
SEQEND
  8
0
  0
POLYLINE
  8
CAPA_1
 62
    39
  6
CONTINUOUS
 66
     1
 40
0.003000
 41
0.003000
 70
     1
  0
VERTEX
  8
CAPA_1
 62
    39
  6
CONTINUOUS
 10
3.328740
 20
-7.409449
  0
VERTEX
  8
CAPA_1
 62
    39
  6
CONTINUOUS
 10
3.358507
 20
-7.417531
  0
VERTEX
  8
CAPA_1
 62
    39
  6
CONTINUOUS
 10
3.379713
 20
-7.438737
  0
VERTEX
  8
CAPA_1
 62
    39
  6
CONTINUOUS
 10
3.387795
 20
-7.468504
  0
VERTEX
  8
CAPA_1
 62
    39
  6
CONTINUOUS
 10
3.379713
 20
-7.498271
  0
VERTEX
  8
CAPA_1
 62
    39
  6
CONTINUOUS
 10
3.358507
 20
-7.519477
  0
VERTEX
  8
CAPA_1
 62
    39
  6
CONTINUOUS
 10
3.328740
 20
-7.527559
  0
VERTEX
  8
CAPA_1
 62
    39
  6
CONTINUOUS
 10
3.298973
 20
-7.519477
  0
VERTEX
  8
CAPA_1
 62
    39
  6
CONTINUOUS
 10
3.277767
 20
-7.498271
  0
VERTEX
  8
CAPA_1
 62
    39
  6
CONTINUOUS
 10
3.269685
 20
-7.468504
  0
VERTEX
  8
CAPA_1
 62
    39
  6
CONTINUOUS
 10
3.277767
 20
-7.438737
  0
VERTEX
  8
CAPA_1
 62
    39
  6
CONTINUOUS
 10
3.298973
 20
-7.417531
  0
SEQEND
  8
0
  0
POLYLINE
  8
CAPA_1
 62
    39
  6
CONTINUOUS
 66
     1
 40
0.003000
 41
0.003000
 70
     1
  0
VERTEX
  8
CAPA_1
 62
    39
  6
CONTINUOUS
 10
1.458661
 20
-7.409449
  0
VERTEX
  8
CAPA_1
 62
    39
  6
CONTINUOUS
 10
1.488429
 20
-7.417531
  0
VERTEX
  8
CAPA_1
 62
    39
  6
CONTINUOUS
 10
1.509634
 20
-7.438737
  0
VERTEX
  8
CAPA_1
 62
    39
  6
CONTINUOUS
 10
1.517717
 20
-7.468504
  0
VERTEX
  8
CAPA_1
 62
    39
  6
CONTINUOUS
 10
1.509634
 20
-7.498271
  0
VERTEX
  8
CAPA_1
 62
    39
  6
CONTINUOUS
 10
1.488429
 20
-7.519477
  0
VERTEX
  8
CAPA_1
 62
    39
  6
CONTINUOUS
 10
1.458661
 20
-7.527559
  0
VERTEX
  8
CAPA_1
 62
    39
  6
CONTINUOUS
 10
1.428894
 20
-7.519477
  0
VERTEX
  8
CAPA_1
 62
    39
  6
CONTINUOUS
 10
1.407689
 20
-7.498271
  0
VERTEX
  8
CAPA_1
 62
    39
  6
CONTINUOUS
 10
1.399606
 20
-7.468504
  0
VERTEX
  8
CAPA_1
 62
    39
  6
CONTINUOUS
 10
1.407689
 20
-7.438737
  0
VERTEX
  8
CAPA_1
 62
    39
  6
CONTINUOUS
 10
1.428894
 20
-7.417531
  0
SEQEND
  8
0
  0
POLYLINE
  8
CAPA_1
 62
    39
  6
CONTINUOUS
 66
     1
 40
0.003000
 41
0.003000
 70
     1
  0
VERTEX
  8
CAPA_1
 62
    39
  6
CONTINUOUS
 10
-0.411417
 20
-7.409449
  0
VERTEX
  8
CAPA_1
 62
    39
  6
CONTINUOUS
 10
-0.381650
 20
-7.417531
  0
VERTEX
  8
CAPA_1
 62
    39
  6
CONTINUOUS
 10
-0.360444
 20
-7.438737
  0
VERTEX
  8
CAPA_1
 62
    39
  6
CONTINUOUS
 10
-0.352362
 20
-7.468504
  0
VERTEX
  8
CAPA_1
 62
    39
  6
CONTINUOUS
 10
-0.360444
 20
-7.498271
  0
VERTEX
  8
CAPA_1
 62
    39
  6
CONTINUOUS
 10
-0.381650
 20
-7.519477
  0
VERTEX
  8
CAPA_1
 62
    39
  6
CONTINUOUS
 10
-0.411417
 20
-7.527559
  0
VERTEX
  8
CAPA_1
 62
    39
  6
CONTINUOUS
 10
-0.441185
 20
-7.519477
  0
VERTEX
  8
CAPA_1
 62
    39
  6
CONTINUOUS
 10
-0.462390
 20
-7.498271
  0
VERTEX
  8
CAPA_1
 62
    39
  6
CONTINUOUS
 10
-0.470472
 20
-7.468504
  0
VERTEX
  8
CAPA_1
 62
    39
  6
CONTINUOUS
 10
-0.462390
 20
-7.438737
  0
VERTEX
  8
CAPA_1
 62
    39
  6
CONTINUOUS
 10
-0.441185
 20
-7.417531
  0
SEQEND
  8
0
  0
POLYLINE
  8
CAPA_1
 62
    39
  6
CONTINUOUS
 66
     1
 40
0.003000
 41
0.003000
 70
     1
  0
VERTEX
  8
CAPA_1
 62
    39
  6
CONTINUOUS
 10
-2.281496
 20
-7.409449
  0
VERTEX
  8
CAPA_1
 62
    39
  6
CONTINUOUS
 10
-2.251729
 20
-7.417531
  0
VERTEX
  8
CAPA_1
 62
    39
  6
CONTINUOUS
 10
-2.230523
 20
-7.438737
  0
VERTEX
  8
CAPA_1
 62
    39
  6
CONTINUOUS
 10
-2.222441
 20
-7.468504
  0
VERTEX
  8
CAPA_1
 62
    39
  6
CONTINUOUS
 10
-2.230523
 20
-7.498271
  0
VERTEX
  8
CAPA_1
 62
    39
  6
CONTINUOUS
 10
-2.251729
 20
-7.519477
  0
VERTEX
  8
CAPA_1
 62
    39
  6
CONTINUOUS
 10
-2.281496
 20
-7.527559
  0
VERTEX
  8
CAPA_1
 62
    39
  6
CONTINUOUS
 10
-2.311263
 20
-7.519477
  0
VERTEX
  8
CAPA_1
 62
    39
  6
CONTINUOUS
 10
-2.332469
 20
-7.498271
  0
VERTEX
  8
CAPA_1
 62
    39
  6
CONTINUOUS
 10
-2.340551
 20
-7.468504
  0
VERTEX
  8
CAPA_1
 62
    39
  6
CONTINUOUS
 10
-2.332469
 20
-7.438737
  0
VERTEX
  8
CAPA_1
 62
    39
  6
CONTINUOUS
 10
-2.311263
 20
-7.417531
  0
SEQEND
  8
0
  0
POLYLINE
  8
CAPA_1
 62
    39
  6
CONTINUOUS
 66
     1
 40
0.003000
 41
0.003000
 70
     1
  0
VERTEX
  8
CAPA_1
 62
    39
  6
CONTINUOUS
 10
-4.227890
 20
-14.159094
  0
VERTEX
  8
CAPA_1
 62
    39
  6
CONTINUOUS
 10
-0.312992
 20
-14.161417
  0
VERTEX
  8
CAPA_1
 62
    39
  6
CONTINUOUS
 10
-0.312992
 20
-17.311024
  0
VERTEX
  8
CAPA_1
 62
    39
  6
CONTINUOUS
 10
-4.250000
 20
-17.311024
  0
VERTEX
  8
CAPA_1
 62
    39
  6
CONTINUOUS
 10
-4.250000
 20
-14.161417
  0
SEQEND
  8
0
  0
POLYLINE
  8
CAPA_1
 62
    39
  6
CONTINUOUS
 66
     1
 40
0.003000
 41
0.003000
 70
     1
  0
VERTEX
  8
CAPA_1
 62
    39
  6
CONTINUOUS
 10
-2.281496
 20
-15.618681
  0
VERTEX
  8
CAPA_1
 62
    39
  6
CONTINUOUS
 10
-2.217002
 20
-15.636193
  0
VERTEX
  8
CAPA_1
 62
    39
  6
CONTINUOUS
 10
-2.171056
 20
-15.682140
  0
VERTEX
  8
CAPA_1
 62
    39
  6
CONTINUOUS
 10
-2.153543
 20
-15.746634
  0
VERTEX
  8
CAPA_1
 62
    39
  6
CONTINUOUS
 10
-2.171056
 20
-15.811128
  0
VERTEX
  8
CAPA_1
 62
    39
  6
CONTINUOUS
 10
-2.217002
 20
-15.857074
  0
VERTEX
  8
CAPA_1
 62
    39
  6
CONTINUOUS
 10
-2.281496
 20
-15.874587
  0
VERTEX
  8
CAPA_1
 62
    39
  6
CONTINUOUS
 10
-2.345990
 20
-15.857074
  0
VERTEX
  8
CAPA_1
 62
    39
  6
CONTINUOUS
 10
-2.391936
 20
-15.811128
  0
VERTEX
  8
CAPA_1
 62
    39
  6
CONTINUOUS
 10
-2.409449
 20
-15.746634
  0
VERTEX
  8
CAPA_1
 62
    39
  6
CONTINUOUS
 10
-2.392755
 20
-15.682140
  0
VERTEX
  8
CAPA_1
 62
    39
  6
CONTINUOUS
 10
-2.352539
 20
-15.636193
  0
VERTEX
  8
CAPA_1
 62
    39
  6
CONTINUOUS
 10
-2.303598
 20
-15.618681
  0
SEQEND
  8
0
  0
SOLID
  8
CAPA_1
 62
    39
  6
CONTINUOUS
 10
-4.250000
 20
-14.161417
 11
-4.226681
 21
-14.173087
 12
-4.250000
 22
-14.161417
 13
-4.226665
 23
-14.149764
  0
POLYLINE
  8
CAPA_1
 62
    39
  6
CONTINUOUS
 66
     1
 40
0.003000
 41
0.003000
 70
     1
  0
VERTEX
  8
CAPA_1
 62
    39
  6
CONTINUOUS
 10
-4.250000
 20
-14.161417
  0
VERTEX
  8
CAPA_1
 62
    39
  6
CONTINUOUS
 10
-4.226681
 20
-14.173087
  0
VERTEX
  8
CAPA_1
 62
    39
  6
CONTINUOUS
 10
-4.226665
 20
-14.149764
  0
SEQEND
  8
0
  0
SOLID
  8
CAPA_1
 62
    39
  6
CONTINUOUS
 10
-2.281496
 20
-15.618681
 11
-2.304819
 21
-15.607020
 12
-2.281496
 22
-15.618681
 13
-2.304819
 23
-15.630346
  0
POLYLINE
  8
CAPA_1
 62
    39
  6
CONTINUOUS
 66
     1
 40
0.003000
 41
0.003000
 70
     1
  0
VERTEX
  8
CAPA_1
 62
    39
  6
CONTINUOUS
 10
-2.281496
 20
-15.618681
  0
VERTEX
  8
CAPA_1
 62
    39
  6
CONTINUOUS
 10
-2.304819
 20
-15.607020
  0
VERTEX
  8
CAPA_1
 62
    39
  6
CONTINUOUS
 10
-2.304819
 20
-15.630346
  0
SEQEND
  8
0
  0
POLYLINE
  8
CAPA_1
 62
    39
  6
CONTINUOUS
 66
     1
 40
0.003000
 41
0.003000
 70
     1
  0
VERTEX
  8
CAPA_1
 62
    39
  6
CONTINUOUS
 10
0.102815
 20
-14.159094
  0
VERTEX
  8
CAPA_1
 62
    39
  6
CONTINUOUS
 10
4.017717
 20
-14.161417
  0
VERTEX
  8
CAPA_1
 62
    39
  6
CONTINUOUS
 10
4.017717
 20
-17.311024
  0
VERTEX
  8
CAPA_1
 62
    39
  6
CONTINUOUS
 10
0.080709
 20
-17.311024
  0
VERTEX
  8
CAPA_1
 62
    39
  6
CONTINUOUS
 10
0.080709
 20
-14.161417
  0
SEQEND
  8
0
  0
POLYLINE
  8
CAPA_1
 62
    39
  6
CONTINUOUS
 66
     1
 40
0.003000
 41
0.003000
 70
     1
  0
VERTEX
  8
CAPA_1
 62
    39
  6
CONTINUOUS
 10
2.049213
 20
-15.618681
  0
VERTEX
  8
CAPA_1
 62
    39
  6
CONTINUOUS
 10
2.113707
 20
-15.636193
  0
VERTEX
  8
CAPA_1
 62
    39
  6
CONTINUOUS
 10
2.159653
 20
-15.682140
  0
VERTEX
  8
CAPA_1
 62
    39
  6
CONTINUOUS
 10
2.177165
 20
-15.746634
  0
VERTEX
  8
CAPA_1
 62
    39
  6
CONTINUOUS
 10
2.159653
 20
-15.811128
  0
VERTEX
  8
CAPA_1
 62
    39
  6
CONTINUOUS
 10
2.113707
 20
-15.857074
  0
VERTEX
  8
CAPA_1
 62
    39
  6
CONTINUOUS
 10
2.049213
 20
-15.874587
  0
VERTEX
  8
CAPA_1
 62
    39
  6
CONTINUOUS
 10
1.984719
 20
-15.857074
  0
VERTEX
  8
CAPA_1
 62
    39
  6
CONTINUOUS
 10
1.938772
 20
-15.811128
  0
VERTEX
  8
CAPA_1
 62
    39
  6
CONTINUOUS
 10
1.921260
 20
-15.746634
  0
VERTEX
  8
CAPA_1
 62
    39
  6
CONTINUOUS
 10
1.937953
 20
-15.682140
  0
VERTEX
  8
CAPA_1
 62
    39
  6
CONTINUOUS
 10
1.978169
 20
-15.636193
  0
VERTEX
  8
CAPA_1
 62
    39
  6
CONTINUOUS
 10
2.027106
 20
-15.618681
  0
SEQEND
  8
0
  0
SOLID
  8
CAPA_1
 62
    39
  6
CONTINUOUS
 10
0.080709
 20
-14.161417
 11
0.104024
 21
-14.173087
 12
0.080709
 22
-14.161417
 13
0.104039
 23
-14.149764
  0
POLYLINE
  8
CAPA_1
 62
    39
  6
CONTINUOUS
 66
     1
 40
0.003000
 41
0.003000
 70
     1
  0
VERTEX
  8
CAPA_1
 62
    39
  6
CONTINUOUS
 10
0.080709
 20
-14.161417
  0
VERTEX
  8
CAPA_1
 62
    39
  6
CONTINUOUS
 10
0.104024
 20
-14.173087
  0
VERTEX
  8
CAPA_1
 62
    39
  6
CONTINUOUS
 10
0.104039
 20
-14.149764
  0
SEQEND
  8
0
  0
SOLID
  8
CAPA_1
 62
    39
  6
CONTINUOUS
 10
2.049213
 20
-15.618681
 11
2.025886
 21
-15.607020
 12
2.049213
 22
-15.618681
 13
2.025886
 23
-15.630346
  0
POLYLINE
  8
CAPA_1
 62
    39
  6
CONTINUOUS
 66
     1
 40
0.003000
 41
0.003000
 70
     1
  0
VERTEX
  8
CAPA_1
 62
    39
  6
CONTINUOUS
 10
2.049213
 20
-15.618681
  0
VERTEX
  8
CAPA_1
 62
    39
  6
CONTINUOUS
 10
2.025886
 20
-15.607020
  0
VERTEX
  8
CAPA_1
 62
    39
  6
CONTINUOUS
 10
2.025886
 20
-15.630346
  0
SEQEND
  8
0
  0
POLYLINE
  8
CAPA_1
 62
    39
  6
CONTINUOUS
 66
     1
 40
0.003000
 41
0.003000
 70
     1
  0
VERTEX
  8
CAPA_1
 62
    39
  6
CONTINUOUS
 10
-4.249996
 20
-13.767717
  0
VERTEX
  8
CAPA_1
 62
    39
  6
CONTINUOUS
 10
14.647634
 20
-13.767717
  0
VERTEX
  8
CAPA_1
 62
    39
  6
CONTINUOUS
 10
14.647634
 20
-9.830709
  0
VERTEX
  8
CAPA_1
 62
    39
  6
CONTINUOUS
 10
-4.249996
 20
-9.830709
  0
SEQEND
  8
0
  0
POLYLINE
  8
CAPA_1
 62
    39
  6
CONTINUOUS
 66
     1
 40
0.005780
 41
0.005780
  0
VERTEX
  8
CAPA_1
 62
    39
  6
CONTINUOUS
 10
10.710630
 20
-17.153543
  0
VERTEX
  8
CAPA_1
 62
    39
  6
CONTINUOUS
 10
10.710630
 20
-17.428126
  0
SEQEND
  8
0
  0
POLYLINE
  8
CAPA_1
 62
    39
  6
CONTINUOUS
 66
     1
 40
0.005780
 41
0.005780
  0
VERTEX
  8
CAPA_1
 62
    39
  6
CONTINUOUS
 10
11.104331
 20
-17.153543
  0
VERTEX
  8
CAPA_1
 62
    39
  6
CONTINUOUS
 10
11.104331
 20
-17.428126
  0
SEQEND
  8
0
  0
POLYLINE
  8
CAPA_1
 62
    39
  6
CONTINUOUS
 66
     1
 40
0.005780
 41
0.005780
  0
VERTEX
  8
CAPA_1
 62
    39
  6
CONTINUOUS
 10
11.498031
 20
-17.153543
  0
VERTEX
  8
CAPA_1
 62
    39
  6
CONTINUOUS
 10
11.498031
 20
-17.428126
  0
SEQEND
  8
0
  0
POLYLINE
  8
CAPA_1
 62
    39
  6
CONTINUOUS
 66
     1
 40
0.005780
 41
0.005780
  0
VERTEX
  8
CAPA_1
 62
    39
  6
CONTINUOUS
 10
11.891732
 20
-17.153543
  0
VERTEX
  8
CAPA_1
 62
    39
  6
CONTINUOUS
 10
11.891732
 20
-17.428126
  0
SEQEND
  8
0
  0
POLYLINE
  8
CAPA_1
 62
    39
  6
CONTINUOUS
 66
     1
 40
0.005780
 41
0.005780
  0
VERTEX
  8
CAPA_1
 62
    39
  6
CONTINUOUS
 10
12.285433
 20
-17.153543
  0
VERTEX
  8
CAPA_1
 62
    39
  6
CONTINUOUS
 10
12.285433
 20
-17.428126
  0
SEQEND
  8
0
  0
POLYLINE
  8
CAPA_1
 62
    39
  6
CONTINUOUS
 66
     1
 40
0.005780
 41
0.005780
  0
VERTEX
  8
CAPA_1
 62
    39
  6
CONTINUOUS
 10
12.679134
 20
-17.153543
  0
VERTEX
  8
CAPA_1
 62
    39
  6
CONTINUOUS
 10
12.679134
 20
-17.428126
  0
SEQEND
  8
0
  0
POLYLINE
  8
CAPA_1
 62
    39
  6
CONTINUOUS
 66
     1
 40
0.005780
 41
0.005780
  0
VERTEX
  8
CAPA_1
 62
    39
  6
CONTINUOUS
 10
13.072835
 20
-17.153543
  0
VERTEX
  8
CAPA_1
 62
    39
  6
CONTINUOUS
 10
13.072835
 20
-17.428126
  0
SEQEND
  8
0
  0
POLYLINE
  8
CAPA_1
 62
    39
  6
CONTINUOUS
 66
     1
 40
0.005780
 41
0.005780
  0
VERTEX
  8
CAPA_1
 62
    39
  6
CONTINUOUS
 10
13.466535
 20
-17.153543
  0
VERTEX
  8
CAPA_1
 62
    39
  6
CONTINUOUS
 10
13.466535
 20
-17.428126
  0
SEQEND
  8
0
  0
POLYLINE
  8
CAPA_1
 62
    39
  6
CONTINUOUS
 66
     1
 40
0.005780
 41
0.005780
  0
VERTEX
  8
CAPA_1
 62
    39
  6
CONTINUOUS
 10
13.860236
 20
-17.153543
  0
VERTEX
  8
CAPA_1
 62
    39
  6
CONTINUOUS
 10
13.860236
 20
-17.428126
  0
SEQEND
  8
0
  0
POLYLINE
  8
CAPA_1
 62
    39
  6
CONTINUOUS
 66
     1
 40
0.005780
 41
0.005780
  0
VERTEX
  8
CAPA_1
 62
    39
  6
CONTINUOUS
 10
14.253937
 20
-17.153543
  0
VERTEX
  8
CAPA_1
 62
    39
  6
CONTINUOUS
 10
14.253937
 20
-17.428126
  0
SEQEND
  8
0
  0
POLYLINE
  8
CAPA_1
 62
    39
  6
CONTINUOUS
 66
     1
 40
0.005780
 41
0.005780
  0
VERTEX
  8
CAPA_1
 62
    39
  6
CONTINUOUS
 10
14.647638
 20
-17.153543
  0
VERTEX
  8
CAPA_1
 62
    39
  6
CONTINUOUS
 10
14.647638
 20
-17.428126
  0
SEQEND
  8
0
  0
SOLID
  8
CAPA_1
 62
    39
 10
10.710630
 20
-17.232283
 11
11.104331
 21
-17.232283
 12
10.710630
 22
-17.153543
 13
11.104331
 23
-17.153543
  0
POLYLINE
  8
CAPA_1
 62
    39
  6
CONTINUOUS
 66
     1
 40
0.005780
 41
0.005780
 70
     1
  0
VERTEX
  8
CAPA_1
 62
    39
  6
CONTINUOUS
 10
10.710630
 20
-17.232283
  0
VERTEX
  8
CAPA_1
 62
    39
  6
CONTINUOUS
 10
11.104331
 20
-17.232283
  0
VERTEX
  8
CAPA_1
 62
    39
  6
CONTINUOUS
 10
11.104331
 20
-17.153543
  0
VERTEX
  8
CAPA_1
 62
    39
  6
CONTINUOUS
 10
10.710630
 20
-17.153543
  0
SEQEND
  8
0
  0
SOLID
  8
CAPA_1
 62
    39
 10
11.498031
 20
-17.232283
 11
11.891732
 21
-17.232283
 12
11.498031
 22
-17.153543
 13
11.891732
 23
-17.153543
  0
POLYLINE
  8
CAPA_1
 62
    39
  6
CONTINUOUS
 66
     1
 40
0.005780
 41
0.005780
 70
     1
  0
VERTEX
  8
CAPA_1
 62
    39
  6
CONTINUOUS
 10
11.498031
 20
-17.232283
  0
VERTEX
  8
CAPA_1
 62
    39
  6
CONTINUOUS
 10
11.891732
 20
-17.232283
  0
VERTEX
  8
CAPA_1
 62
    39
  6
CONTINUOUS
 10
11.891732
 20
-17.153543
  0
VERTEX
  8
CAPA_1
 62
    39
  6
CONTINUOUS
 10
11.498031
 20
-17.153543
  0
SEQEND
  8
0
  0
SOLID
  8
CAPA_1
 62
    39
 10
12.285433
 20
-17.232283
 11
12.679134
 21
-17.232283
 12
12.285433
 22
-17.153543
 13
12.679134
 23
-17.153543
  0
POLYLINE
  8
CAPA_1
 62
    39
  6
CONTINUOUS
 66
     1
 40
0.005780
 41
0.005780
 70
     1
  0
VERTEX
  8
CAPA_1
 62
    39
  6
CONTINUOUS
 10
12.285433
 20
-17.232283
  0
VERTEX
  8
CAPA_1
 62
    39
  6
CONTINUOUS
 10
12.679134
 20
-17.232283
  0
VERTEX
  8
CAPA_1
 62
    39
  6
CONTINUOUS
 10
12.679134
 20
-17.153543
  0
VERTEX
  8
CAPA_1
 62
    39
  6
CONTINUOUS
 10
12.285433
 20
-17.153543
  0
SEQEND
  8
0
  0
SOLID
  8
CAPA_1
 62
    39
 10
13.072835
 20
-17.232283
 11
13.466535
 21
-17.232283
 12
13.072835
 22
-17.153543
 13
13.466535
 23
-17.153543
  0
POLYLINE
  8
CAPA_1
 62
    39
  6
CONTINUOUS
 66
     1
 40
0.005780
 41
0.005780
 70
     1
  0
VERTEX
  8
CAPA_1
 62
    39
  6
CONTINUOUS
 10
13.072835
 20
-17.232283
  0
VERTEX
  8
CAPA_1
 62
    39
  6
CONTINUOUS
 10
13.466535
 20
-17.232283
  0
VERTEX
  8
CAPA_1
 62
    39
  6
CONTINUOUS
 10
13.466535
 20
-17.153543
  0
VERTEX
  8
CAPA_1
 62
    39
  6
CONTINUOUS
 10
13.072835
 20
-17.153543
  0
SEQEND
  8
0
  0
SOLID
  8
CAPA_1
 62
    39
 10
13.860236
 20
-17.232283
 11
14.253937
 21
-17.232283
 12
13.860236
 22
-17.153543
 13
14.253937
 23
-17.153543
  0
POLYLINE
  8
CAPA_1
 62
    39
  6
CONTINUOUS
 66
     1
 40
0.005780
 41
0.005780
 70
     1
  0
VERTEX
  8
CAPA_1
 62
    39
  6
CONTINUOUS
 10
13.860236
 20
-17.232283
  0
VERTEX
  8
CAPA_1
 62
    39
  6
CONTINUOUS
 10
14.253937
 20
-17.232283
  0
VERTEX
  8
CAPA_1
 62
    39
  6
CONTINUOUS
 10
14.253937
 20
-17.153543
  0
VERTEX
  8
CAPA_1
 62
    39
  6
CONTINUOUS
 10
13.860236
 20
-17.153543
  0
SEQEND
  8
0
  0
SOLID
  8
CAPA_1
 62
    39
 10
11.104331
 20
-17.311024
 11
11.498031
 21
-17.311024
 12
11.104331
 22
-17.232283
 13
11.498031
 23
-17.232283
  0
POLYLINE
  8
CAPA_1
 62
    39
  6
CONTINUOUS
 66
     1
 40
0.005780
 41
0.005780
 70
     1
  0
VERTEX
  8
CAPA_1
 62
    39
  6
CONTINUOUS
 10
11.104331
 20
-17.311024
  0
VERTEX
  8
CAPA_1
 62
    39
  6
CONTINUOUS
 10
11.498031
 20
-17.311024
  0
VERTEX
  8
CAPA_1
 62
    39
  6
CONTINUOUS
 10
11.498031
 20
-17.232283
  0
VERTEX
  8
CAPA_1
 62
    39
  6
CONTINUOUS
 10
11.104331
 20
-17.232283
  0
SEQEND
  8
0
  0
SOLID
  8
CAPA_1
 62
    39
 10
11.891732
 20
-17.311024
 11
12.285433
 21
-17.311024
 12
11.891732
 22
-17.232283
 13
12.285433
 23
-17.232283
  0
POLYLINE
  8
CAPA_1
 62
    39
  6
CONTINUOUS
 66
     1
 40
0.005780
 41
0.005780
 70
     1
  0
VERTEX
  8
CAPA_1
 62
    39
  6
CONTINUOUS
 10
11.891732
 20
-17.311024
  0
VERTEX
  8
CAPA_1
 62
    39
  6
CONTINUOUS
 10
12.285433
 20
-17.311024
  0
VERTEX
  8
CAPA_1
 62
    39
  6
CONTINUOUS
 10
12.285433
 20
-17.232283
  0
VERTEX
  8
CAPA_1
 62
    39
  6
CONTINUOUS
 10
11.891732
 20
-17.232283
  0
SEQEND
  8
0
  0
SOLID
  8
CAPA_1
 62
    39
 10
12.679134
 20
-17.311024
 11
13.072835
 21
-17.311024
 12
12.679134
 22
-17.232283
 13
13.072835
 23
-17.232283
  0
POLYLINE
  8
CAPA_1
 62
    39
  6
CONTINUOUS
 66
     1
 40
0.005780
 41
0.005780
 70
     1
  0
VERTEX
  8
CAPA_1
 62
    39
  6
CONTINUOUS
 10
12.679134
 20
-17.311024
  0
VERTEX
  8
CAPA_1
 62
    39
  6
CONTINUOUS
 10
13.072835
 20
-17.311024
  0
VERTEX
  8
CAPA_1
 62
    39
  6
CONTINUOUS
 10
13.072835
 20
-17.232283
  0
VERTEX
  8
CAPA_1
 62
    39
  6
CONTINUOUS
 10
12.679134
 20
-17.232283
  0
SEQEND
  8
0
  0
SOLID
  8
CAPA_1
 62
    39
 10
13.466535
 20
-17.311024
 11
13.860236
 21
-17.311024
 12
13.466535
 22
-17.232283
 13
13.860236
 23
-17.232283
  0
POLYLINE
  8
CAPA_1
 62
    39
  6
CONTINUOUS
 66
     1
 40
0.005780
 41
0.005780
 70
     1
  0
VERTEX
  8
CAPA_1
 62
    39
  6
CONTINUOUS
 10
13.466535
 20
-17.311024
  0
VERTEX
  8
CAPA_1
 62
    39
  6
CONTINUOUS
 10
13.860236
 20
-17.311024
  0
VERTEX
  8
CAPA_1
 62
    39
  6
CONTINUOUS
 10
13.860236
 20
-17.232283
  0
VERTEX
  8
CAPA_1
 62
    39
  6
CONTINUOUS
 10
13.466535
 20
-17.232283
  0
SEQEND
  8
0
  0
SOLID
  8
CAPA_1
 62
    39
 10
14.253937
 20
-17.311024
 11
14.647638
 21
-17.311024
 12
14.253937
 22
-17.232283
 13
14.647638
 23
-17.232283
  0
POLYLINE
  8
CAPA_1
 62
    39
  6
CONTINUOUS
 66
     1
 40
0.005780
 41
0.005780
 70
     1
  0
VERTEX
  8
CAPA_1
 62
    39
  6
CONTINUOUS
 10
14.253937
 20
-17.311024
  0
VERTEX
  8
CAPA_1
 62
    39
  6
CONTINUOUS
 10
14.647638
 20
-17.311024
  0
VERTEX
  8
CAPA_1
 62
    39
  6
CONTINUOUS
 10
14.647638
 20
-17.232283
  0
VERTEX
  8
CAPA_1
 62
    39
  6
CONTINUOUS
 10
14.253937
 20
-17.232283
  0
SEQEND
  8
0
  0
TEXT
  8
CAPA_1
 62
    39
 10
10.668268
 20
-17.540189
 40
0.136263
  1
0
 41
1.000000
  7
SN0
 71
     0
 72
     5
 11
10.760802
 21
-17.540189
  0
TEXT
  8
CAPA_1
 62
    39
 10
11.061969
 20
-17.540189
 40
0.136263
  1
1
 41
1.000000
  7
SN0
 71
     0
 72
     5
 11
11.154502
 21
-17.540189
  0
TEXT
  8
CAPA_1
 62
    39
 10
11.455669
 20
-17.540189
 40
0.136263
  1
2
 41
1.000000
  7
SN0
 71
     0
 72
     5
 11
11.548203
 21
-17.540189
  0
TEXT
  8
CAPA_1
 62
    39
 10
11.849370
 20
-17.540189
 40
0.136263
  1
3
 41
1.000000
  7
SN0
 71
     0
 72
     5
 11
11.941904
 21
-17.540189
  0
TEXT
  8
CAPA_1
 62
    39
 10
12.243071
 20
-17.540189
 40
0.136263
  1
4
 41
1.000000
  7
SN0
 71
     0
 72
     5
 11
12.335605
 21
-17.540189
  0
TEXT
  8
CAPA_1
 62
    39
 10
12.636772
 20
-17.540189
 40
0.136263
  1
5
 41
1.000000
  7
SN0
 71
     0
 72
     5
 11
12.729305
 21
-17.540189
  0
TEXT
  8
CAPA_1
 62
    39
 10
13.030472
 20
-17.540189
 40
0.136263
  1
6
 41
1.000000
  7
SN0
 71
     0
 72
     5
 11
13.123006
 21
-17.540189
  0
TEXT
  8
CAPA_1
 62
    39
 10
13.424173
 20
-17.540189
 40
0.136263
  1
7
 41
1.000000
  7
SN0
 71
     0
 72
     5
 11
13.516707
 21
-17.540189
  0
TEXT
  8
CAPA_1
 62
    39
 10
13.817874
 20
-17.540189
 40
0.136263
  1
8
 41
1.000000
  7
SN0
 71
     0
 72
     5
 11
13.910408
 21
-17.540189
  0
TEXT
  8
CAPA_1
 62
    39
 10
14.211575
 20
-17.540189
 40
0.136263
  1
9
 41
1.000000
  7
SN0
 71
     0
 72
     5
 11
14.304109
 21
-17.540189
  0
TEXT
  8
CAPA_1
 62
    39
 10
14.558929
 20
-17.540189
 40
0.136263
  1
10
 41
1.000000
  7
SN0
 71
     0
 72
     5
 11
14.743997
 21
-17.540189
  0
ENDSEC
  0
EOF
