  0
SECTION
  2
HEADER
  9
$ACADVER
  1
AC1014
  9
$HANDSEED
  5
FFFF
  9
$MEASUREMENT
 70
     1
  0
ENDSEC
  0
SECTION
  2
TABLES
  0
TABLE
  2
VPORT
  5
8
330
0
100
AcDbSymbolTable
 70
     4
  0
VPORT
  5
2E
330
8
100
AcDbSymbolTableRecord
100
AcDbViewportTableRecord
  2
*ACTIVE
 70
     0
 10
0.0
 20
0.0
 11
1.0
 21
1.0
 12
210.0
 22
148.5
 13
0.0
 23
0.0
 14
10.0
 24
10.0
 15
10.0
 25
10.0
 16
0.0
 26
0.0
 36
1.0
 17
0.0
 27
0.0
 37
0.0
 40
341.0
 41
1.24
 42
50.0
 43
0.0
 44
0.0
 50
0.0
 51
0.0
 71
     0
 72
   100
 73
     1
 74
     3
 75
     0
 76
     0
 77
     0
 78
     0
  0
ENDTAB
  0
TABLE
  2
LTYPE
  5
5
330
0
100
AcDbSymbolTable
 70
     1
  0
LTYPE
  5
14
330
5
100
AcDbSymbolTableRecord
100
AcDbLinetypeTableRecord
  2
BYBLOCK
 70
     0
  3

 72
    65
 73
     0
 40
0.0
  0
LTYPE
  5
15
330
5
100
AcDbSymbolTableRecord
100
AcDbLinetypeTableRecord
  2
BYLAYER
 70
     0
  3

 72
    65
 73
     0
 40
0.0
  0
LTYPE
  5
16
330
5
100
AcDbSymbolTableRecord
100
AcDbLinetypeTableRecord
  2
CONTINUOUS
 70
     0
  3
Solid line
 72
    65
 73
     0
 40
0.0
  0
ENDTAB
  0
TABLE
  2
LAYER
  5
2
100
AcDbSymbolTable
 70
2
  0
LAYER
  5
50
100
AcDbSymbolTableRecord
100
AcDbLayerTableRecord
  2
0
 70
0
  6
CONTINUOUS
  0
LAYER
  5
51
100
AcDbSymbolTableRecord
100
AcDbLayerTableRecord
  2
Layer_1
 70
0
  6
CONTINUOUS
  0
ENDTAB
  0
TABLE
  2
STYLE
  5
3
330
0
100
AcDbSymbolTable
 70
     1
  0
STYLE
  5
11
330
3
100
AcDbSymbolTableRecord
100
AcDbTextStyleTableRecord
  2
STANDARD
 70
     0
 40
0.0
 41
1.0
 50
0.0
 71
     0
 42
2.5
  3
txt
  4

  0
ENDTAB
  0
TABLE
  2
VIEW
  5
6
330
0
100
AcDbSymbolTable
 70
     0
  0
ENDTAB
  0
TABLE
  2
UCS
  5
7
330
0
100
AcDbSymbolTable
 70
     0
  0
ENDTAB
  0
TABLE
  2
APPID
  5
9
330
0
100
AcDbSymbolTable
 70
     2
  0
APPID
  5
12
330
9
100
AcDbSymbolTableRecord
100
AcDbRegAppTableRecord
  2
ACAD
 70
     0
  0
ENDTAB
  0
TABLE
  2
DIMSTYLE
  5
A
330
0
100
AcDbSymbolTable
 70
     1
  0
DIMSTYLE
105
27
330
A
100
AcDbSymbolTableRecord
100
AcDbDimStyleTableRecord
  2
ISO-25
 70
     0
  3

  4

  5

  6

  7

 40
1.0
 41
2.5
 42
0.625
 43
3.75
 44
1.25
 45
0.0
 46
0.0
 47
0.0
 48
0.0
140
2.5
141
2.5
142
0.0
143
0.03937007874016
144
1.0
145
0.0
146
1.0
147
0.625
 71
     0
 72
     0
 73
     0
 74
     0
 75
     0
 76
     0
 77
     1
 78
     8
170
     0
171
     3
172
     1
173
     0
174
     0
175
     0
176
     0
177
     0
178
     0
270
     2
271
     2
272
     2
273
     2
274
     3
340
11
275
     0
280
     0
281
     0
282
     0
283
     0
284
     8
285
     0
286
     0
287
     3
288
     0
  0
ENDTAB
  0
TABLE
  2
BLOCK_RECORD
  5
1
330
0
100
AcDbSymbolTable
 70
     1
  0
BLOCK_RECORD
  5
1F
330
1
100
AcDbSymbolTableRecord
100
AcDbBlockTableRecord
  2
*MODEL_SPACE
  0
BLOCK_RECORD
  5
1B
330
1
100
AcDbSymbolTableRecord
100
AcDbBlockTableRecord
  2
*PAPER_SPACE
  0
ENDTAB
  0
ENDSEC
  0
SECTION
  2
BLOCKS
  0
BLOCK
  5
20
330
1F
100
AcDbEntity
  8
0
100
AcDbBlockBegin
  2
*MODEL_SPACE
 70
     0
 10
0.0
 20
0.0
 30
0.0
  3
*MODEL_SPACE
  1

  0
ENDBLK
  5
21
330
1F
100
AcDbEntity
  8
0
100
AcDbBlockEnd
  0
BLOCK
  5
1C
330
1B
100
AcDbEntity
 67
     1
  8
0
100
AcDbBlockBegin
  2
*PAPER_SPACE
  1

  0
ENDBLK
  5
1D
330
1B
100
AcDbEntity
 67
     1
  8
0
100
AcDbBlockEnd
  0
ENDSEC
  0
SECTION
  2
ENTITIES
  0
LWPOLYLINE
  5
100
100
AcDbEntity
  8
Layer_1
 62
7
100
AcDbPolyline
 90
21
 70
1
 10
371.351120
 20
521.589044
 30
0.0
 10
375.812616
 20
521.699388
 30
0.0
 10
376.825704
 20
520.982116
 30
0.0
 10
405.234776
 20
520.982116
 30
0.0
 10
406.006760
 20
521.496772
 30
0.0
 10
410.178680
 20
521.445332
 30
0.0
 10
410.230120
 20
517.325156
 30
0.0
 10
409.664000
 20
516.501708
 30
0.0
 10
409.664000
 20
501.473716
 30
0.0
 10
410.230120
 20
500.650268
 30
0.0
 10
410.230120
 20
496.286876
 30
0.0
 10
405.646480
 20
496.338316
 30
0.0
 10
404.411296
 20
496.904436
 30
0.0
 10
377.237400
 20
496.904436
 30
0.0
 10
376.253992
 20
496.242340
 30
0.0
 10
371.461448
 20
496.242340
 30
0.0
 10
371.295920
 20
500.362772
 30
0.0
 10
372.123544
 20
501.422220
 30
0.0
 10
372.123544
 20
516.604604
 30
0.0
 10
371.351096
 20
517.522180
 30
0.0
 10
371.351120
 20
521.589044
 30
0.0
  0
LWPOLYLINE
  5
101
100
AcDbEntity
  8
Layer_1
 62
3
100
AcDbPolyline
 90
2
 70
1
 10
385.068537
 20
507.778234
 30
0.0
 10
385.068537
 20
507.778234
 30
0.0
  0
SPLINE
  5
102
100
AcDbEntity
  8
Layer_1
 62
3
100
AcDbSpline
 70
0
 71
3
 72
19
 73
15
 74
13
 40
0.000000
 40
0.000000
 40
0.000000
 40
0.000000
 40
2.030520
 40
4.000816
 40
6.031340
 40
8.061860
 40
10.032157
 40
12.062677
 40
14.093197
 40
16.063495
 40
18.094015
 40
20.124539
 40
22.094835
 40
24.125355
 40
24.125355
 40
24.125355
 40
24.125355
 10
385.068537
 20
507.778234
 30
0.0
 10
384.961800
 20
507.093639
 30
0.0
 10
384.751492
 20
505.744752
 30
0.0
 10
383.205408
 20
504.259736
 30
0.0
 10
381.188607
 20
503.709492
 30
0.0
 10
379.150631
 20
504.259737
 30
0.0
 10
377.666814
 20
505.744752
 30
0.0
 10
377.116162
 20
507.778234
 30
0.0
 10
377.666814
 20
509.811717
 30
0.0
 10
379.150631
 20
511.296732
 30
0.0
 10
381.188607
 20
511.846977
 30
0.0
 10
383.205408
 20
511.296733
 30
0.0
 10
384.751492
 20
509.811717
 30
0.0
 10
384.961800
 20
508.462830
 30
0.0
 10
385.068537
 20
507.778234
 30
0.0
 11
385.068537
 21
507.778234
 31
0.0
 11
384.538327
 21
505.818161
 31
0.0
 11
383.145118
 21
504.424950
 31
0.0
 11
381.185041
 21
503.894738
 31
0.0
 11
379.224968
 21
504.424950
 31
0.0
 11
377.831757
 21
505.818161
 31
0.0
 11
377.301545
 21
507.778234
 31
0.0
 11
377.831757
 21
509.738308
 31
0.0
 11
379.224968
 21
511.131519
 31
0.0
 11
381.185041
 21
511.661730
 31
0.0
 11
383.145118
 21
511.131519
 31
0.0
 11
384.538327
 21
509.738308
 31
0.0
 11
385.068537
 21
507.778234
 31
0.0
  0
SPLINE
  5
103
100
AcDbEntity
  8
Layer_1
 62
3
100
AcDbSpline
 70
0
 71
3
 72
10
 73
6
 74
4
 40
0.000000
 40
0.000000
 40
0.000000
 40
0.000000
 40
1.975592
 40
3.976458
 40
6.041642
 40
6.041642
 40
6.041642
 40
6.041642
 10
372.612464
 20
516.529036
 30
0.0
 10
373.121687
 20
516.946868
 30
0.0
 10
374.146649
 20
517.787877
 30
0.0
 10
375.544980
 20
519.250459
 30
0.0
 10
376.307915
 20
520.372925
 30
0.0
 10
376.695416
 20
520.943036
 30
0.0
 11
372.612464
 21
516.529036
 31
0.0
 11
374.114312
 21
517.812553
 31
0.0
 11
375.486955
 21
519.268340
 31
0.0
 11
376.695416
 21
520.943036
 31
0.0
  0
SPLINE
  5
104
100
AcDbEntity
  8
Layer_1
 62
3
100
AcDbSpline
 70
0
 71
3
 72
10
 73
6
 74
4
 40
0.000000
 40
0.000000
 40
0.000000
 40
0.000000
 40
1.975592
 40
3.976458
 40
6.041642
 40
6.041642
 40
6.041642
 40
6.041642
 10
405.165680
 20
520.777516
 30
0.0
 10
405.583512
 20
520.268292
 30
0.0
 10
406.424521
 20
519.243331
 30
0.0
 10
407.887103
 20
517.845000
 30
0.0
 10
409.009569
 20
517.082065
 30
0.0
 10
409.579680
 20
516.694564
 30
0.0
 11
405.165680
 21
520.777516
 31
0.0
 11
406.449197
 21
519.275668
 31
0.0
 11
407.904984
 21
517.903025
 31
0.0
 11
409.579680
 21
516.694564
 31
0.0
  0
SPLINE
  5
105
100
AcDbEntity
  8
Layer_1
 62
3
100
AcDbSpline
 70
0
 71
3
 72
10
 73
6
 74
4
 40
0.000000
 40
0.000000
 40
0.000000
 40
0.000000
 40
1.975592
 40
3.976458
 40
6.041642
 40
6.041642
 40
6.041642
 40
6.041642
 10
372.060712
 20
501.355924
 30
0.0
 10
372.569935
 20
500.938092
 30
0.0
 10
373.594897
 20
500.097082
 30
0.0
 10
374.993228
 20
498.634501
 30
0.0
 10
375.756163
 20
497.512035
 30
0.0
 10
376.143664
 20
496.941924
 30
0.0
 11
372.060712
 21
501.355924
 31
0.0
 11
373.562560
 21
500.072407
 31
0.0
 11
374.935203
 21
498.616619
 31
0.0
 11
376.143664
 21
496.941924
 31
0.0
  0
LWPOLYLINE
  5
106
100
AcDbEntity
  8
Layer_1
 62
3
100
AcDbPolyline
 90
5
 70
1
 10
388.952040
 20
519.687620
 30
0.0
 10
392.835535
 20
519.687620
 30
0.0
 10
392.835535
 20
513.732927
 30
0.0
 10
388.952040
 20
513.732927
 30
0.0
 10
388.952040
 20
519.687620
 30
0.0
  0
LWPOLYLINE
  5
107
100
AcDbEntity
  8
Layer_1
 62
3
100
AcDbPolyline
 90
6
 70
0
 10
386.957952
 20
508.418316
 30
0.0
 10
389.827056
 20
508.418316
 30
0.0
 10
388.061456
 20
507.204468
 30
0.0
 10
389.882224
 20
506.045796
 30
0.0
 10
387.289008
 20
505.990596
 30
0.0
 10
387.289008
 20
506.487172
 30
0.0
  0
LWPOLYLINE
  5
108
100
AcDbEntity
  8
Layer_1
 62
3
100
AcDbPolyline
 90
3
 70
0
 10
391.813352
 20
505.383700
 30
0.0
 10
391.813352
 20
508.418316
 30
0.0
 10
395.510072
 20
508.418316
 30
0.0
  0
LWPOLYLINE
  5
109
100
AcDbEntity
  8
Layer_1
 62
3
100
AcDbPolyline
 90
2
 70
0
 10
393.797176
 20
508.364004
 30
0.0
 10
393.848616
 20
505.944444
 30
0.0
  0
LWPOLYLINE
  5
10a
100
AcDbEntity
  8
Layer_1
 62
3
100
AcDbPolyline
 90
3
 70
0
 10
395.701936
 20
508.518444
 30
0.0
 10
395.856376
 20
506.819604
 30
0.0
 10
397.246336
 20
506.819604
 30
0.0
  0
LWPOLYLINE
  5
10b
100
AcDbEntity
  8
Layer_1
 62
3
100
AcDbPolyline
 90
3
 70
0
 10
397.246336
 20
505.584084
 30
0.0
 10
397.246336
 20
508.466964
 30
0.0
 10
404.813904
 20
508.312524
 30
0.0
  0
LWPOLYLINE
  5
10c
100
AcDbEntity
  8
Layer_1
 62
3
100
AcDbPolyline
 90
2
 70
0
 10
403.227608
 20
509.399412
 30
0.0
 10
403.124680
 20
506.054140
 30
0.0
  0
LWPOLYLINE
  5
10d
100
AcDbEntity
  8
Layer_1
 62
3
100
AcDbPolyline
 90
6
 70
0
 10
401.220448
 20
508.473028
 30
0.0
 10
401.220448
 20
507.289316
 30
0.0
 10
399.676480
 20
507.289316
 30
0.0
 10
399.779408
 20
505.282156
 30
0.0
 10
401.529240
 20
505.385084
 30
0.0
 10
401.529240
 20
504.046980
 30
0.0
  0
LWPOLYLINE
  5
10e
100
AcDbEntity
  8
Layer_1
 62
3
100
AcDbPolyline
 90
4
 70
1
 10
388.045224
 20
503.069132
 30
0.0
 10
393.912320
 20
503.069132
 30
0.0
 10
390.927304
 20
499.466532
 30
0.0
 10
388.045224
 20
503.069132
 30
0.0
  0
SPLINE
  5
10f
100
AcDbEntity
  8
Layer_1
 62
3
100
AcDbSpline
 70
0
 71
3
 72
10
 73
6
 74
4
 40
0.000000
 40
0.000000
 40
0.000000
 40
0.000000
 40
1.975592
 40
3.976458
 40
6.041642
 40
6.041642
 40
6.041642
 40
6.041642
 10
404.613928
 20
497.107444
 30
0.0
 10
405.031760
 20
497.616667
 30
0.0
 10
405.872769
 20
498.641629
 30
0.0
 10
407.335351
 20
500.039960
 30
0.0
 10
408.457817
 20
500.802894
 30
0.0
 10
409.027928
 20
501.190396
 30
0.0
 11
404.613928
 21
497.107444
 31
0.0
 11
405.897445
 21
498.609292
 31
0.0
 11
407.353232
 21
499.981934
 31
0.0
 11
409.027928
 21
501.190396
 31
0.0
  0
LWPOLYLINE
  5
110
100
AcDbEntity
  8
Layer_1
 62
7
100
AcDbPolyline
 90
7
 70
1
 10
93.076754
 20
798.730268
 30
0.0
 10
93.435780
 20
765.173612
 30
0.0
 10
60.537248
 20
748.143780
 30
0.0
 10
54.344576
 20
656.221188
 30
0.0
 10
60.137128
 20
640.549108
 30
0.0
 10
68.816568
 20
644.601668
 30
0.0
 10
59.751880
 20
666.737508
 30
0.0
  0
LWPOLYLINE
  5
111
100
AcDbEntity
  8
Layer_1
 62
7
100
AcDbPolyline
 90
19
 70
1
 10
62.522072
 20
667.790228
 30
0.0
 10
102.644015
 20
569.234628
 30
0.0
 10
108.651378
 20
568.290468
 30
0.0
 10
108.264334
 20
541.826468
 30
0.0
 10
89.556524
 20
532.455588
 30
0.0
 10
89.496540
 20
496.138628
 30
0.0
 10
73.817632
 20
496.155428
 30
0.0
 10
74.446624
 20
543.447188
 30
0.0
 10
27.082456
 20
656.438868
 30
0.0
 10
27.517728
 20
694.973828
 30
0.0
 10
42.080216
 20
695.094788
 30
0.0
 10
42.370408
 20
746.184260
 30
0.0
 10
29.058208
 20
746.124580
 30
0.0
 10
16.125984
 20
761.416260
 30
0.0
 10
16.535472
 20
792.629228
 30
0.0
 10
11.261984
 20
797.200988
 30
0.0
 10
18.720320
 20
804.899596
 30
0.0
 10
22.788072
 20
799.238068
 30
0.0
 10
93.076754
 20
798.730268
 30
0.0
  0
LWPOLYLINE
  5
112
100
AcDbEntity
  8
Layer_1
 62
3
100
AcDbPolyline
 90
2
 70
0
 10
22.702824
 20
797.364716
 30
0.0
 10
92.146341
 20
797.364716
 30
0.0
  0
LWPOLYLINE
  5
113
100
AcDbEntity
  8
Layer_1
 62
3
100
AcDbPolyline
 90
2
 70
0
 10
24.565296
 20
795.768308
 30
0.0
 10
92.134816
 20
795.768308
 30
0.0
  0
LWPOLYLINE
  5
114
100
AcDbEntity
  8
Layer_1
 62
3
100
AcDbPolyline
 90
2
 70
0
 10
25.629560
 20
793.905844
 30
0.0
 10
92.238980
 20
793.905844
 30
0.0
  0
LWPOLYLINE
  5
115
100
AcDbEntity
  8
Layer_1
 62
3
100
AcDbPolyline
 90
4
 70
0
 10
93.106725
 20
785.467852
 30
0.0
 10
90.494213
 20
783.072284
 30
0.0
 10
85.007592
 20
783.072284
 30
0.0
 10
93.111342
 20
790.503076
 30
0.0
  0
LWPOLYLINE
  5
116
100
AcDbEntity
  8
Layer_1
 62
3
100
AcDbPolyline
 90
5
 70
1
 10
88.505632
 20
792.431820
 30
0.0
 10
78.298480
 20
783.072284
 30
0.0
 10
72.811864
 20
783.072284
 30
0.0
 10
83.019016
 20
792.431820
 30
0.0
 10
88.505632
 20
792.431820
 30
0.0
  0
LWPOLYLINE
  5
117
100
AcDbEntity
  8
Layer_1
 62
3
100
AcDbPolyline
 90
5
 70
1
 10
77.936000
 20
792.431820
 30
0.0
 10
67.728840
 20
783.072284
 30
0.0
 10
62.242224
 20
783.072284
 30
0.0
 10
72.449384
 20
792.431820
 30
0.0
 10
77.936000
 20
792.431820
 30
0.0
  0
LWPOLYLINE
  5
118
100
AcDbEntity
  8
Layer_1
 62
3
100
AcDbPolyline
 90
5
 70
1
 10
67.366360
 20
792.431820
 30
0.0
 10
57.159208
 20
783.072284
 30
0.0
 10
51.672584
 20
783.072284
 30
0.0
 10
61.879744
 20
792.431820
 30
0.0
 10
67.366360
 20
792.431820
 30
0.0
  0
LWPOLYLINE
  5
119
100
AcDbEntity
  8
Layer_1
 62
3
100
AcDbPolyline
 90
5
 70
1
 10
56.796728
 20
792.431820
 30
0.0
 10
46.589568
 20
783.072284
 30
0.0
 10
41.102952
 20
783.072284
 30
0.0
 10
51.310104
 20
792.431820
 30
0.0
 10
56.796728
 20
792.431820
 30
0.0
  0
LWPOLYLINE
  5
11a
100
AcDbEntity
  8
Layer_1
 62
3
100
AcDbPolyline
 90
5
 70
1
 10
45.414040
 20
792.431820
 30
0.0
 10
35.206880
 20
783.072284
 30
0.0
 10
29.720264
 20
783.072284
 30
0.0
 10
39.927424
 20
792.431820
 30
0.0
 10
45.414040
 20
792.431820
 30
0.0
  0
LWPOLYLINE
  5
11b
100
AcDbEntity
  8
Layer_1
 62
3
100
AcDbPolyline
 90
5
 70
1
 10
34.031352
 20
792.431820
 30
0.0
 10
23.824192
 20
783.072284
 30
0.0
 10
18.337576
 20
783.072284
 30
0.0
 10
28.544736
 20
792.431820
 30
0.0
 10
34.031352
 20
792.431820
 30
0.0
  0
LWPOLYLINE
  5
11c
100
AcDbEntity
  8
Layer_1
 62
3
100
AcDbPolyline
 90
4
 70
0
 10
16.447464
 20
790.285508
 30
0.0
 10
18.788144
 20
792.431820
 30
0.0
 10
24.274768
 20
792.431820
 30
0.0
 10
16.341152
 20
785.157036
 30
0.0
  0
SPLINE
  5
11d
100
AcDbEntity
  8
Layer_1
 62
7
100
AcDbSpline
 70
0
 71
3
 72
10
 73
6
 74
4
 40
0.000000
 40
0.000000
 40
0.000000
 40
0.000000
 40
1.174861
 40
2.156022
 40
3.187278
 40
3.187278
 40
3.187278
 40
3.187278
 10
59.751880
 20
666.737508
 30
0.0
 10
59.985179
 20
667.070199
 30
0.0
 10
60.413314
 20
667.680731
 30
0.0
 10
61.518892
 20
667.921653
 30
0.0
 10
62.182175
 20
667.834757
 30
0.0
 10
62.522072
 20
667.790228
 30
0.0
 11
59.751880
 21
666.737508
 31
0.0
 11
60.546718
 21
667.602684
 31
0.0
 11
61.493250
 21
667.861051
 31
0.0
 11
62.522072
 21
667.790228
 31
0.0
  0
SPLINE
  5
11e
100
AcDbEntity
  8
Layer_1
 62
3
100
AcDbSpline
 70
0
 71
3
 72
10
 73
6
 74
4
 40
0.000000
 40
0.000000
 40
0.000000
 40
0.000000
 40
3.708017
 40
5.482635
 40
8.251075
 40
8.251075
 40
8.251075
 40
8.251075
 10
64.960232
 20
763.276620
 30
0.0
 10
65.631230
 20
762.266750
 30
0.0
 10
66.623360
 20
760.773567
 30
0.0
 10
69.288653
 20
759.109578
 30
0.0
 10
70.482835
 20
760.416414
 30
0.0
 10
71.210544
 20
761.212772
 30
0.0
 11
64.960232
 21
763.276620
 31
0.0
 11
67.329497
 21
760.424257
 31
0.0
 11
68.925919
 21
759.649203
 31
0.0
 11
71.210544
 21
761.212772
 31
0.0
  0
LWPOLYLINE
  5
11f
100
AcDbEntity
  8
Layer_1
 62
3
100
AcDbPolyline
 90
7
 70
1
 10
77.499480
 20
778.016580
 30
0.0
 10
75.071552
 20
777.967860
 30
0.0
 10
74.984208
 20
767.186356
 30
0.0
 10
67.451528
 20
767.084316
 30
0.0
 10
67.606896
 20
781.032724
 30
0.0
 10
65.032872
 20
781.032724
 30
0.0
 10
64.960232
 20
763.276620
 30
0.0
  0
LWPOLYLINE
  5
120
100
AcDbEntity
  8
Layer_1
 62
3
100
AcDbPolyline
 90
2
 70
1
 10
77.456216
 20
762.854580
 30
0.0
 10
77.499480
 20
778.016580
 30
0.0
  0
LWPOLYLINE
  5
121
100
AcDbEntity
  8
Layer_1
 62
3
100
AcDbPolyline
 90
5
 70
1
 10
72.642272
 20
778.506788
 30
0.0
 10
72.642272
 20
770.610332
 30
0.0
 10
70.109448
 20
770.610332
 30
0.0
 10
70.109448
 20
778.506788
 30
0.0
 10
72.642272
 20
778.506788
 30
0.0
  0
LWPOLYLINE
  5
122
100
AcDbEntity
  8
Layer_1
 62
3
100
AcDbPolyline
 90
2
 70
0
 10
89.486066
 20
551.924388
 30
0.0
 10
83.823224
 20
556.247348
 30
0.0
  0
LWPOLYLINE
  5
123
100
AcDbEntity
  8
Layer_1
 62
3
100
AcDbPolyline
 90
2
 70
0
 10
83.823224
 20
560.108388
 30
0.0
 10
89.486066
 20
555.785428
 30
0.0
  0
LWPOLYLINE
  5
124
100
AcDbEntity
  8
Layer_1
 62
3
100
AcDbPolyline
 90
2
 70
0
 10
89.486066
 20
541.354788
 30
0.0
 10
83.823224
 20
545.677668
 30
0.0
  0
LWPOLYLINE
  5
125
100
AcDbEntity
  8
Layer_1
 62
3
100
AcDbPolyline
 90
2
 70
0
 10
83.823224
 20
549.538708
 30
0.0
 10
89.486066
 20
545.215828
 30
0.0
  0
LWPOLYLINE
  5
126
100
AcDbEntity
  8
Layer_1
 62
3
100
AcDbPolyline
 90
2
 70
0
 10
89.486066
 20
530.785108
 30
0.0
 10
83.823224
 20
535.108068
 30
0.0
  0
LWPOLYLINE
  5
127
100
AcDbEntity
  8
Layer_1
 62
3
100
AcDbPolyline
 90
2
 70
0
 10
83.823224
 20
538.969108
 30
0.0
 10
89.486066
 20
534.646148
 30
0.0
  0
LWPOLYLINE
  5
128
100
AcDbEntity
  8
Layer_1
 62
3
100
AcDbPolyline
 90
2
 70
0
 10
89.486066
 20
521.028548
 30
0.0
 10
83.823224
 20
525.351428
 30
0.0
  0
LWPOLYLINE
  5
129
100
AcDbEntity
  8
Layer_1
 62
3
100
AcDbPolyline
 90
2
 70
0
 10
83.823224
 20
529.212468
 30
0.0
 10
89.486066
 20
524.889588
 30
0.0
  0
LWPOLYLINE
  5
12a
100
AcDbEntity
  8
Layer_1
 62
3
100
AcDbPolyline
 90
2
 70
0
 10
89.486066
 20
509.645828
 30
0.0
 10
83.823224
 20
513.968788
 30
0.0
  0
LWPOLYLINE
  5
12b
100
AcDbEntity
  8
Layer_1
 62
3
100
AcDbPolyline
 90
2
 70
0
 10
83.823224
 20
517.829828
 30
0.0
 10
89.486066
 20
513.506948
 30
0.0
  0
LWPOLYLINE
  5
12c
100
AcDbEntity
  8
Layer_1
 62
3
100
AcDbPolyline
 90
2
 70
0
 10
89.486066
 20
499.889268
 30
0.0
 10
83.823224
 20
504.212148
 30
0.0
  0
LWPOLYLINE
  5
12d
100
AcDbEntity
  8
Layer_1
 62
3
100
AcDbPolyline
 90
2
 70
0
 10
83.823224
 20
508.073268
 30
0.0
 10
89.486066
 20
503.750308
 30
0.0
  0
LWPOLYLINE
  5
12e
100
AcDbEntity
  8
Layer_1
 62
3
100
AcDbPolyline
 90
4
 70
0
 10
83.875576
 20
496.203508
 30
0.0
 10
83.875576
 20
562.568708
 30
0.0
 10
89.547458
 20
562.568708
 30
0.0
 10
89.547458
 20
532.444628
 30
0.0
  0
LWPOLYLINE
  5
12f
100
AcDbEntity
  8
Layer_1
 62
5
100
AcDbPolyline
 90
5
 70
1
 10
70.155824
 20
642.015668
 30
0.0
 10
88.590767
 20
597.411028
 30
0.0
 10
78.757104
 20
593.233988
 30
0.0
 10
60.925912
 20
637.771508
 30
0.0
 10
70.155824
 20
642.015668
 30
0.0
  0
LWPOLYLINE
  5
130
100
AcDbEntity
  8
Layer_1
 62
5
100
AcDbPolyline
 90
5
 70
1
 10
89.366900
 20
594.804148
 30
0.0
 10
99.868431
 20
569.394948
 30
0.0
 10
87.842296
 20
571.314228
 30
0.0
 10
80.136984
 20
590.559988
 30
0.0
 10
89.366900
 20
594.804148
 30
0.0
  0
SPLINE
  5
131
100
AcDbEntity
  8
Layer_1
 62
3
100
AcDbSpline
 70
0
 71
3
 72
10
 73
6
 74
4
 40
0.000000
 40
0.000000
 40
0.000000
 40
0.000000
 40
2.759810
 40
4.836263
 40
8.345894
 40
8.345894
 40
8.345894
 40
8.345894
 10
71.210544
 20
761.212772
 30
0.0
 10
71.834490
 20
760.329107
 30
0.0
 10
72.927886
 20
758.780583
 30
0.0
 10
75.795437
 20
760.405867
 30
0.0
 10
76.815395
 20
761.909731
 30
0.0
 10
77.456216
 20
762.854580
 30
0.0
 11
71.210544
 21
761.212772
 31
0.0
 11
73.267439
 21
759.372735
 31
0.0
 11
75.178745
 21
760.184254
 31
0.0
 11
77.456216
 21
762.854580
 31
0.0
  0
LWPOLYLINE
  5
132
100
AcDbEntity
  8
Layer_1
 62
3
100
AcDbPolyline
 90
2
 70
0
 10
102.602805
 20
569.383428
 30
0.0
 10
102.692256
 20
545.283988
 30
0.0
  0
LWPOLYLINE
  5
133
100
AcDbEntity
  8
Layer_1
 62
3
100
AcDbPolyline
 90
3
 70
0
 10
100.719369
 20
545.275188
 30
0.0
 10
100.710225
 20
567.031988
 30
0.0
 10
99.840454
 20
569.508788
 30
0.0
  0
LWPOLYLINE
  5
134
100
AcDbEntity
  8
Layer_1
 62
3
100
AcDbPolyline
 90
5
 70
0
 10
91.201166
 20
782.921972
 30
0.0
 10
91.748060
 20
766.697460
 30
0.0
 10
59.116728
 20
749.379148
 30
0.0
 10
52.918592
 20
654.766468
 30
0.0
 10
58.022936
 20
639.635748
 30
0.0
  0
LWPOLYLINE
  5
135
100
AcDbEntity
  8
Layer_1
 62
3
100
AcDbPolyline
 90
2
 70
0
 10
59.299024
 20
637.995028
 30
0.0
 10
77.164224
 20
592.420548
 30
0.0
  0
LWPOLYLINE
  5
136
100
AcDbEntity
  8
Layer_1
 62
3
100
AcDbPolyline
 90
3
 70
0
 10
78.440312
 20
590.233028
 30
0.0
 10
85.914528
 20
569.997908
 30
0.0
 10
100.316068
 20
567.810308
 30
0.0
  0
LWPOLYLINE
  5
137
100
AcDbEntity
  8
Layer_1
 62
3
100
AcDbPolyline
 90
4
 70
0
 10
102.868237
 20
567.628068
 30
0.0
 10
106.878796
 20
566.534228
 30
0.0
 10
106.331902
 20
542.470948
 30
0.0
 10
89.925082
 20
534.449828
 30
0.0
  0
SPLINE
  5
138
100
AcDbEntity
  8
Layer_1
 62
3
100
AcDbSpline
 70
0
 71
3
 72
10
 73
6
 74
4
 40
0.000000
 40
0.000000
 40
0.000000
 40
0.000000
 40
0.896426
 40
1.749094
 40
2.574433
 40
2.574433
 40
2.574433
 40
2.574433
 10
102.692256
 20
545.283988
 30
0.0
 10
102.520038
 20
545.026075
 30
0.0
 10
102.184008
 20
544.522838
 30
0.0
 10
101.126068
 20
544.474845
 30
0.0
 10
100.853455
 20
545.011320
 30
0.0
 10
100.719369
 20
545.275188
 30
0.0
 11
102.692256
 21
545.283988
 31
0.0
 11
102.075068
 21
544.633866
 31
0.0
 11
101.222497
 21
544.620936
 31
0.0
 11
100.719369
 21
545.275188
 31
0.0
  0
LWPOLYLINE
  5
139
100
AcDbEntity
  8
Layer_1
 62
3
100
AcDbPolyline
 90
10
 70
0
 10
83.726952
 20
497.443348
 30
0.0
 10
75.705840
 20
497.443348
 30
0.0
 10
75.888136
 20
543.747028
 30
0.0
 10
29.219856
 20
655.677988
 30
0.0
 10
29.584456
 20
693.049028
 30
0.0
 10
43.985992
 20
693.231348
 30
0.0
 10
43.803696
 20
748.467636
 30
0.0
 10
29.949048
 20
748.467636
 30
0.0
 10
18.099680
 20
762.322276
 30
0.0
 10
18.464272
 20
782.739644
 30
0.0
  0
SPLINE
  5
13a
100
AcDbEntity
  8
Layer_1
 62
3
100
AcDbSpline
 70
0
 71
3
 72
19
 73
15
 74
13
 40
0.000000
 40
0.000000
 40
0.000000
 40
0.000000
 40
4.375020
 40
8.620277
 40
12.995298
 40
17.370318
 40
21.615573
 40
25.990590
 40
30.365610
 40
34.610866
 40
38.985880
 40
43.360900
 40
47.606158
 40
51.981175
 40
51.981175
 40
51.981175
 40
51.981175
 10
29.470624
 20
765.249780
 30
0.0
 10
29.201044
 20
766.718109
 30
0.0
 10
28.669880
 20
769.611218
 30
0.0
 10
30.758871
 20
773.730813
 30
0.0
 10
34.469818
 20
776.283744
 30
0.0
 10
39.006172
 20
776.613363
 30
0.0
 10
43.079917
 20
774.647737
 30
0.0
 10
45.645526
 20
770.903143
 30
0.0
 10
45.971133
 20
766.375638
 30
0.0
 10
44.008790
 20
762.300310
 30
0.0
 10
40.254776
 20
759.732334
 30
0.0
 10
35.761492
 20
759.417760
 30
0.0
 10
31.561098
 20
761.339123
 30
0.0
 10
30.174407
 20
763.933211
 30
0.0
 10
29.470624
 20
765.249780
 30
0.0
 11
29.470624
 21
765.249780
 31
0.0
 11
29.155638
 21
769.613446
 31
0.0
 11
30.998951
 21
773.437633
 31
0.0
 11
34.608760
 21
775.909492
 31
0.0
 11
38.972426
 21
776.224478
 31
0.0
 11
42.796611
 21
774.381165
 31
0.0
 11
45.268464
 21
770.771356
 31
0.0
 11
45.583454
 21
766.407690
 31
0.0
 11
43.740141
 21
762.583505
 31
0.0
 11
40.130336
 21
760.111652
 31
0.0
 11
35.766670
 21
759.796662
 31
0.0
 11
31.942482
 21
761.639975
 31
0.0
 11
29.470624
 21
765.249780
 31
0.0
  0
LWPOLYLINE
  5
13b
100
AcDbEntity
  8
Layer_1
 62
3
100
AcDbPolyline
 90
2
 70
1
 10
29.470624
 20
765.249780
 30
0.0
 10
29.470624
 20
765.249780
 30
0.0
  0
LWPOLYLINE
  5
13c
100
AcDbEntity
  8
Layer_1
 62
3
100
AcDbPolyline
 90
2
 70
1
 10
41.701408
 20
770.926684
 30
0.0
 10
41.701408
 20
770.926684
 30
0.0
  0
SPLINE
  5
13d
100
AcDbEntity
  8
Layer_1
 62
3
100
AcDbSpline
 70
0
 71
3
 72
19
 73
15
 74
13
 40
0.000000
 40
0.000000
 40
0.000000
 40
0.000000
 40
2.784081
 40
5.485588
 40
8.269668
 40
11.053752
 40
13.755258
 40
16.539338
 40
19.323416
 40
22.024922
 40
24.809007
 40
27.593088
 40
30.294594
 40
33.078673
 40
33.078673
 40
33.078673
 40
33.078673
 10
41.701408
 20
770.926684
 30
0.0
 10
41.058028
 20
771.625658
 30
0.0
 10
39.790350
 20
773.002874
 30
0.0
 10
36.896387
 20
773.517282
 30
0.0
 10
34.178266
 20
772.607490
 30
0.0
 10
32.274667
 20
770.427208
 30
0.0
 10
31.715087
 20
767.603764
 30
0.0
 10
32.637130
 20
764.866321
 30
0.0
 10
34.814449
 20
762.968152
 30
0.0
 10
37.637440
 20
762.406295
 30
0.0
 10
40.379698
 20
763.332219
 30
0.0
 10
42.259157
 20
765.496369
 30
0.0
 10
42.889711
 20
768.367262
 30
0.0
 10
42.101464
 20
770.065025
 30
0.0
 10
41.701408
 20
770.926684
 30
0.0
 11
41.701408
 21
770.926684
 31
0.0
 11
39.603323
 21
772.756752
 31
0.0
 11
36.953573
 21
773.283021
 31
0.0
 11
34.315376
 21
772.393628
 31
0.0
 11
32.485304
 21
770.295543
 31
0.0
 11
31.959037
 21
767.645793
 31
0.0
 11
32.848432
 21
765.007596
 31
0.0
 11
34.946511
 21
763.177528
 31
0.0
 11
37.596262
 21
762.651259
 31
0.0
 11
40.234464
 21
763.540652
 31
0.0
 11
42.064530
 21
765.638737
 31
0.0
 11
42.590798
 21
768.288487
 31
0.0
 11
41.701408
 21
770.926684
 31
0.0
  0
SPLINE
  5
13e
100
AcDbEntity
  8
Layer_1
 62
3
100
AcDbSpline
 70
0
 71
3
 72
10
 73
6
 74
4
 40
0.000000
 40
0.000000
 40
0.000000
 40
0.000000
 40
0.349859
 40
0.685904
 40
1.039601
 40
1.039601
 40
1.039601
 40
1.039601
 10
40.389504
 20
770.063348
 30
0.0
 10
40.439956
 20
769.957697
 30
0.0
 10
40.538868
 20
769.750567
 30
0.0
 10
40.790328
 20
769.497804
 30
0.0
 10
41.003417
 20
769.407259
 30
0.0
 10
41.112688
 20
769.360828
 30
0.0
 11
40.389504
 21
770.063348
 31
0.0
 11
40.558290
 21
769.756897
 31
0.0
 11
40.797038
 21
769.520410
 31
0.0
 11
41.112688
 21
769.360828
 31
0.0
  0
SPLINE
  5
13f
100
AcDbEntity
  8
Layer_1
 62
3
100
AcDbSpline
 70
0
 71
3
 72
10
 73
6
 74
4
 40
0.000000
 40
0.000000
 40
0.000000
 40
0.000000
 40
0.974808
 40
1.966989
 40
2.997368
 40
2.997368
 40
2.997368
 40
2.997368
 10
41.009376
 20
769.092212
 30
0.0
 10
40.997209
 20
768.767494
 30
0.0
 10
40.972657
 20
768.112272
 30
0.0
 10
41.034052
 20
767.111102
 30
0.0
 10
41.181972
 20
766.452399
 30
0.0
 10
41.257328
 20
766.116828
 30
0.0
 11
41.009376
 21
769.092212
 31
0.0
 11
40.988799
 21
768.117621
 31
0.0
 11
41.058897
 21
767.127920
 31
0.0
 11
41.257328
 21
766.116828
 31
0.0
  0
SPLINE
  5
140
100
AcDbEntity
  8
Layer_1
 62
3
100
AcDbSpline
 70
0
 71
3
 72
10
 73
6
 74
4
 40
0.000000
 40
0.000000
 40
0.000000
 40
0.000000
 40
0.323669
 40
0.567371
 40
1.098276
 40
1.098276
 40
1.098276
 40
1.098276
 10
41.257328
 20
766.116828
 30
0.0
 10
41.162867
 20
766.021379
 30
0.0
 10
40.997282
 20
765.854064
 30
0.0
 10
40.723657
 20
766.222889
 30
0.0
 10
40.746070
 20
766.478713
 30
0.0
 10
40.761432
 20
766.654052
 30
0.0
 11
41.257328
 21
766.116828
 31
0.0
 11
40.981829
 21
765.946940
 31
0.0
 11
40.816531
 21
766.126014
 31
0.0
 11
40.761432
 21
766.654052
 31
0.0
  0
SPLINE
  5
141
100
AcDbEntity
  8
Layer_1
 62
3
100
AcDbSpline
 70
0
 71
3
 72
10
 73
6
 74
4
 40
0.000000
 40
0.000000
 40
0.000000
 40
0.000000
 40
0.930389
 40
1.829626
 40
2.612210
 40
2.612210
 40
2.612210
 40
2.612210
 10
39.872944
 20
769.340164
 30
0.0
 10
39.892402
 20
769.030987
 30
0.0
 10
39.930667
 20
768.422985
 30
0.0
 10
39.972165
 20
767.548452
 30
0.0
 10
40.130068
 20
767.008578
 30
0.0
 10
40.203544
 20
766.757364
 30
0.0
 11
39.872944
 21
769.340164
 31
0.0
 11
39.928940
 21
768.411461
 31
0.0
 11
40.011522
 21
767.516024
 31
0.0
 11
40.203544
 21
766.757364
 31
0.0
  0
SPLINE
  5
142
100
AcDbEntity
  8
Layer_1
 62
3
100
AcDbSpline
 70
0
 71
3
 72
10
 73
6
 74
4
 40
0.000000
 40
0.000000
 40
0.000000
 40
0.000000
 40
0.955655
 40
1.911216
 40
2.553629
 40
2.553629
 40
2.553629
 40
2.553629
 10
40.038248
 20
767.666508
 30
0.0
 10
39.721637
 20
767.696189
 30
0.0
 10
39.088445
 20
767.755550
 30
0.0
 10
38.226098
 20
767.747342
 30
0.0
 10
37.720642
 20
767.925490
 30
0.0
 10
37.517440
 20
767.997108
 30
0.0
 11
40.038248
 21
767.666508
 31
0.0
 11
39.085359
 21
767.739175
 31
0.0
 11
38.132569
 21
767.811875
 31
0.0
 11
37.517440
 21
767.997108
 31
0.0
  0
SPLINE
  5
143
100
AcDbEntity
  8
Layer_1
 62
3
100
AcDbSpline
 70
0
 71
3
 72
10
 73
6
 74
4
 40
0.000000
 40
0.000000
 40
0.000000
 40
0.000000
 40
0.368334
 40
0.651610
 40
0.927280
 40
0.927280
 40
0.927280
 40
0.927280
 10
37.517440
 20
767.997108
 30
0.0
 10
37.622174
 20
768.067335
 30
0.0
 10
37.807456
 20
768.191572
 30
0.0
 10
37.927564
 20
768.485537
 30
0.0
 10
37.998845
 20
768.656592
 30
0.0
 10
38.034000
 20
768.740956
 30
0.0
 11
37.517440
 21
767.997108
 31
0.0
 11
37.799407
 21
768.234098
 31
0.0
 11
37.928262
 21
768.486371
 31
0.0
 11
38.034000
 21
768.740956
 31
0.0
  0
SPLINE
  5
144
100
AcDbEntity
  8
Layer_1
 62
3
100
AcDbSpline
 70
0
 71
3
 72
10
 73
6
 74
4
 40
0.000000
 40
0.000000
 40
0.000000
 40
0.000000
 40
0.530611
 40
1.190144
 40
1.851526
 40
1.851526
 40
1.851526
 40
1.851526
 10
36.938888
 20
769.236852
 30
0.0
 10
36.792824
 20
769.124823
 30
0.0
 10
36.465206
 20
768.873547
 30
0.0
 10
35.815768
 20
768.990215
 30
0.0
 10
35.380078
 20
768.975569
 30
0.0
 10
35.161928
 20
768.968236
 30
0.0
 11
36.938888
 21
769.236852
 31
0.0
 11
36.482838
 21
768.965619
 31
0.0
 11
35.823306
 21
768.965697
 31
0.0
 11
35.161928
 21
768.968236
 31
0.0
  0
LWPOLYLINE
  5
145
100
AcDbEntity
  8
Layer_1
 62
3
100
AcDbPolyline
 90
2
 70
0
 10
42.166472
 20
768.307044
 30
0.0
 10
41.546600
 20
767.790484
 30
0.0
  0
LWPOLYLINE
  5
146
100
AcDbEntity
  8
Layer_1
 62
3
100
AcDbPolyline
 90
2
 70
0
 10
36.257032
 20
769.629436
 30
0.0
 10
36.422328
 20
768.245060
 30
0.0
  0
SPLINE
  5
147
100
AcDbEntity
  8
Layer_1
 62
3
100
AcDbSpline
 70
0
 71
3
 72
10
 73
6
 74
4
 40
0.000000
 40
0.000000
 40
0.000000
 40
0.000000
 40
0.622654
 40
1.156022
 40
1.697575
 40
1.697575
 40
1.697575
 40
1.697575
 10
34.913976
 20
770.311292
 30
0.0
 10
34.930056
 20
770.103515
 30
0.0
 10
34.959910
 20
769.717756
 30
0.0
 10
35.175436
 20
769.182264
 30
0.0
 10
35.152712
 20
768.820103
 30
0.0
 10
35.141264
 20
768.637644
 30
0.0
 11
34.913976
 21
770.311292
 31
0.0
 11
34.996135
 21
769.694082
 31
0.0
 11
35.135201
 21
769.179163
 31
0.0
 11
35.141264
 21
768.637644
 31
0.0
  0
LWPOLYLINE
  5
148
100
AcDbEntity
  8
Layer_1
 62
3
100
AcDbPolyline
 90
2
 70
0
 10
35.637160
 20
769.608772
 30
0.0
 10
35.802456
 20
768.554996
 30
0.0
  0
SPLINE
  5
149
100
AcDbEntity
  8
Layer_1
 62
3
100
AcDbSpline
 70
0
 71
3
 72
10
 73
6
 74
4
 40
0.000000
 40
0.000000
 40
0.000000
 40
0.000000
 40
0.506397
 40
0.938147
 40
1.227897
 40
1.227897
 40
1.227897
 40
1.227897
 10
37.042200
 20
767.294588
 30
0.0
 10
36.881251
 20
767.339846
 30
0.0
 10
36.583078
 20
767.423692
 30
0.0
 10
36.168733
 20
767.527719
 30
0.0
 10
36.010601
 20
767.715195
 30
0.0
 10
35.947096
 20
767.790484
 30
0.0
 11
37.042200
 21
767.294588
 31
0.0
 11
36.553993
 21
767.429091
 31
0.0
 11
36.151373
 21
767.584994
 31
0.0
 11
35.947096
 21
767.790484
 31
0.0
  0
LWPOLYLINE
  5
14a
100
AcDbEntity
  8
Layer_1
 62
3
100
AcDbPolyline
 90
2
 70
0
 10
36.215704
 20
767.542532
 30
0.0
 10
36.504984
 20
766.612732
 30
0.0
  0
SPLINE
  5
14b
100
AcDbEntity
  8
Layer_1
 62
3
100
AcDbSpline
 70
0
 71
3
 72
10
 73
6
 74
4
 40
0.000000
 40
0.000000
 40
0.000000
 40
0.000000
 40
0.353897
 40
0.715060
 40
1.090290
 40
1.090290
 40
1.090290
 40
1.090290
 10
36.504984
 20
766.612732
 30
0.0
 10
36.383170
 20
766.626988
 30
0.0
 10
36.137040
 20
766.655793
 30
0.0
 10
35.896073
 20
766.954290
 30
0.0
 10
35.738245
 20
767.138653
 30
0.0
 10
35.657824
 20
767.232596
 30
0.0
 11
36.504984
 21
766.612732
 31
0.0
 11
36.161119
 21
766.696397
 31
0.0
 11
35.900367
 21
766.946290
 31
0.0
 11
35.657824
 21
767.232596
 31
0.0
  0
SPLINE
  5
14c
100
AcDbEntity
  8
Layer_1
 62
3
100
AcDbSpline
 70
0
 71
3
 72
10
 73
6
 74
4
 40
0.000000
 40
0.000000
 40
0.000000
 40
0.000000
 40
0.849254
 40
1.653380
 40
2.449599
 40
2.449599
 40
2.449599
 40
2.449599
 10
34.769336
 20
768.059092
 30
0.0
 10
34.750277
 20
767.774644
 30
0.0
 10
34.713172
 20
767.220863
 30
0.0
 10
34.943726
 20
766.423499
 30
0.0
 10
34.910061
 20
765.887572
 30
0.0
 10
34.893312
 20
765.620932
 30
0.0
 11
34.769336
 21
768.059092
 31
0.0
 11
34.763005
 21
767.209862
 31
0.0
 11
34.897942
 21
766.417138
 31
0.0
 11
34.893312
 21
765.620932
 31
0.0
  0
SPLINE
  5
14d
100
AcDbEntity
  8
Layer_1
 62
3
100
AcDbSpline
 70
0
 71
3
 72
10
 73
6
 74
4
 40
0.000000
 40
0.000000
 40
0.000000
 40
0.000000
 40
0.938525
 40
1.877056
 40
2.678453
 40
2.678453
 40
2.678453
 40
2.678453
 10
35.203248
 20
767.335916
 30
0.0
 10
34.893648
 20
767.300104
 30
0.0
 10
34.274447
 20
767.228480
 30
0.0
 10
33.387125
 20
766.996637
 30
0.0
 10
32.819779
 20
767.158187
 30
0.0
 10
32.558464
 20
767.232596
 30
0.0
 11
35.203248
 21
767.335916
 31
0.0
 11
34.273791
 21
767.205767
 31
0.0
 11
33.344332
 21
767.075592
 31
0.0
 11
32.558464
 21
767.232596
 31
0.0
  0
SPLINE
  5
14e
100
AcDbEntity
  8
Layer_1
 62
3
100
AcDbSpline
 70
0
 71
3
 72
10
 73
6
 74
4
 40
0.000000
 40
0.000000
 40
0.000000
 40
0.000000
 40
0.254542
 40
0.431443
 40
0.756264
 40
0.756264
 40
0.756264
 40
0.756264
 10
32.558464
 20
767.232596
 30
0.0
 10
32.532652
 20
767.315015
 30
0.0
 10
32.488902
 20
767.454714
 30
0.0
 10
32.620793
 20
767.723375
 30
0.0
 10
32.808723
 20
767.651231
 30
0.0
 10
32.930392
 20
767.604524
 30
0.0
 11
32.558464
 21
767.232596
 31
0.0
 11
32.522447
 21
767.484577
 31
0.0
 11
32.607481
 21
767.639700
 31
0.0
 11
32.930392
 21
767.604524
 31
0.0
  0
SPLINE
  5
14f
100
AcDbEntity
  8
Layer_1
 62
3
100
AcDbSpline
 70
0
 71
3
 72
10
 73
6
 74
4
 40
0.000000
 40
0.000000
 40
0.000000
 40
0.000000
 40
0.536176
 40
1.140305
 40
1.787114
 40
1.787114
 40
1.787114
 40
1.787114
 10
34.087480
 20
767.997108
 30
0.0
 10
34.063961
 20
767.818450
 30
0.0
 10
34.013942
 20
767.438492
 30
0.0
 10
34.156171
 20
766.851869
 30
0.0
 10
34.178992
 20
766.435452
 30
0.0
 10
34.190792
 20
766.220140
 30
0.0
 11
34.087480
 21
767.997108
 31
0.0
 11
34.048046
 21
767.462384
 31
0.0
 11
34.134877
 21
766.864528
 31
0.0
 11
34.190792
 21
766.220140
 31
0.0
  0
SPLINE
  5
150
100
AcDbEntity
  8
Layer_1
 62
3
100
AcDbSpline
 70
0
 71
3
 72
10
 73
6
 74
4
 40
0.000000
 40
0.000000
 40
0.000000
 40
0.000000
 40
0.424631
 40
0.833071
 40
1.259677
 40
1.259677
 40
1.259677
 40
1.259677
 10
34.566688
 20
769.611724
 30
0.0
 10
34.429685
 20
769.575041
 30
0.0
 10
34.160903
 20
769.503074
 30
0.0
 10
33.730062
 20
769.516898
 30
0.0
 10
33.474710
 20
769.633203
 30
0.0
 10
33.344256
 20
769.692620
 30
0.0
 11
34.566688
 21
769.611724
 31
0.0
 11
34.151484
 21
769.522748
 31
0.0
 11
33.743513
 21
769.542331
 31
0.0
 11
33.344256
 21
769.692620
 31
0.0
  0
LWPOLYLINE
  5
151
100
AcDbEntity
  8
Layer_1
 62
3
100
AcDbPolyline
 90
3
 70
0
 10
35.368552
 20
767.955780
 30
0.0
 10
35.513184
 20
766.488756
 30
0.0
 10
34.686688
 20
766.468116
 30
0.0
  0
SPLINE
  5
152
100
AcDbEntity
  8
Layer_1
 62
3
100
AcDbSpline
 70
0
 71
3
 72
10
 73
6
 74
4
 40
0.000000
 40
0.000000
 40
0.000000
 40
0.000000
 40
0.266494
 40
0.553292
 40
0.887984
 40
0.887984
 40
0.887984
 40
0.887984
 10
34.539728
 20
769.387012
 30
0.0
 10
34.540075
 20
769.298188
 30
0.0
 10
34.540795
 20
769.113774
 30
0.0
 10
34.584657
 20
768.818318
 30
0.0
 10
34.666454
 20
768.627095
 30
0.0
 10
34.710504
 20
768.524116
 30
0.0
 11
34.539728
 21
769.387012
 31
0.0
 11
34.546942
 21
769.120615
 31
0.0
 11
34.593173
 21
768.837568
 31
0.0
 11
34.710504
 21
768.524116
 31
0.0
  0
LWPOLYLINE
  5
153
100
AcDbEntity
  8
Layer_1
 62
3
100
AcDbPolyline
 90
2
 70
0
 10
34.710504
 20
768.524116
 30
0.0
 10
33.182464
 20
768.587076
 30
0.0
  0
LWPOLYLINE
  5
154
100
AcDbEntity
  8
Layer_1
 62
3
100
AcDbPolyline
 90
2
 70
0
 10
34.126256
 20
769.198252
 30
0.0
 10
34.135216
 20
768.578044
 30
0.0
  0
LWPOLYLINE
  5
155
100
AcDbEntity
  8
Layer_1
 62
3
100
AcDbPolyline
 90
2
 70
0
 10
33.604920
 20
769.243196
 30
0.0
 10
33.631880
 20
768.614004
 30
0.0
  0
LWPOLYLINE
  5
156
100
AcDbEntity
  8
Layer_1
 62
7
100
AcDbPolyline
 90
5
 70
1
 10
352.087792
 20
652.716044
 30
0.0
 10
352.087792
 20
748.122852
 30
0.0
 10
463.874368
 20
748.122852
 30
0.0
 10
463.874368
 20
652.716044
 30
0.0
 10
352.087792
 20
652.716044
 30
0.0
  0
SPLINE
  5
157
100
AcDbEntity
  8
Layer_1
 62
3
100
AcDbSpline
 70
0
 71
3
 72
10
 73
6
 74
4
 40
0.000000
 40
0.000000
 40
0.000000
 40
0.000000
 40
0.162693
 40
0.268993
 40
0.374437
 40
0.374437
 40
0.374437
 40
0.374437
 10
33.182464
 20
768.587076
 30
0.0
 10
33.130887
 20
768.616165
 30
0.0
 10
33.045611
 20
768.664260
 30
0.0
 10
33.042374
 20
768.798177
 30
0.0
 10
33.033884
 20
768.867269
 30
0.0
 10
33.029656
 20
768.901676
 30
0.0
 11
33.182464
 21
768.587076
 31
0.0
 11
33.058077
 21
768.691942
 31
0.0
 11
33.040688
 21
768.796810
 31
0.0
 11
33.029656
 21
768.901676
 31
0.0
  0
SPLINE
  5
158
100
AcDbEntity
  8
Layer_1
 62
7
100
AcDbSpline
 70
0
 71
3
 72
10
 73
6
 74
4
 40
0.000000
 40
0.000000
 40
0.000000
 40
0.000000
 40
17.573210
 40
42.633889
 40
56.334366
 40
56.334366
 40
56.334366
 40
56.334366
 10
321.199697
 20
583.771372
 30
0.0
 10
319.971465
 20
578.093616
 30
0.0
 10
316.991683
 20
564.318965
 30
0.0
 10
308.808094
 20
545.938300
 30
0.0
 10
297.331561
 20
539.567151
 30
0.0
 10
293.275078
 20
537.315212
 30
0.0
 11
321.199697
 21
583.771372
 31
0.0
 11
316.969016
 21
566.715022
 31
0.0
 11
304.714197
 21
544.855081
 31
0.0
 11
293.275078
 21
537.315212
 31
0.0
  0
SPLINE
  5
159
100
AcDbEntity
  8
Layer_1
 62
7
100
AcDbSpline
 70
0
 71
3
 72
10
 73
6
 74
4
 40
0.000000
 40
0.000000
 40
0.000000
 40
0.000000
 40
9.097776
 40
19.248604
 40
34.065217
 40
34.065217
 40
34.065217
 40
34.065217
 10
293.275078
 20
537.315212
 30
0.0
 10
293.268652
 20
540.387476
 30
0.0
 10
293.255054
 20
546.887614
 30
0.0
 10
287.030335
 20
557.167793
 30
0.0
 10
279.583742
 20
561.154682
 30
0.0
 10
275.164656
 20
563.520652
 30
0.0
 11
293.275078
 21
537.315212
 31
0.0
 11
292.473094
 21
546.377570
 31
0.0
 11
287.406155
 21
555.173333
 31
0.0
 11
275.164656
 21
563.520652
 31
0.0
  0
LWPOLYLINE
  5
15a
100
AcDbEntity
  8
Layer_1
 62
7
100
AcDbPolyline
 90
15
 70
1
 10
362.029591
 20
796.977636
 30
0.0
 10
362.388618
 20
763.420980
 30
0.0
 10
336.945635
 20
750.250500
 30
0.0
 10
335.880378
 20
660.703052
 30
0.0
 10
323.297413
 20
654.468572
 30
0.0
 10
356.684436
 20
569.374652
 30
0.0
 10
377.604215
 20
566.537772
 30
0.0
 10
377.217171
 20
540.073852
 30
0.0
 10
358.509362
 20
530.702972
 30
0.0
 10
358.449378
 20
494.386012
 30
0.0
 10
342.770468
 20
494.402812
 30
0.0
 10
343.399463
 20
541.694652
 30
0.0
 10
321.172318
 20
594.839292
 30
0.0
 10
318.745834
 20
595.211932
 30
0.0
 10
321.199697
 20
583.771372
 30
0.0
  0
SPLINE
  5
15b
100
AcDbEntity
  8
Layer_1
 62
7
100
AcDbSpline
 70
0
 71
3
 72
10
 73
6
 74
4
 40
0.000000
 40
0.000000
 40
0.000000
 40
0.000000
 40
10.811960
 40
21.492719
 40
32.004178
 40
32.004178
 40
32.004178
 40
32.004178
 10
275.164656
 20
563.520652
 30
0.0
 10
275.858113
 20
567.056287
 30
0.0
 10
277.236611
 20
574.084654
 30
0.0
 10
279.732067
 20
584.479709
 30
0.0
 10
282.285380
 20
591.074272
 30
0.0
 10
283.551838
 20
594.345212
 30
0.0
 11
275.164656
 21
563.520652
 31
0.0
 11
277.320274
 21
574.115547
 31
0.0
 11
279.974105
 21
584.461357
 31
0.0
 11
283.551838
 21
594.345212
 31
0.0
  0
LWPOLYLINE
  5
15c
100
AcDbEntity
  8
Layer_1
 62
7
100
AcDbPolyline
 90
2
 70
1
 10
283.551838
 20
594.345212
 30
0.0
 10
286.421583
 20
595.835132
 30
0.0
  0
SPLINE
  5
15d
100
AcDbEntity
  8
Layer_1
 62
7
100
AcDbSpline
 70
0
 71
3
 72
10
 73
6
 74
4
 40
0.000000
 40
0.000000
 40
0.000000
 40
0.000000
 40
9.940652
 40
20.860465
 40
32.163309
 40
32.163309
 40
32.163309
 40
32.163309
 10
286.421583
 20
595.835132
 30
0.0
 10
288.827032
 20
598.160003
 30
0.0
 10
293.874870
 20
603.038745
 30
0.0
 10
304.006006
 20
607.013290
 30
0.0
 10
310.859342
 20
609.764047
 30
0.0
 10
314.345072
 20
611.163132
 30
0.0
 11
286.421583
 21
595.835132
 31
0.0
 11
293.983779
 21
602.287244
 31
0.0
 11
303.849960
 21
606.967073
 31
0.0
 11
314.345072
 21
611.163132
 31
0.0
  0
LWPOLYLINE
  5
15e
100
AcDbEntity
  8
Layer_1
 62
7
100
AcDbPolyline
 90
2
 70
1
 10
314.345072
 20
611.163132
 30
0.0
 10
306.610740
 20
629.655692
 30
0.0
  0
SPLINE
  5
15f
100
AcDbEntity
  8
Layer_1
 62
7
100
AcDbSpline
 70
0
 71
3
 72
10
 73
6
 74
4
 40
0.000000
 40
0.000000
 40
0.000000
 40
0.000000
 40
1.501470
 40
2.793654
 40
4.166283
 40
4.166283
 40
4.166283
 40
4.166283
 10
306.610740
 20
629.655692
 30
0.0
 10
306.184547
 20
629.384547
 30
0.0
 10
305.391567
 20
628.880052
 30
0.0
 10
304.557315
 20
627.745354
 30
0.0
 10
303.851601
 20
627.200343
 30
0.0
 10
303.488091
 20
626.919612
 30
0.0
 11
306.610740
 21
629.655692
 31
0.0
 11
305.399634
 21
628.768204
 31
0.0
 11
304.532953
 21
627.809766
 31
0.0
 11
303.488091
 21
626.919612
 31
0.0
  0
LWPOLYLINE
  5
160
100
AcDbEntity
  8
Layer_1
 62
7
100
AcDbPolyline
 90
5
 70
1
 10
303.488091
 20
626.919612
 30
0.0
 10
297.144951
 20
622.994252
 30
0.0
 10
285.394218
 20
618.030252
 30
0.0
 10
281.766553
 20
621.642812
 30
0.0
 10
279.090068
 20
621.576412
 30
0.0
  0
SPLINE
  5
161
100
AcDbEntity
  8
Layer_1
 62
7
100
AcDbSpline
 70
0
 71
3
 72
10
 73
6
 74
4
 40
0.000000
 40
0.000000
 40
0.000000
 40
0.000000
 40
4.481981
 40
8.880620
 40
13.396432
 40
13.396432
 40
13.396432
 40
13.396432
 10
279.090068
 20
621.576412
 30
0.0
 10
278.419799
 20
622.907497
 30
0.0
 10
277.091725
 20
625.544916
 30
0.0
 10
275.548749
 20
629.822151
 30
0.0
 10
275.721299
 20
632.818902
 30
0.0
 10
275.808708
 20
634.336972
 30
0.0
 11
279.090068
 21
621.576412
 31
0.0
 11
277.157005
 21
625.620101
 31
0.0
 11
275.854240
 21
629.821390
 31
0.0
 11
275.808708
 21
634.336972
 31
0.0
  0
SPLINE
  5
162
100
AcDbEntity
  8
Layer_1
 62
3
100
AcDbSpline
 70
0
 71
3
 72
10
 73
6
 74
4
 40
0.000000
 40
0.000000
 40
0.000000
 40
0.000000
 40
6.520550
 40
13.648567
 40
21.719100
 40
21.719100
 40
21.719100
 40
21.719100
 10
290.474076
 20
643.271052
 30
0.0
 10
291.531785
 20
641.368611
 30
0.0
 10
293.745742
 20
637.386493
 30
0.0
 10
295.997373
 20
630.443908
 30
0.0
 10
296.652045
 20
625.413717
 30
0.0
 10
296.999681
 20
622.742652
 30
0.0
 11
290.474076
 21
643.271052
 31
0.0
 11
293.464838
 21
637.476838
 31
0.0
 11
295.697090
 21
630.707372
 31
0.0
 11
296.999681
 21
622.742652
 31
0.0
  0
SPLINE
  5
163
100
AcDbEntity
  8
Layer_1
 62
3
100
AcDbSpline
 70
0
 71
3
 72
10
 73
6
 74
4
 40
0.000000
 40
0.000000
 40
0.000000
 40
0.000000
 40
7.826688
 40
15.647955
 40
23.692164
 40
23.692164
 40
23.692164
 40
23.692164
 10
278.102617
 20
640.688012
 30
0.0
 10
279.335058
 20
638.386035
 30
0.0
 10
281.799087
 20
633.783674
 30
0.0
 10
284.261276
 20
626.205934
 30
0.0
 10
284.775398
 20
620.930854
 30
0.0
 10
285.036071
 20
618.256252
 30
0.0
 11
278.102617
 21
640.688012
 31
0.0
 11
281.590338
 21
633.681384
 31
0.0
 11
283.962352
 21
626.228480
 31
0.0
 11
285.036071
 21
618.256252
 31
0.0
  0
SPLINE
  5
164
100
AcDbEntity
  8
Layer_1
 62
3
100
AcDbSpline
 70
0
 71
3
 72
10
 73
6
 74
4
 40
0.000000
 40
0.000000
 40
0.000000
 40
0.000000
 40
5.848826
 40
11.462322
 40
16.912242
 40
16.912242
 40
16.912242
 40
16.912242
 10
297.815380
 20
642.999212
 30
0.0
 10
298.675071
 20
641.248193
 30
0.0
 10
300.359863
 20
637.816608
 30
0.0
 10
302.222849
 20
632.475641
 30
0.0
 10
303.004358
 20
628.869476
 30
0.0
 10
303.389335
 20
627.093052
 30
0.0
 11
297.815380
 21
642.999212
 31
0.0
 11
300.284538
 21
637.697135
 31
0.0
 11
302.128314
 21
632.395075
 31
0.0
 11
303.389335
 21
627.093052
 31
0.0
  0
SPLINE
  5
165
100
AcDbEntity
  8
Layer_1
 62
3
100
AcDbSpline
 70
0
 71
3
 72
10
 73
6
 74
4
 40
0.000000
 40
0.000000
 40
0.000000
 40
0.000000
 40
4.387259
 40
8.856273
 40
13.392427
 40
13.392427
 40
13.392427
 40
13.392427
 10
275.655514
 20
634.434332
 30
0.0
 10
276.258629
 20
633.103609
 30
0.0
 10
277.476098
 20
630.417365
 30
0.0
 10
278.972420
 20
626.173609
 30
0.0
 10
279.207666
 20
623.168705
 30
0.0
 10
279.326166
 20
621.655052
 30
0.0
 11
275.655514
 21
634.434332
 31
0.0
 11
277.408915
 21
630.412687
 31
0.0
 11
278.775059
 21
626.157603
 31
0.0
 11
279.326166
 21
621.655052
 31
0.0
  0
LWPOLYLINE
  5
166
100
AcDbEntity
  8
Layer_1
 62
7
100
AcDbPolyline
 90
16
 70
1
 10
275.808708
 20
634.336972
 30
0.0
 10
277.589477
 20
635.186172
 30
0.0
 10
278.312188
 20
640.904732
 30
0.0
 10
290.756797
 20
643.789452
 30
0.0
 10
301.168365
 20
642.440812
 30
0.0
 10
296.035290
 20
654.686172
 30
0.0
 10
296.470568
 20
693.221132
 30
0.0
 10
311.033056
 20
693.342172
 30
0.0
 10
311.323246
 20
744.431628
 30
0.0
 10
298.011048
 20
744.371948
 30
0.0
 10
285.078825
 20
759.663628
 30
0.0
 10
285.488313
 20
790.876596
 30
0.0
 10
280.214820
 20
795.448356
 30
0.0
 10
287.673154
 20
803.146964
 30
0.0
 10
291.740907
 20
797.485436
 30
0.0
 10
362.029591
 20
796.977636
 30
0.0
  0
LWPOLYLINE
  5
167
100
AcDbEntity
  8
Layer_1
 62
3
100
AcDbPolyline
 90
2
 70
0
 10
276.471214
 20
568.090652
 30
0.0
 10
310.186839
 20
554.767612
 30
0.0
  0
LWPOLYLINE
  5
168
100
AcDbEntity
  8
Layer_1
 62
7
100
AcDbPolyline
 90
2
 70
0
 10
279.598066
 20
581.277852
 30
0.0
 10
316.848394
 20
567.410972
 30
0.0
  0
LWPOLYLINE
  5
169
100
AcDbEntity
  8
Layer_1
 62
3
100
AcDbPolyline
 90
2
 70
0
 10
283.676568
 20
593.921212
 30
0.0
 10
321.198795
 20
580.326172
 30
0.0
  0
SPLINE
  5
16a
100
AcDbEntity
  8
Layer_1
 62
3
100
AcDbSpline
 70
0
 71
3
 72
10
 73
6
 74
4
 40
0.000000
 40
0.000000
 40
0.000000
 40
0.000000
 40
5.171549
 40
9.780907
 40
14.138667
 40
14.138667
 40
14.138667
 40
14.138667
 10
277.286914
 20
635.114092
 30
0.0
 10
278.166435
 20
633.624473
 30
0.0
 10
279.829868
 20
630.807170
 30
0.0
 10
281.123587
 20
626.219851
 30
0.0
 10
281.377820
 20
623.239390
 30
0.0
 10
281.501370
 20
621.790972
 30
0.0
 11
277.286914
 21
635.114092
 31
0.0
 11
279.710645
 21
630.545674
 31
0.0
 11
280.996983
 21
626.119443
 31
0.0
 11
281.501370
 21
621.790972
 31
0.0
  0
SPLINE
  5
16b
100
AcDbEntity
  8
Layer_1
 62
3
100
AcDbSpline
 70
0
 71
3
 72
10
 73
6
 74
4
 40
0.000000
 40
0.000000
 40
0.000000
 40
0.000000
 40
7.242404
 40
16.628760
 40
34.122794
 40
34.122794
 40
34.122794
 40
34.122794
 10
295.640178
 20
592.425772
 30
0.0
 10
296.969982
 20
594.564771
 30
0.0
 10
300.023250
 20
599.475973
 30
0.0
 10
313.812968
 20
599.882854
 30
0.0
 10
317.710556
 20
590.671449
 30
0.0
 10
320.247146
 20
584.676572
 30
0.0
 11
295.640178
 21
592.425772
 31
0.0
 11
300.325140
 21
597.948773
 31
0.0
 11
309.687183
 21
598.623917
 31
0.0
 11
320.247146
 21
584.676572
 31
0.0
  0
LWPOLYLINE
  5
16c
100
AcDbEntity
  8
Layer_1
 62
3
100
AcDbPolyline
 90
2
 70
0
 10
286.667470
 20
595.416652
 30
0.0
 10
321.470695
 20
582.773292
 30
0.0
  0
LWPOLYLINE
  5
16d
100
AcDbEntity
  8
Layer_1
 62
3
100
AcDbPolyline
 90
2
 70
0
 10
318.343843
 20
588.347212
 30
0.0
 10
298.359180
 20
595.824492
 30
0.0
  0
LWPOLYLINE
  5
16e
100
AcDbEntity
  8
Layer_1
 62
3
100
AcDbPolyline
 90
2
 70
0
 10
316.984344
 20
590.794332
 30
0.0
 10
300.398433
 20
596.912092
 30
0.0
  0
LWPOLYLINE
  5
16f
100
AcDbEntity
  8
Layer_1
 62
5
100
AcDbPolyline
 90
5
 70
1
 10
314.629081
 20
647.553752
 30
0.0
 10
349.744441
 20
557.586762
 30
0.0
 10
342.345005
 20
554.698659
 30
0.0
 10
307.229645
 20
644.665650
 30
0.0
 10
314.629081
 20
647.553752
 30
0.0
  0
LWPOLYLINE
  5
170
100
AcDbEntity
  8
Layer_1
 62
5
100
AcDbPolyline
 90
5
 70
1
 10
329.107976
 20
670.790652
 30
0.0
 10
329.107976
 20
663.103014
 30
0.0
 10
301.577818
 20
663.103014
 30
0.0
 10
301.577818
 20
670.790652
 30
0.0
 10
329.107976
 20
670.790652
 30
0.0
  0
LWPOLYLINE
  5
171
100
AcDbEntity
  8
Layer_1
 62
5
100
AcDbPolyline
 90
5
 70
1
 10
372.474332
 20
557.919372
 30
0.0
 10
372.474332
 20
550.231734
 30
0.0
 10
351.748757
 20
550.231734
 30
0.0
 10
351.748757
 20
557.919372
 30
0.0
 10
372.474332
 20
557.919372
 30
0.0
  0
LWPOLYLINE
  5
172
100
AcDbEntity
  8
Layer_1
 62
7
100
AcDbPolyline
 90
5
 70
1
 10
381.239352
 20
531.835788
 30
0.0
 10
381.239352
 20
642.251460
 30
0.0
 10
406.615660
 20
642.251460
 30
0.0
 10
406.615660
 20
531.835788
 30
0.0
 10
381.239352
 20
531.835788
 30
0.0
  0
LWPOLYLINE
  5
173
100
AcDbEntity
  8
Layer_1
 62
7
100
AcDbPolyline
 90
5
 70
1
 10
411.547752
 20
530.265476
 30
0.0
 10
411.547752
 20
641.085508
 30
0.0
 10
430.415805
 20
641.085508
 30
0.0
 10
430.415805
 20
530.265476
 30
0.0
 10
411.547752
 20
530.265476
 30
0.0
  0
SPLINE
  5
174
100
AcDbEntity
  8
Layer_1
 62
3
100
AcDbSpline
 70
0
 71
3
 72
10
 73
6
 74
4
 40
0.000000
 40
0.000000
 40
0.000000
 40
0.000000
 40
10.409369
 40
18.416242
 40
25.354497
 40
25.354497
 40
25.354497
 40
25.354497
 10
318.615743
 20
595.280732
 30
0.0
 10
317.141865
 20
598.621343
 30
0.0
 10
314.534283
 20
604.531548
 30
0.0
 10
305.392755
 20
606.987564
 30
0.0
 10
300.682062
 20
605.213144
 30
0.0
 10
298.495130
 20
604.389372
 30
0.0
 11
318.615743
 21
595.280732
 31
0.0
 11
312.905840
 21
603.984293
 31
0.0
 11
305.202001
 21
606.166237
 31
0.0
 11
298.495130
 21
604.389372
 31
0.0
  0
LWPOLYLINE
  5
175
100
AcDbEntity
  8
Layer_1
 62
7
100
AcDbPolyline
 90
21
 70
1
 10
283.465800
 20
525.531700
 30
0.0
 10
287.927296
 20
525.642044
 30
0.0
 10
288.940384
 20
524.924772
 30
0.0
 10
317.349456
 20
524.924772
 30
0.0
 10
318.121440
 20
525.439428
 30
0.0
 10
322.293360
 20
525.387988
 30
0.0
 10
322.344800
 20
521.267812
 30
0.0
 10
321.778680
 20
520.444364
 30
0.0
 10
321.778680
 20
505.416372
 30
0.0
 10
322.344800
 20
504.592924
 30
0.0
 10
322.344800
 20
500.229532
 30
0.0
 10
317.761160
 20
500.280972
 30
0.0
 10
316.525976
 20
500.847092
 30
0.0
 10
289.352080
 20
500.847092
 30
0.0
 10
288.368672
 20
500.184996
 30
0.0
 10
283.576128
 20
500.184996
 30
0.0
 10
283.410600
 20
504.305428
 30
0.0
 10
284.238224
 20
505.364876
 30
0.0
 10
284.238224
 20
520.547260
 30
0.0
 10
283.465776
 20
521.464836
 30
0.0
 10
283.465800
 20
525.531700
 30
0.0
  0
LWPOLYLINE
  5
176
100
AcDbEntity
  8
Layer_1
 62
3
100
AcDbPolyline
 90
2
 70
1
 10
297.183217
 20
511.720890
 30
0.0
 10
297.183217
 20
511.720890
 30
0.0
  0
SPLINE
  5
177
100
AcDbEntity
  8
Layer_1
 62
3
100
AcDbSpline
 70
0
 71
3
 72
19
 73
15
 74
13
 40
0.000000
 40
0.000000
 40
0.000000
 40
0.000000
 40
2.030520
 40
4.000816
 40
6.031340
 40
8.061860
 40
10.032157
 40
12.062677
 40
14.093197
 40
16.063495
 40
18.094015
 40
20.124539
 40
22.094835
 40
24.125355
 40
24.125355
 40
24.125355
 40
24.125355
 10
297.183217
 20
511.720890
 30
0.0
 10
297.076480
 20
511.036295
 30
0.0
 10
296.866172
 20
509.687408
 30
0.0
 10
295.320088
 20
508.202392
 30
0.0
 10
293.303287
 20
507.652148
 30
0.0
 10
291.265311
 20
508.202393
 30
0.0
 10
289.781494
 20
509.687408
 30
0.0
 10
289.230842
 20
511.720890
 30
0.0
 10
289.781494
 20
513.754373
 30
0.0
 10
291.265311
 20
515.239388
 30
0.0
 10
293.303287
 20
515.789633
 30
0.0
 10
295.320088
 20
515.239389
 30
0.0
 10
296.866172
 20
513.754373
 30
0.0
 10
297.076480
 20
512.405486
 30
0.0
 10
297.183217
 20
511.720890
 30
0.0
 11
297.183217
 21
511.720890
 31
0.0
 11
296.653007
 21
509.760817
 31
0.0
 11
295.259798
 21
508.367606
 31
0.0
 11
293.299721
 21
507.837394
 31
0.0
 11
291.339648
 21
508.367606
 31
0.0
 11
289.946437
 21
509.760817
 31
0.0
 11
289.416225
 21
511.720890
 31
0.0
 11
289.946437
 21
513.680964
 31
0.0
 11
291.339648
 21
515.074175
 31
0.0
 11
293.299721
 21
515.604386
 31
0.0
 11
295.259798
 21
515.074175
 31
0.0
 11
296.653007
 21
513.680964
 31
0.0
 11
297.183217
 21
511.720890
 31
0.0
  0
SPLINE
  5
178
100
AcDbEntity
  8
Layer_1
 62
3
100
AcDbSpline
 70
0
 71
3
 72
10
 73
6
 74
4
 40
0.000000
 40
0.000000
 40
0.000000
 40
0.000000
 40
1.975592
 40
3.976458
 40
6.041642
 40
6.041642
 40
6.041642
 40
6.041642
 10
284.727144
 20
520.471692
 30
0.0
 10
285.236367
 20
520.889524
 30
0.0
 10
286.261329
 20
521.730533
 30
0.0
 10
287.659660
 20
523.193115
 30
0.0
 10
288.422595
 20
524.315581
 30
0.0
 10
288.810096
 20
524.885692
 30
0.0
 11
284.727144
 21
520.471692
 31
0.0
 11
286.228992
 21
521.755209
 31
0.0
 11
287.601635
 21
523.210996
 31
0.0
 11
288.810096
 21
524.885692
 31
0.0
  0
SPLINE
  5
179
100
AcDbEntity
  8
Layer_1
 62
3
100
AcDbSpline
 70
0
 71
3
 72
10
 73
6
 74
4
 40
0.000000
 40
0.000000
 40
0.000000
 40
0.000000
 40
1.975592
 40
3.976458
 40
6.041642
 40
6.041642
 40
6.041642
 40
6.041642
 10
317.280360
 20
524.720172
 30
0.0
 10
317.698192
 20
524.210948
 30
0.0
 10
318.539201
 20
523.185987
 30
0.0
 10
320.001783
 20
521.787656
 30
0.0
 10
321.124249
 20
521.024721
 30
0.0
 10
321.694360
 20
520.637220
 30
0.0
 11
317.280360
 21
524.720172
 31
0.0
 11
318.563877
 21
523.218324
 31
0.0
 11
320.019664
 21
521.845681
 31
0.0
 11
321.694360
 21
520.637220
 31
0.0
  0
SPLINE
  5
17a
100
AcDbEntity
  8
Layer_1
 62
3
100
AcDbSpline
 70
0
 71
3
 72
10
 73
6
 74
4
 40
0.000000
 40
0.000000
 40
0.000000
 40
0.000000
 40
1.975592
 40
3.976458
 40
6.041642
 40
6.041642
 40
6.041642
 40
6.041642
 10
284.175392
 20
505.298580
 30
0.0
 10
284.684615
 20
504.880748
 30
0.0
 10
285.709577
 20
504.039738
 30
0.0
 10
287.107908
 20
502.577157
 30
0.0
 10
287.870843
 20
501.454691
 30
0.0
 10
288.258344
 20
500.884580
 30
0.0
 11
284.175392
 21
505.298580
 31
0.0
 11
285.677240
 21
504.015063
 31
0.0
 11
287.049883
 21
502.559275
 31
0.0
 11
288.258344
 21
500.884580
 31
0.0
  0
LWPOLYLINE
  5
17b
100
AcDbEntity
  8
Layer_1
 62
3
100
AcDbPolyline
 90
5
 70
1
 10
301.066720
 20
523.630276
 30
0.0
 10
304.950215
 20
523.630276
 30
0.0
 10
304.950215
 20
517.675583
 30
0.0
 10
301.066720
 20
517.675583
 30
0.0
 10
301.066720
 20
523.630276
 30
0.0
  0
LWPOLYLINE
  5
17c
100
AcDbEntity
  8
Layer_1
 62
3
100
AcDbPolyline
 90
6
 70
0
 10
299.072632
 20
512.360972
 30
0.0
 10
301.941736
 20
512.360972
 30
0.0
 10
300.176136
 20
511.147124
 30
0.0
 10
301.996904
 20
509.988452
 30
0.0
 10
299.403688
 20
509.933252
 30
0.0
 10
299.403688
 20
510.429828
 30
0.0
  0
LWPOLYLINE
  5
17d
100
AcDbEntity
  8
Layer_1
 62
3
100
AcDbPolyline
 90
3
 70
0
 10
303.928032
 20
509.326356
 30
0.0
 10
303.928032
 20
512.360972
 30
0.0
 10
307.624752
 20
512.360972
 30
0.0
  0
LWPOLYLINE
  5
17e
100
AcDbEntity
  8
Layer_1
 62
3
100
AcDbPolyline
 90
2
 70
0
 10
305.911856
 20
512.306660
 30
0.0
 10
305.963296
 20
509.887100
 30
0.0
  0
LWPOLYLINE
  5
17f
100
AcDbEntity
  8
Layer_1
 62
3
100
AcDbPolyline
 90
3
 70
0
 10
307.816616
 20
512.461100
 30
0.0
 10
307.971056
 20
510.762260
 30
0.0
 10
309.361016
 20
510.762260
 30
0.0
  0
LWPOLYLINE
  5
180
100
AcDbEntity
  8
Layer_1
 62
3
100
AcDbPolyline
 90
3
 70
0
 10
309.361016
 20
509.526740
 30
0.0
 10
309.361016
 20
512.409620
 30
0.0
 10
316.928584
 20
512.255180
 30
0.0
  0
LWPOLYLINE
  5
181
100
AcDbEntity
  8
Layer_1
 62
3
100
AcDbPolyline
 90
2
 70
0
 10
315.342288
 20
513.342068
 30
0.0
 10
315.239360
 20
509.996796
 30
0.0
  0
LWPOLYLINE
  5
182
100
AcDbEntity
  8
Layer_1
 62
3
100
AcDbPolyline
 90
6
 70
0
 10
313.335128
 20
512.415684
 30
0.0
 10
313.335128
 20
511.231972
 30
0.0
 10
311.791160
 20
511.231972
 30
0.0
 10
311.894088
 20
509.224812
 30
0.0
 10
313.643920
 20
509.327740
 30
0.0
 10
313.643920
 20
507.989636
 30
0.0
  0
LWPOLYLINE
  5
183
100
AcDbEntity
  8
Layer_1
 62
3
100
AcDbPolyline
 90
4
 70
1
 10
300.159904
 20
507.011788
 30
0.0
 10
306.027000
 20
507.011788
 30
0.0
 10
303.041984
 20
503.409188
 30
0.0
 10
300.159904
 20
507.011788
 30
0.0
  0
SPLINE
  5
184
100
AcDbEntity
  8
Layer_1
 62
3
100
AcDbSpline
 70
0
 71
3
 72
10
 73
6
 74
4
 40
0.000000
 40
0.000000
 40
0.000000
 40
0.000000
 40
1.975592
 40
3.976458
 40
6.041642
 40
6.041642
 40
6.041642
 40
6.041642
 10
316.728608
 20
501.050100
 30
0.0
 10
317.146440
 20
501.559323
 30
0.0
 10
317.987449
 20
502.584285
 30
0.0
 10
319.450031
 20
503.982616
 30
0.0
 10
320.572497
 20
504.745550
 30
0.0
 10
321.142608
 20
505.133052
 30
0.0
 11
316.728608
 21
501.050100
 31
0.0
 11
318.012125
 21
502.551948
 31
0.0
 11
319.467912
 21
503.924590
 31
0.0
 11
321.142608
 21
505.133052
 31
0.0
  0
LWPOLYLINE
  5
185
100
AcDbEntity
  8
Layer_1
 62
7
100
AcDbPolyline
 90
8
 70
1
 10
184.254517
 20
670.854038
 30
0.0
 10
176.182501
 20
672.668202
 30
0.0
 10
156.459796
 20
641.537314
 30
0.0
 10
166.829659
 20
638.130220
 30
0.0
 10
191.118695
 20
651.649711
 30
0.0
 10
199.533026
 20
664.410517
 30
0.0
 10
193.196333
 20
667.821901
 30
0.0
 10
196.439917
 20
677.729376
 30
0.0
  0
LWPOLYLINE
  5
186
100
AcDbEntity
  8
Layer_1
 62
7
100
AcDbPolyline
 90
2
 70
1
 10
187.192178
 20
680.999748
 30
0.0
 10
184.254517
 20
670.854038
 30
0.0
  0
LWPOLYLINE
  5
187
100
AcDbEntity
  8
Layer_1
 62
3
100
AcDbPolyline
 90
3
 70
0
 10
161.947803
 20
640.506911
 30
0.0
 10
182.339012
 20
652.933807
 30
0.0
 10
191.159573
 20
651.765304
 30
0.0
  0
LWPOLYLINE
  5
188
100
AcDbEntity
  8
Layer_1
 62
3
100
AcDbPolyline
 90
4
 70
0
 10
184.206592
 20
670.350774
 30
0.0
 10
182.290919
 20
663.094974
 30
0.0
 10
190.539159
 20
660.308122
 30
0.0
 10
192.733947
 20
667.985420
 30
0.0
  0
LWPOLYLINE
  5
189
100
AcDbEntity
  8
Layer_1
 62
3
100
AcDbPolyline
 90
2
 70
0
 10
187.226019
 20
680.727674
 30
0.0
 10
196.215764
 20
678.198809
 30
0.0
  0
SPLINE
  5
18a
100
AcDbEntity
  8
Layer_1
 62
7
100
AcDbSpline
 70
0
 71
3
 72
10
 73
6
 74
4
 40
0.000000
 40
0.000000
 40
0.000000
 40
0.000000
 40
4.414509
 40
9.036039
 40
13.190649
 40
13.190649
 40
13.190649
 40
13.190649
 10
196.439917
 20
677.729376
 30
0.0
 10
196.219292
 20
679.278163
 30
0.0
 10
195.767696
 20
682.448368
 30
0.0
 10
190.438328
 20
684.211825
 30
0.0
 10
188.235156
 20
682.031778
 30
0.0
 10
187.192178
 20
680.999748
 30
0.0
 11
196.439917
 21
677.729376
 31
0.0
 11
195.014470
 21
681.907412
 31
0.0
 11
190.622000
 21
683.344338
 31
0.0
 11
187.192178
 21
680.999748
 31
0.0
  0
LWPOLYLINE
  5
18b
100
AcDbEntity
  8
Layer_1
 62
7
100
AcDbPolyline
 90
7
 70
1
 10
271.125890
 20
496.469324
 30
0.0
 10
271.484916
 20
530.025980
 30
0.0
 10
238.586384
 20
547.055812
 30
0.0
 10
232.393712
 20
638.978404
 30
0.0
 10
238.186264
 20
654.650484
 30
0.0
 10
246.865704
 20
650.597924
 30
0.0
 10
237.801016
 20
628.462084
 30
0.0
  0
LWPOLYLINE
  5
18c
100
AcDbEntity
  8
Layer_1
 62
7
100
AcDbPolyline
 90
19
 70
1
 10
240.571208
 20
627.409364
 30
0.0
 10
280.693151
 20
725.964964
 30
0.0
 10
286.700514
 20
726.909124
 30
0.0
 10
286.313470
 20
753.373124
 30
0.0
 10
267.605660
 20
762.744004
 30
0.0
 10
267.545676
 20
799.060964
 30
0.0
 10
251.866768
 20
799.044164
 30
0.0
 10
252.495760
 20
751.752404
 30
0.0
 10
205.131592
 20
638.760724
 30
0.0
 10
205.566864
 20
600.225764
 30
0.0
 10
220.129352
 20
600.104804
 30
0.0
 10
220.419544
 20
549.015332
 30
0.0
 10
207.107344
 20
549.075012
 30
0.0
 10
194.175120
 20
533.783332
 30
0.0
 10
194.584608
 20
502.570364
 30
0.0
 10
189.311120
 20
497.998604
 30
0.0
 10
196.769456
 20
490.299996
 30
0.0
 10
200.837208
 20
495.961524
 30
0.0
 10
271.125890
 20
496.469324
 30
0.0
  0
LWPOLYLINE
  5
18d
100
AcDbEntity
  8
Layer_1
 62
3
100
AcDbPolyline
 90
2
 70
0
 10
200.751960
 20
497.834876
 30
0.0
 10
270.195477
 20
497.834876
 30
0.0
  0
LWPOLYLINE
  5
18e
100
AcDbEntity
  8
Layer_1
 62
3
100
AcDbPolyline
 90
2
 70
0
 10
202.614432
 20
499.431284
 30
0.0
 10
270.183952
 20
499.431284
 30
0.0
  0
LWPOLYLINE
  5
18f
100
AcDbEntity
  8
Layer_1
 62
3
100
AcDbPolyline
 90
2
 70
0
 10
203.678696
 20
501.293748
 30
0.0
 10
270.288116
 20
501.293748
 30
0.0
  0
LWPOLYLINE
  5
190
100
AcDbEntity
  8
Layer_1
 62
3
100
AcDbPolyline
 90
4
 70
0
 10
271.155861
 20
509.731740
 30
0.0
 10
268.543349
 20
512.127308
 30
0.0
 10
263.056728
 20
512.127308
 30
0.0
 10
271.160478
 20
504.696516
 30
0.0
  0
LWPOLYLINE
  5
191
100
AcDbEntity
  8
Layer_1
 62
3
100
AcDbPolyline
 90
5
 70
1
 10
266.554768
 20
502.767772
 30
0.0
 10
256.347616
 20
512.127308
 30
0.0
 10
250.861000
 20
512.127308
 30
0.0
 10
261.068152
 20
502.767772
 30
0.0
 10
266.554768
 20
502.767772
 30
0.0
  0
LWPOLYLINE
  5
192
100
AcDbEntity
  8
Layer_1
 62
3
100
AcDbPolyline
 90
5
 70
1
 10
255.985136
 20
502.767772
 30
0.0
 10
245.777976
 20
512.127308
 30
0.0
 10
240.291360
 20
512.127308
 30
0.0
 10
250.498520
 20
502.767772
 30
0.0
 10
255.985136
 20
502.767772
 30
0.0
  0
LWPOLYLINE
  5
193
100
AcDbEntity
  8
Layer_1
 62
3
100
AcDbPolyline
 90
5
 70
1
 10
245.415496
 20
502.767772
 30
0.0
 10
235.208344
 20
512.127308
 30
0.0
 10
229.721720
 20
512.127308
 30
0.0
 10
239.928880
 20
502.767772
 30
0.0
 10
245.415496
 20
502.767772
 30
0.0
  0
LWPOLYLINE
  5
194
100
AcDbEntity
  8
Layer_1
 62
3
100
AcDbPolyline
 90
5
 70
1
 10
234.845864
 20
502.767772
 30
0.0
 10
224.638704
 20
512.127308
 30
0.0
 10
219.152088
 20
512.127308
 30
0.0
 10
229.359240
 20
502.767772
 30
0.0
 10
234.845864
 20
502.767772
 30
0.0
  0
LWPOLYLINE
  5
195
100
AcDbEntity
  8
Layer_1
 62
3
100
AcDbPolyline
 90
5
 70
1
 10
223.463176
 20
502.767772
 30
0.0
 10
213.256016
 20
512.127308
 30
0.0
 10
207.769400
 20
512.127308
 30
0.0
 10
217.976560
 20
502.767772
 30
0.0
 10
223.463176
 20
502.767772
 30
0.0
  0
LWPOLYLINE
  5
196
100
AcDbEntity
  8
Layer_1
 62
3
100
AcDbPolyline
 90
5
 70
1
 10
212.080488
 20
502.767772
 30
0.0
 10
201.873328
 20
512.127308
 30
0.0
 10
196.386712
 20
512.127308
 30
0.0
 10
206.593872
 20
502.767772
 30
0.0
 10
212.080488
 20
502.767772
 30
0.0
  0
LWPOLYLINE
  5
197
100
AcDbEntity
  8
Layer_1
 62
3
100
AcDbPolyline
 90
4
 70
0
 10
194.496600
 20
504.914084
 30
0.0
 10
196.837280
 20
502.767772
 30
0.0
 10
202.323904
 20
502.767772
 30
0.0
 10
194.390288
 20
510.042556
 30
0.0
  0
SPLINE
  5
198
100
AcDbEntity
  8
Layer_1
 62
7
100
AcDbSpline
 70
0
 71
3
 72
10
 73
6
 74
4
 40
0.000000
 40
0.000000
 40
0.000000
 40
0.000000
 40
1.174861
 40
2.156022
 40
3.187278
 40
3.187278
 40
3.187278
 40
3.187278
 10
237.801016
 20
628.462084
 30
0.0
 10
238.034315
 20
628.129392
 30
0.0
 10
238.462450
 20
627.518860
 30
0.0
 10
239.568028
 20
627.277938
 30
0.0
 10
240.231311
 20
627.364834
 30
0.0
 10
240.571208
 20
627.409364
 30
0.0
 11
237.801016
 21
628.462084
 31
0.0
 11
238.595854
 21
627.596907
 31
0.0
 11
239.542386
 21
627.338540
 31
0.0
 11
240.571208
 21
627.409364
 31
0.0
  0
SPLINE
  5
199
100
AcDbEntity
  8
Layer_1
 62
3
100
AcDbSpline
 70
0
 71
3
 72
10
 73
6
 74
4
 40
0.000000
 40
0.000000
 40
0.000000
 40
0.000000
 40
3.708017
 40
5.482635
 40
8.251075
 40
8.251075
 40
8.251075
 40
8.251075
 10
243.009368
 20
531.922972
 30
0.0
 10
243.680366
 20
532.932842
 30
0.0
 10
244.672496
 20
534.426025
 30
0.0
 10
247.337789
 20
536.090014
 30
0.0
 10
248.531971
 20
534.783177
 30
0.0
 10
249.259680
 20
533.986820
 30
0.0
 11
243.009368
 21
531.922972
 31
0.0
 11
245.378633
 21
534.775334
 31
0.0
 11
246.975055
 21
535.550388
 31
0.0
 11
249.259680
 21
533.986820
 31
0.0
  0
LWPOLYLINE
  5
19a
100
AcDbEntity
  8
Layer_1
 62
3
100
AcDbPolyline
 90
7
 70
1
 10
255.548616
 20
517.183012
 30
0.0
 10
253.120688
 20
517.231732
 30
0.0
 10
253.033344
 20
528.013236
 30
0.0
 10
245.500664
 20
528.115276
 30
0.0
 10
245.656032
 20
514.166868
 30
0.0
 10
243.082008
 20
514.166868
 30
0.0
 10
243.009368
 20
531.922972
 30
0.0
  0
LWPOLYLINE
  5
19b
100
AcDbEntity
  8
Layer_1
 62
3
100
AcDbPolyline
 90
2
 70
1
 10
255.505352
 20
532.345012
 30
0.0
 10
255.548616
 20
517.183012
 30
0.0
  0
LWPOLYLINE
  5
19c
100
AcDbEntity
  8
Layer_1
 62
3
100
AcDbPolyline
 90
5
 70
1
 10
250.691408
 20
516.692804
 30
0.0
 10
250.691408
 20
524.589260
 30
0.0
 10
248.158584
 20
524.589260
 30
0.0
 10
248.158584
 20
516.692804
 30
0.0
 10
250.691408
 20
516.692804
 30
0.0
  0
LWPOLYLINE
  5
19d
100
AcDbEntity
  8
Layer_1
 62
3
100
AcDbPolyline
 90
2
 70
0
 10
267.535202
 20
743.275204
 30
0.0
 10
261.872360
 20
738.952244
 30
0.0
  0
LWPOLYLINE
  5
19e
100
AcDbEntity
  8
Layer_1
 62
3
100
AcDbPolyline
 90
2
 70
0
 10
261.872360
 20
735.091204
 30
0.0
 10
267.535202
 20
739.414164
 30
0.0
  0
LWPOLYLINE
  5
19f
100
AcDbEntity
  8
Layer_1
 62
3
100
AcDbPolyline
 90
2
 70
0
 10
267.535202
 20
753.844804
 30
0.0
 10
261.872360
 20
749.521924
 30
0.0
  0
LWPOLYLINE
  5
1a0
100
AcDbEntity
  8
Layer_1
 62
3
100
AcDbPolyline
 90
2
 70
0
 10
261.872360
 20
745.660884
 30
0.0
 10
267.535202
 20
749.983764
 30
0.0
  0
LWPOLYLINE
  5
1a1
100
AcDbEntity
  8
Layer_1
 62
3
100
AcDbPolyline
 90
2
 70
0
 10
267.535202
 20
764.414484
 30
0.0
 10
261.872360
 20
760.091524
 30
0.0
  0
LWPOLYLINE
  5
1a2
100
AcDbEntity
  8
Layer_1
 62
3
100
AcDbPolyline
 90
2
 70
0
 10
261.872360
 20
756.230484
 30
0.0
 10
267.535202
 20
760.553444
 30
0.0
  0
LWPOLYLINE
  5
1a3
100
AcDbEntity
  8
Layer_1
 62
3
100
AcDbPolyline
 90
2
 70
0
 10
267.535202
 20
774.171044
 30
0.0
 10
261.872360
 20
769.848164
 30
0.0
  0
LWPOLYLINE
  5
1a4
100
AcDbEntity
  8
Layer_1
 62
3
100
AcDbPolyline
 90
2
 70
0
 10
261.872360
 20
765.987124
 30
0.0
 10
267.535202
 20
770.310004
 30
0.0
  0
LWPOLYLINE
  5
1a5
100
AcDbEntity
  8
Layer_1
 62
3
100
AcDbPolyline
 90
2
 70
0
 10
267.535202
 20
785.553764
 30
0.0
 10
261.872360
 20
781.230804
 30
0.0
  0
LWPOLYLINE
  5
1a6
100
AcDbEntity
  8
Layer_1
 62
3
100
AcDbPolyline
 90
2
 70
0
 10
261.872360
 20
777.369764
 30
0.0
 10
267.535202
 20
781.692644
 30
0.0
  0
LWPOLYLINE
  5
1a7
100
AcDbEntity
  8
Layer_1
 62
3
100
AcDbPolyline
 90
2
 70
0
 10
267.535202
 20
795.310324
 30
0.0
 10
261.872360
 20
790.987444
 30
0.0
  0
LWPOLYLINE
  5
1a8
100
AcDbEntity
  8
Layer_1
 62
3
100
AcDbPolyline
 90
2
 70
0
 10
261.872360
 20
787.126324
 30
0.0
 10
267.535202
 20
791.449284
 30
0.0
  0
LWPOLYLINE
  5
1a9
100
AcDbEntity
  8
Layer_1
 62
3
100
AcDbPolyline
 90
4
 70
0
 10
261.924712
 20
798.996084
 30
0.0
 10
261.924712
 20
732.630884
 30
0.0
 10
267.596594
 20
732.630884
 30
0.0
 10
267.596594
 20
762.754964
 30
0.0
  0
LWPOLYLINE
  5
1aa
100
AcDbEntity
  8
Layer_1
 62
5
100
AcDbPolyline
 90
5
 70
1
 10
248.204960
 20
653.183924
 30
0.0
 10
266.639903
 20
697.788564
 30
0.0
 10
256.806240
 20
701.965604
 30
0.0
 10
238.975048
 20
657.428084
 30
0.0
 10
248.204960
 20
653.183924
 30
0.0
  0
LWPOLYLINE
  5
1ab
100
AcDbEntity
  8
Layer_1
 62
5
100
AcDbPolyline
 90
5
 70
1
 10
267.416036
 20
700.395444
 30
0.0
 10
277.917567
 20
725.804644
 30
0.0
 10
265.891432
 20
723.885364
 30
0.0
 10
258.186120
 20
704.639604
 30
0.0
 10
267.416036
 20
700.395444
 30
0.0
  0
SPLINE
  5
1ac
100
AcDbEntity
  8
Layer_1
 62
3
100
AcDbSpline
 70
0
 71
3
 72
10
 73
6
 74
4
 40
0.000000
 40
0.000000
 40
0.000000
 40
0.000000
 40
2.759810
 40
4.836263
 40
8.345894
 40
8.345894
 40
8.345894
 40
8.345894
 10
249.259680
 20
533.986820
 30
0.0
 10
249.883626
 20
534.870484
 30
0.0
 10
250.977022
 20
536.419008
 30
0.0
 10
253.844573
 20
534.793724
 30
0.0
 10
254.864531
 20
533.289861
 30
0.0
 10
255.505352
 20
532.345012
 30
0.0
 11
249.259680
 21
533.986820
 31
0.0
 11
251.316575
 21
535.826857
 31
0.0
 11
253.227881
 21
535.015338
 31
0.0
 11
255.505352
 21
532.345012
 31
0.0
  0
LWPOLYLINE
  5
1ad
100
AcDbEntity
  8
Layer_1
 62
3
100
AcDbPolyline
 90
2
 70
0
 10
280.651941
 20
725.816164
 30
0.0
 10
280.741392
 20
749.915604
 30
0.0
  0
LWPOLYLINE
  5
1ae
100
AcDbEntity
  8
Layer_1
 62
3
100
AcDbPolyline
 90
3
 70
0
 10
278.768505
 20
749.924404
 30
0.0
 10
278.759361
 20
728.167604
 30
0.0
 10
277.889590
 20
725.690804
 30
0.0
  0
LWPOLYLINE
  5
1af
100
AcDbEntity
  8
Layer_1
 62
3
100
AcDbPolyline
 90
5
 70
0
 10
269.250302
 20
512.277620
 30
0.0
 10
269.797196
 20
528.502132
 30
0.0
 10
237.165864
 20
545.820444
 30
0.0
 10
230.967728
 20
640.433124
 30
0.0
 10
236.072072
 20
655.563844
 30
0.0
  0
LWPOLYLINE
  5
1b0
100
AcDbEntity
  8
Layer_1
 62
3
100
AcDbPolyline
 90
2
 70
0
 10
237.348160
 20
657.204564
 30
0.0
 10
255.213360
 20
702.779044
 30
0.0
  0
LWPOLYLINE
  5
1b1
100
AcDbEntity
  8
Layer_1
 62
3
100
AcDbPolyline
 90
3
 70
0
 10
256.489448
 20
704.966564
 30
0.0
 10
263.963664
 20
725.201684
 30
0.0
 10
278.365204
 20
727.389284
 30
0.0
  0
LWPOLYLINE
  5
1b2
100
AcDbEntity
  8
Layer_1
 62
3
100
AcDbPolyline
 90
4
 70
0
 10
280.917373
 20
727.571524
 30
0.0
 10
284.927932
 20
728.665364
 30
0.0
 10
284.381038
 20
752.728644
 30
0.0
 10
267.974218
 20
760.749764
 30
0.0
  0
SPLINE
  5
1b3
100
AcDbEntity
  8
Layer_1
 62
3
100
AcDbSpline
 70
0
 71
3
 72
10
 73
6
 74
4
 40
0.000000
 40
0.000000
 40
0.000000
 40
0.000000
 40
0.896426
 40
1.749094
 40
2.574433
 40
2.574433
 40
2.574433
 40
2.574433
 10
280.741392
 20
749.915604
 30
0.0
 10
280.569174
 20
750.173517
 30
0.0
 10
280.233144
 20
750.676754
 30
0.0
 10
279.175204
 20
750.724746
 30
0.0
 10
278.902591
 20
750.188272
 30
0.0
 10
278.768505
 20
749.924404
 30
0.0
 11
280.741392
 21
749.915604
 31
0.0
 11
280.124204
 21
750.565725
 31
0.0
 11
279.271633
 21
750.578656
 31
0.0
 11
278.768505
 21
749.924404
 31
0.0
  0
LWPOLYLINE
  5
1b4
100
AcDbEntity
  8
Layer_1
 62
3
100
AcDbPolyline
 90
10
 70
0
 10
261.776088
 20
797.756244
 30
0.0
 10
253.754976
 20
797.756244
 30
0.0
 10
253.937272
 20
751.452564
 30
0.0
 10
207.268992
 20
639.521604
 30
0.0
 10
207.633592
 20
602.150564
 30
0.0
 10
222.035128
 20
601.968244
 30
0.0
 10
221.852832
 20
546.731956
 30
0.0
 10
207.998184
 20
546.731956
 30
0.0
 10
196.148816
 20
532.877316
 30
0.0
 10
196.513408
 20
512.459948
 30
0.0
  0
SPLINE
  5
1b5
100
AcDbEntity
  8
Layer_1
 62
3
100
AcDbSpline
 70
0
 71
3
 72
19
 73
15
 74
13
 40
0.000000
 40
0.000000
 40
0.000000
 40
0.000000
 40
4.375020
 40
8.620277
 40
12.995298
 40
17.370318
 40
21.615573
 40
25.990590
 40
30.365610
 40
34.610866
 40
38.985880
 40
43.360900
 40
47.606158
 40
51.981175
 40
51.981175
 40
51.981175
 40
51.981175
 10
207.519760
 20
529.949812
 30
0.0
 10
207.250180
 20
528.481482
 30
0.0
 10
206.719016
 20
525.588373
 30
0.0
 10
208.808007
 20
521.468778
 30
0.0
 10
212.518954
 20
518.915848
 30
0.0
 10
217.055308
 20
518.586228
 30
0.0
 10
221.129053
 20
520.551855
 30
0.0
 10
223.694662
 20
524.296448
 30
0.0
 10
224.020269
 20
528.823953
 30
0.0
 10
222.057926
 20
532.899282
 30
0.0
 10
218.303912
 20
535.467258
 30
0.0
 10
213.810628
 20
535.781831
 30
0.0
 10
209.610234
 20
533.860469
 30
0.0
 10
208.223543
 20
531.266380
 30
0.0
 10
207.519760
 20
529.949812
 30
0.0
 11
207.519760
 21
529.949812
 31
0.0
 11
207.204774
 21
525.586145
 31
0.0
 11
209.048087
 21
521.761958
 31
0.0
 11
212.657896
 21
519.290100
 31
0.0
 11
217.021562
 21
518.975114
 31
0.0
 11
220.845747
 21
520.818427
 31
0.0
 11
223.317600
 21
524.428236
 31
0.0
 11
223.632590
 21
528.791902
 31
0.0
 11
221.789277
 21
532.616087
 31
0.0
 11
218.179472
 21
535.087940
 31
0.0
 11
213.815806
 21
535.402929
 31
0.0
 11
209.991618
 21
533.559617
 31
0.0
 11
207.519760
 21
529.949812
 31
0.0
  0
LWPOLYLINE
  5
1b6
100
AcDbEntity
  8
Layer_1
 62
3
100
AcDbPolyline
 90
2
 70
1
 10
207.519760
 20
529.949812
 30
0.0
 10
207.519760
 20
529.949812
 30
0.0
  0
LWPOLYLINE
  5
1b7
100
AcDbEntity
  8
Layer_1
 62
3
100
AcDbPolyline
 90
2
 70
1
 10
219.750544
 20
524.272908
 30
0.0
 10
219.750544
 20
524.272908
 30
0.0
  0
SPLINE
  5
1b8
100
AcDbEntity
  8
Layer_1
 62
3
100
AcDbSpline
 70
0
 71
3
 72
19
 73
15
 74
13
 40
0.000000
 40
0.000000
 40
0.000000
 40
0.000000
 40
2.784081
 40
5.485588
 40
8.269668
 40
11.053752
 40
13.755258
 40
16.539338
 40
19.323416
 40
22.024922
 40
24.809007
 40
27.593088
 40
30.294594
 40
33.078673
 40
33.078673
 40
33.078673
 40
33.078673
 10
219.750544
 20
524.272908
 30
0.0
 10
219.107164
 20
523.573934
 30
0.0
 10
217.839486
 20
522.196717
 30
0.0
 10
214.945523
 20
521.682309
 30
0.0
 10
212.227402
 20
522.592102
 30
0.0
 10
210.323803
 20
524.772383
 30
0.0
 10
209.764223
 20
527.595827
 30
0.0
 10
210.686266
 20
530.333271
 30
0.0
 10
212.863585
 20
532.231439
 30
0.0
 10
215.686576
 20
532.793297
 30
0.0
 10
218.428834
 20
531.867372
 30
0.0
 10
220.308293
 20
529.703222
 30
0.0
 10
220.938847
 20
526.832329
 30
0.0
 10
220.150600
 20
525.134567
 30
0.0
 10
219.750544
 20
524.272908
 30
0.0
 11
219.750544
 21
524.272908
 31
0.0
 11
217.652459
 21
522.442840
 31
0.0
 11
215.002709
 21
521.916571
 31
0.0
 11
212.364512
 21
522.805964
 31
0.0
 11
210.534440
 21
524.904049
 31
0.0
 11
210.008173
 21
527.553799
 31
0.0
 11
210.897568
 21
530.191996
 31
0.0
 11
212.995647
 21
532.022064
 31
0.0
 11
215.645398
 21
532.548333
 31
0.0
 11
218.283600
 21
531.658940
 31
0.0
 11
220.113666
 21
529.560855
 31
0.0
 11
220.639934
 21
526.911105
 31
0.0
 11
219.750544
 21
524.272908
 31
0.0
  0
SPLINE
  5
1b9
100
AcDbEntity
  8
Layer_1
 62
3
100
AcDbSpline
 70
0
 71
3
 72
10
 73
6
 74
4
 40
0.000000
 40
0.000000
 40
0.000000
 40
0.000000
 40
0.349859
 40
0.685904
 40
1.039601
 40
1.039601
 40
1.039601
 40
1.039601
 10
218.438640
 20
525.136244
 30
0.0
 10
218.489092
 20
525.241895
 30
0.0
 10
218.588004
 20
525.449025
 30
0.0
 10
218.839464
 20
525.701788
 30
0.0
 10
219.052553
 20
525.792333
 30
0.0
 10
219.161824
 20
525.838764
 30
0.0
 11
218.438640
 21
525.136244
 31
0.0
 11
218.607426
 21
525.442695
 31
0.0
 11
218.846174
 21
525.679182
 31
0.0
 11
219.161824
 21
525.838764
 31
0.0
  0
SPLINE
  5
1ba
100
AcDbEntity
  8
Layer_1
 62
3
100
AcDbSpline
 70
0
 71
3
 72
10
 73
6
 74
4
 40
0.000000
 40
0.000000
 40
0.000000
 40
0.000000
 40
0.974808
 40
1.966989
 40
2.997368
 40
2.997368
 40
2.997368
 40
2.997368
 10
219.058512
 20
526.107380
 30
0.0
 10
219.046345
 20
526.432097
 30
0.0
 10
219.021793
 20
527.087319
 30
0.0
 10
219.083188
 20
528.088490
 30
0.0
 10
219.231108
 20
528.747192
 30
0.0
 10
219.306464
 20
529.082764
 30
0.0
 11
219.058512
 21
526.107380
 31
0.0
 11
219.037935
 21
527.081970
 31
0.0
 11
219.108033
 21
528.071672
 31
0.0
 11
219.306464
 21
529.082764
 31
0.0
  0
SPLINE
  5
1bb
100
AcDbEntity
  8
Layer_1
 62
3
100
AcDbSpline
 70
0
 71
3
 72
10
 73
6
 74
4
 40
0.000000
 40
0.000000
 40
0.000000
 40
0.000000
 40
0.323669
 40
0.567371
 40
1.098276
 40
1.098276
 40
1.098276
 40
1.098276
 10
219.306464
 20
529.082764
 30
0.0
 10
219.212003
 20
529.178212
 30
0.0
 10
219.046418
 20
529.345528
 30
0.0
 10
218.772793
 20
528.976702
 30
0.0
 10
218.795206
 20
528.720878
 30
0.0
 10
218.810568
 20
528.545540
 30
0.0
 11
219.306464
 21
529.082764
 31
0.0
 11
219.030965
 21
529.252651
 31
0.0
 11
218.865667
 21
529.073577
 31
0.0
 11
218.810568
 21
528.545540
 31
0.0
  0
SPLINE
  5
1bc
100
AcDbEntity
  8
Layer_1
 62
3
100
AcDbSpline
 70
0
 71
3
 72
10
 73
6
 74
4
 40
0.000000
 40
0.000000
 40
0.000000
 40
0.000000
 40
0.930389
 40
1.829626
 40
2.612210
 40
2.612210
 40
2.612210
 40
2.612210
 10
217.922080
 20
525.859428
 30
0.0
 10
217.941538
 20
526.168605
 30
0.0
 10
217.979803
 20
526.776606
 30
0.0
 10
218.021301
 20
527.651140
 30
0.0
 10
218.179204
 20
528.191014
 30
0.0
 10
218.252680
 20
528.442228
 30
0.0
 11
217.922080
 21
525.859428
 31
0.0
 11
217.978076
 21
526.788131
 31
0.0
 11
218.060658
 21
527.683568
 31
0.0
 11
218.252680
 21
528.442228
 31
0.0
  0
SPLINE
  5
1bd
100
AcDbEntity
  8
Layer_1
 62
3
100
AcDbSpline
 70
0
 71
3
 72
10
 73
6
 74
4
 40
0.000000
 40
0.000000
 40
0.000000
 40
0.000000
 40
0.955655
 40
1.911216
 40
2.553629
 40
2.553629
 40
2.553629
 40
2.553629
 10
218.087384
 20
527.533084
 30
0.0
 10
217.770773
 20
527.503402
 30
0.0
 10
217.137581
 20
527.444042
 30
0.0
 10
216.275234
 20
527.452249
 30
0.0
 10
215.769778
 20
527.274102
 30
0.0
 10
215.566576
 20
527.202484
 30
0.0
 11
218.087384
 21
527.533084
 31
0.0
 11
217.134495
 21
527.460416
 31
0.0
 11
216.181705
 21
527.387717
 31
0.0
 11
215.566576
 21
527.202484
 31
0.0
  0
SPLINE
  5
1be
100
AcDbEntity
  8
Layer_1
 62
3
100
AcDbSpline
 70
0
 71
3
 72
10
 73
6
 74
4
 40
0.000000
 40
0.000000
 40
0.000000
 40
0.000000
 40
0.368334
 40
0.651610
 40
0.927280
 40
0.927280
 40
0.927280
 40
0.927280
 10
215.566576
 20
527.202484
 30
0.0
 10
215.671310
 20
527.132257
 30
0.0
 10
215.856592
 20
527.008020
 30
0.0
 10
215.976700
 20
526.714054
 30
0.0
 10
216.047981
 20
526.542999
 30
0.0
 10
216.083136
 20
526.458636
 30
0.0
 11
215.566576
 21
527.202484
 31
0.0
 11
215.848543
 21
526.965494
 31
0.0
 11
215.977398
 21
526.713220
 31
0.0
 11
216.083136
 21
526.458636
 31
0.0
  0
SPLINE
  5
1bf
100
AcDbEntity
  8
Layer_1
 62
3
100
AcDbSpline
 70
0
 71
3
 72
10
 73
6
 74
4
 40
0.000000
 40
0.000000
 40
0.000000
 40
0.000000
 40
0.530611
 40
1.190144
 40
1.851526
 40
1.851526
 40
1.851526
 40
1.851526
 10
214.988024
 20
525.962740
 30
0.0
 10
214.841960
 20
526.074768
 30
0.0
 10
214.514342
 20
526.326044
 30
0.0
 10
213.864904
 20
526.209376
 30
0.0
 10
213.429214
 20
526.224022
 30
0.0
 10
213.211064
 20
526.231356
 30
0.0
 11
214.988024
 21
525.962740
 31
0.0
 11
214.531974
 21
526.233972
 31
0.0
 11
213.872442
 21
526.233894
 31
0.0
 11
213.211064
 21
526.231356
 31
0.0
  0
LWPOLYLINE
  5
1c0
100
AcDbEntity
  8
Layer_1
 62
3
100
AcDbPolyline
 90
2
 70
0
 10
220.215608
 20
526.892548
 30
0.0
 10
219.595736
 20
527.409108
 30
0.0
  0
LWPOLYLINE
  5
1c1
100
AcDbEntity
  8
Layer_1
 62
3
100
AcDbPolyline
 90
2
 70
0
 10
214.306168
 20
525.570156
 30
0.0
 10
214.471464
 20
526.954532
 30
0.0
  0
SPLINE
  5
1c2
100
AcDbEntity
  8
Layer_1
 62
3
100
AcDbSpline
 70
0
 71
3
 72
10
 73
6
 74
4
 40
0.000000
 40
0.000000
 40
0.000000
 40
0.000000
 40
0.622654
 40
1.156022
 40
1.697575
 40
1.697575
 40
1.697575
 40
1.697575
 10
212.963112
 20
524.888300
 30
0.0
 10
212.979192
 20
525.096077
 30
0.0
 10
213.009046
 20
525.481836
 30
0.0
 10
213.224572
 20
526.017328
 30
0.0
 10
213.201848
 20
526.379488
 30
0.0
 10
213.190400
 20
526.561948
 30
0.0
 11
212.963112
 21
524.888300
 31
0.0
 11
213.045271
 21
525.505510
 31
0.0
 11
213.184337
 21
526.020428
 31
0.0
 11
213.190400
 21
526.561948
 31
0.0
  0
LWPOLYLINE
  5
1c3
100
AcDbEntity
  8
Layer_1
 62
3
100
AcDbPolyline
 90
2
 70
0
 10
213.686296
 20
525.590820
 30
0.0
 10
213.851592
 20
526.644596
 30
0.0
  0
SPLINE
  5
1c4
100
AcDbEntity
  8
Layer_1
 62
3
100
AcDbSpline
 70
0
 71
3
 72
10
 73
6
 74
4
 40
0.000000
 40
0.000000
 40
0.000000
 40
0.000000
 40
0.506397
 40
0.938147
 40
1.227897
 40
1.227897
 40
1.227897
 40
1.227897
 10
215.091336
 20
527.905004
 30
0.0
 10
214.930387
 20
527.859745
 30
0.0
 10
214.632214
 20
527.775899
 30
0.0
 10
214.217869
 20
527.671873
 30
0.0
 10
214.059737
 20
527.484397
 30
0.0
 10
213.996232
 20
527.409108
 30
0.0
 11
215.091336
 21
527.905004
 31
0.0
 11
214.603129
 21
527.770500
 31
0.0
 11
214.200509
 21
527.614598
 31
0.0
 11
213.996232
 21
527.409108
 31
0.0
  0
LWPOLYLINE
  5
1c5
100
AcDbEntity
  8
Layer_1
 62
3
100
AcDbPolyline
 90
2
 70
0
 10
214.264840
 20
527.657060
 30
0.0
 10
214.554120
 20
528.586860
 30
0.0
  0
SPLINE
  5
1c6
100
AcDbEntity
  8
Layer_1
 62
3
100
AcDbSpline
 70
0
 71
3
 72
10
 73
6
 74
4
 40
0.000000
 40
0.000000
 40
0.000000
 40
0.000000
 40
0.353897
 40
0.715060
 40
1.090290
 40
1.090290
 40
1.090290
 40
1.090290
 10
214.554120
 20
528.586860
 30
0.0
 10
214.432306
 20
528.572603
 30
0.0
 10
214.186176
 20
528.543798
 30
0.0
 10
213.945209
 20
528.245302
 30
0.0
 10
213.787381
 20
528.060939
 30
0.0
 10
213.706960
 20
527.966996
 30
0.0
 11
214.554120
 21
528.586860
 31
0.0
 11
214.210255
 21
528.503194
 31
0.0
 11
213.949503
 21
528.253301
 31
0.0
 11
213.706960
 21
527.966996
 31
0.0
  0
SPLINE
  5
1c7
100
AcDbEntity
  8
Layer_1
 62
3
100
AcDbSpline
 70
0
 71
3
 72
10
 73
6
 74
4
 40
0.000000
 40
0.000000
 40
0.000000
 40
0.000000
 40
0.849254
 40
1.653380
 40
2.449599
 40
2.449599
 40
2.449599
 40
2.449599
 10
212.818472
 20
527.140500
 30
0.0
 10
212.799413
 20
527.424948
 30
0.0
 10
212.762308
 20
527.978729
 30
0.0
 10
212.992862
 20
528.776092
 30
0.0
 10
212.959197
 20
529.312020
 30
0.0
 10
212.942448
 20
529.578660
 30
0.0
 11
212.818472
 21
527.140500
 31
0.0
 11
212.812141
 21
527.989730
 31
0.0
 11
212.947078
 21
528.782454
 31
0.0
 11
212.942448
 21
529.578660
 31
0.0
  0
SPLINE
  5
1c8
100
AcDbEntity
  8
Layer_1
 62
3
100
AcDbSpline
 70
0
 71
3
 72
10
 73
6
 74
4
 40
0.000000
 40
0.000000
 40
0.000000
 40
0.000000
 40
0.938525
 40
1.877056
 40
2.678453
 40
2.678453
 40
2.678453
 40
2.678453
 10
213.252384
 20
527.863676
 30
0.0
 10
212.942784
 20
527.899488
 30
0.0
 10
212.323583
 20
527.971112
 30
0.0
 10
211.436261
 20
528.202954
 30
0.0
 10
210.868915
 20
528.041404
 30
0.0
 10
210.607600
 20
527.966996
 30
0.0
 11
213.252384
 21
527.863676
 31
0.0
 11
212.322927
 21
527.993824
 31
0.0
 11
211.393468
 21
528.123999
 31
0.0
 11
210.607600
 21
527.966996
 31
0.0
  0
SPLINE
  5
1c9
100
AcDbEntity
  8
Layer_1
 62
3
100
AcDbSpline
 70
0
 71
3
 72
10
 73
6
 74
4
 40
0.000000
 40
0.000000
 40
0.000000
 40
0.000000
 40
0.254542
 40
0.431443
 40
0.756264
 40
0.756264
 40
0.756264
 40
0.756264
 10
210.607600
 20
527.966996
 30
0.0
 10
210.581788
 20
527.884577
 30
0.0
 10
210.538038
 20
527.744878
 30
0.0
 10
210.669929
 20
527.476217
 30
0.0
 10
210.857859
 20
527.548361
 30
0.0
 10
210.979528
 20
527.595068
 30
0.0
 11
210.607600
 21
527.966996
 31
0.0
 11
210.571583
 21
527.715014
 31
0.0
 11
210.656617
 21
527.559892
 31
0.0
 11
210.979528
 21
527.595068
 31
0.0
  0
SPLINE
  5
1ca
100
AcDbEntity
  8
Layer_1
 62
3
100
AcDbSpline
 70
0
 71
3
 72
10
 73
6
 74
4
 40
0.000000
 40
0.000000
 40
0.000000
 40
0.000000
 40
0.536176
 40
1.140305
 40
1.787114
 40
1.787114
 40
1.787114
 40
1.787114
 10
212.136616
 20
527.202484
 30
0.0
 10
212.113097
 20
527.381142
 30
0.0
 10
212.063078
 20
527.761100
 30
0.0
 10
212.205307
 20
528.347722
 30
0.0
 10
212.228128
 20
528.764139
 30
0.0
 10
212.239928
 20
528.979452
 30
0.0
 11
212.136616
 21
527.202484
 31
0.0
 11
212.097182
 21
527.737208
 31
0.0
 11
212.184013
 21
528.335064
 31
0.0
 11
212.239928
 21
528.979452
 31
0.0
  0
SPLINE
  5
1cb
100
AcDbEntity
  8
Layer_1
 62
3
100
AcDbSpline
 70
0
 71
3
 72
10
 73
6
 74
4
 40
0.000000
 40
0.000000
 40
0.000000
 40
0.000000
 40
0.424631
 40
0.833071
 40
1.259677
 40
1.259677
 40
1.259677
 40
1.259677
 10
212.615824
 20
525.587868
 30
0.0
 10
212.478821
 20
525.624551
 30
0.0
 10
212.210039
 20
525.696518
 30
0.0
 10
211.779198
 20
525.682693
 30
0.0
 10
211.523846
 20
525.566389
 30
0.0
 10
211.393392
 20
525.506972
 30
0.0
 11
212.615824
 21
525.587868
 31
0.0
 11
212.200620
 21
525.676843
 31
0.0
 11
211.792649
 21
525.657260
 31
0.0
 11
211.393392
 21
525.506972
 31
0.0
  0
LWPOLYLINE
  5
1cc
100
AcDbEntity
  8
Layer_1
 62
3
100
AcDbPolyline
 90
3
 70
0
 10
213.417688
 20
527.243812
 30
0.0
 10
213.562320
 20
528.710836
 30
0.0
 10
212.735824
 20
528.731476
 30
0.0
  0
SPLINE
  5
1cd
100
AcDbEntity
  8
Layer_1
 62
3
100
AcDbSpline
 70
0
 71
3
 72
10
 73
6
 74
4
 40
0.000000
 40
0.000000
 40
0.000000
 40
0.000000
 40
0.266494
 40
0.553292
 40
0.887984
 40
0.887984
 40
0.887984
 40
0.887984
 10
212.588864
 20
525.812580
 30
0.0
 10
212.589211
 20
525.901403
 30
0.0
 10
212.589931
 20
526.085818
 30
0.0
 10
212.633793
 20
526.381273
 30
0.0
 10
212.715590
 20
526.572496
 30
0.0
 10
212.759640
 20
526.675476
 30
0.0
 11
212.588864
 21
525.812580
 31
0.0
 11
212.596078
 21
526.078976
 31
0.0
 11
212.642309
 21
526.362023
 31
0.0
 11
212.759640
 21
526.675476
 31
0.0
  0
LWPOLYLINE
  5
1ce
100
AcDbEntity
  8
Layer_1
 62
3
100
AcDbPolyline
 90
2
 70
0
 10
212.759640
 20
526.675476
 30
0.0
 10
211.231600
 20
526.612516
 30
0.0
  0
LWPOLYLINE
  5
1cf
100
AcDbEntity
  8
Layer_1
 62
3
100
AcDbPolyline
 90
2
 70
0
 10
212.175392
 20
526.001340
 30
0.0
 10
212.184352
 20
526.621548
 30
0.0
  0
LWPOLYLINE
  5
1d0
100
AcDbEntity
  8
Layer_1
 62
3
100
AcDbPolyline
 90
2
 70
0
 10
211.654056
 20
525.956396
 30
0.0
 10
211.681016
 20
526.585588
 30
0.0
  0
SPLINE
  5
1d1
100
AcDbEntity
  8
Layer_1
 62
3
100
AcDbSpline
 70
0
 71
3
 72
10
 73
6
 74
4
 40
0.000000
 40
0.000000
 40
0.000000
 40
0.000000
 40
0.162693
 40
0.268993
 40
0.374437
 40
0.374437
 40
0.374437
 40
0.374437
 10
211.231600
 20
526.612516
 30
0.0
 10
211.180023
 20
526.583427
 30
0.0
 10
211.094747
 20
526.535332
 30
0.0
 10
211.091510
 20
526.401415
 30
0.0
 10
211.083020
 20
526.332322
 30
0.0
 10
211.078792
 20
526.297916
 30
0.0
 11
211.231600
 21
526.612516
 31
0.0
 11
211.107213
 21
526.507650
 31
0.0
 11
211.089824
 21
526.402782
 31
0.0
 11
211.078792
 21
526.297916
 31
0.0
  0
SPLINE
  5
1d2
100
AcDbEntity
  8
Layer_1
 62
7
100
AcDbSpline
 70
0
 71
3
 72
10
 73
6
 74
4
 40
0.000000
 40
0.000000
 40
0.000000
 40
0.000000
 40
17.573210
 40
42.633889
 40
56.334365
 40
56.334365
 40
56.334365
 40
56.334365
 10
146.976289
 20
711.529259
 30
0.0
 10
145.832222
 20
717.224571
 30
0.0
 10
143.056633
 20
731.041814
 30
0.0
 10
135.145975
 20
749.541584
 30
0.0
 10
123.764993
 20
756.081888
 30
0.0
 10
119.742283
 20
758.393617
 30
0.0
 11
146.976289
 21
711.529259
 31
0.0
 11
142.998507
 21
728.646355
 31
0.0
 11
131.068558
 21
750.685273
 31
0.0
 11
119.742283
 21
758.393617
 31
0.0
  0
SPLINE
  5
1d3
100
AcDbEntity
  8
Layer_1
 62
7
100
AcDbSpline
 70
0
 71
3
 72
10
 73
6
 74
4
 40
0.000000
 40
0.000000
 40
0.000000
 40
0.000000
 40
9.097776
 40
19.248604
 40
34.065217
 40
34.065217
 40
34.065217
 40
34.065217
 10
119.742283
 20
758.393617
 30
0.0
 10
119.690387
 20
755.321784
 30
0.0
 10
119.580589
 20
748.822559
 30
0.0
 10
113.204404
 20
738.635633
 30
0.0
 10
105.699621
 20
734.759390
 30
0.0
 10
101.246002
 20
732.459082
 30
0.0
 11
119.742283
 21
758.393617
 31
0.0
 11
118.806263
 21
749.344120
 31
0.0
 11
113.609701
 21
740.624311
 31
0.0
 11
101.246002
 21
732.459082
 31
0.0
  0
LWPOLYLINE
  5
1d4
100
AcDbEntity
  8
Layer_1
 62
7
100
AcDbPolyline
 90
15
 70
1
 10
184.646248
 20
497.742063
 30
0.0
 10
185.501875
 20
531.289730
 30
0.0
 10
160.256603
 20
544.835325
 30
0.0
 10
160.516770
 20
634.388731
 30
0.0
 10
148.027453
 20
640.808756
 30
0.0
 10
182.670214
 20
725.399226
 30
0.0
 10
203.629688
 20
727.926182
 30
0.0
 10
203.634353
 20
754.392932
 30
0.0
 10
185.067282
 20
764.039662
 30
0.0
 10
185.544798
 20
800.353532
 30
0.0
 10
169.867357
 20
800.568782
 30
0.0
 10
169.796362
 20
753.272813
 30
0.0
 10
146.785107
 20
700.462957
 30
0.0
 10
144.353374
 20
700.126270
 30
0.0
 10
146.976289
 20
711.529259
 30
0.0
  0
SPLINE
  5
1d5
100
AcDbEntity
  8
Layer_1
 62
7
100
AcDbSpline
 70
0
 71
3
 72
10
 73
6
 74
4
 40
0.000000
 40
0.000000
 40
0.000000
 40
0.000000
 40
10.811960
 40
21.492719
 40
32.004177
 40
32.004177
 40
32.004177
 40
32.004177
 10
101.246002
 20
732.459082
 30
0.0
 10
101.887055
 20
728.913571
 30
0.0
 10
103.161382
 20
721.865572
 30
0.0
 10
105.502718
 20
711.434722
 30
0.0
 10
107.958151
 20
704.803093
 30
0.0
 10
109.176060
 20
701.513767
 30
0.0
 11
101.246002
 21
732.459082
 31
0.0
 11
103.244579
 21
721.833444
 31
0.0
 11
105.745001
 21
711.449490
 31
0.0
 11
109.176060
 21
701.513767
 31
0.0
  0
LWPOLYLINE
  5
1d6
100
AcDbEntity
  8
Layer_1
 62
7
100
AcDbPolyline
 90
2
 70
1
 10
109.176060
 20
701.513767
 30
0.0
 10
112.023441
 20
699.981538
 30
0.0
  0
SPLINE
  5
1d7
100
AcDbEntity
  8
Layer_1
 62
7
100
AcDbSpline
 70
0
 71
3
 72
10
 73
6
 74
4
 40
0.000000
 40
0.000000
 40
0.000000
 40
0.000000
 40
9.940652
 40
20.860465
 40
32.163309
 40
32.163309
 40
32.163309
 40
32.163309
 10
112.023441
 20
699.981538
 30
0.0
 10
114.394218
 20
697.621321
 30
0.0
 10
119.369297
 20
692.668405
 30
0.0
 10
129.440500
 20
688.544354
 30
0.0
 10
136.252374
 20
685.692468
 30
0.0
 10
139.717016
 20
684.241948
 30
0.0
 11
112.023441
 21
699.981538
 31
0.0
 11
119.489316
 21
693.418212
 31
0.0
 11
129.285155
 21
688.592876
 31
0.0
 11
139.717016
 21
684.241948
 31
0.0
  0
LWPOLYLINE
  5
1d8
100
AcDbEntity
  8
Layer_1
 62
7
100
AcDbPolyline
 90
2
 70
1
 10
139.717016
 20
684.241948
 30
0.0
 10
131.709840
 20
665.865882
 30
0.0
  0
SPLINE
  5
1d9
100
AcDbEntity
  8
Layer_1
 62
7
100
AcDbSpline
 70
0
 71
3
 72
10
 73
6
 74
4
 40
0.000000
 40
0.000000
 40
0.000000
 40
0.000000
 40
1.501470
 40
2.793654
 40
4.166283
 40
4.166283
 40
4.166283
 40
4.166283
 10
131.709840
 20
665.865882
 30
0.0
 10
131.287707
 20
666.143305
 30
0.0
 10
130.502280
 20
666.659481
 30
0.0
 10
129.684913
 20
667.806401
 30
0.0
 10
128.987342
 20
668.361797
 30
0.0
 10
128.628027
 20
668.647878
 30
0.0
 11
131.709840
 21
665.865882
 31
0.0
 11
130.512001
 21
666.771197
 31
0.0
 11
129.659601
 21
667.742357
 31
0.0
 11
128.628027
 21
668.647878
 31
0.0
  0
LWPOLYLINE
  5
1da
100
AcDbEntity
  8
Layer_1
 62
7
100
AcDbPolyline
 90
5
 70
1
 10
128.628027
 20
668.647878
 30
0.0
 10
122.343678
 20
672.666687
 30
0.0
 10
110.667699
 20
677.804054
 30
0.0
 10
106.986965
 20
674.245580
 30
0.0
 10
104.311756
 20
674.351585
 30
0.0
  0
SPLINE
  5
1db
100
AcDbEntity
  8
Layer_1
 62
7
100
AcDbSpline
 70
0
 71
3
 72
10
 73
6
 74
4
 40
0.000000
 40
0.000000
 40
0.000000
 40
0.000000
 40
4.481981
 40
8.880620
 40
13.396432
 40
13.396432
 40
13.396432
 40
13.396432
 10
104.311756
 20
674.351585
 30
0.0
 10
103.621860
 20
673.030565
 30
0.0
 10
102.254898
 20
670.413091
 30
0.0
 10
100.648788
 20
666.159160
 30
0.0
 10
100.776967
 20
663.160184
 30
0.0
 10
100.841899
 20
661.640986
 30
0.0
 11
104.311756
 21
674.351585
 31
0.0
 11
102.319059
 21
670.336948
 31
0.0
 11
100.954256
 21
666.155400
 31
0.0
 11
100.841899
 21
661.640986
 31
0.0
  0
SPLINE
  5
1dc
100
AcDbEntity
  8
Layer_1
 62
3
100
AcDbSpline
 70
0
 71
3
 72
10
 73
6
 74
4
 40
0.000000
 40
0.000000
 40
0.000000
 40
0.000000
 40
6.520550
 40
13.648567
 40
21.719100
 40
21.719100
 40
21.719100
 40
21.719100
 10
115.373435
 20
652.490837
 30
0.0
 10
116.459185
 20
654.377415
 30
0.0
 10
118.731835
 20
658.326330
 30
0.0
 10
121.085969
 20
665.234830
 30
0.0
 10
121.815017
 20
670.254781
 30
0.0
 10
122.202147
 20
672.920409
 30
0.0
 11
115.373435
 21
652.490837
 31
0.0
 11
118.449625
 21
658.240152
 31
0.0
 11
120.781821
 21
664.975840
 31
0.0
 11
122.202147
 21
672.920409
 31
0.0
  0
SPLINE
  5
1dd
100
AcDbEntity
  8
Layer_1
 62
3
100
AcDbSpline
 70
0
 71
3
 72
10
 73
6
 74
4
 40
0.000000
 40
0.000000
 40
0.000000
 40
0.000000
 40
7.826688
 40
15.647955
 40
23.692164
 40
23.692164
 40
23.692164
 40
23.692164
 10
103.041560
 20
655.256692
 30
0.0
 10
104.307936
 20
657.540177
 30
0.0
 10
106.839810
 20
662.105565
 30
0.0
 10
109.413881
 20
669.646035
 30
0.0
 10
110.006018
 20
674.912928
 30
0.0
 10
110.306247
 20
677.583380
 30
0.0
 11
103.041560
 21
655.256692
 31
0.0
 11
106.632598
 21
662.210934
 31
0.0
 11
109.114656
 21
669.627916
 31
0.0
 11
110.306247
 21
677.583380
 31
0.0
  0
SPLINE
  5
1de
100
AcDbEntity
  8
Layer_1
 62
3
100
AcDbSpline
 70
0
 71
3
 72
10
 73
6
 74
4
 40
0.000000
 40
0.000000
 40
0.000000
 40
0.000000
 40
5.848826
 40
11.462322
 40
16.912242
 40
16.912242
 40
16.912242
 40
16.912242
 10
122.717959
 20
652.653995
 30
0.0
 10
123.603471
 20
654.392099
 30
0.0
 10
125.338866
 20
657.798373
 30
0.0
 10
127.280694
 20
663.111182
 30
0.0
 10
128.115489
 20
666.705387
 30
0.0
 10
128.526715
 20
668.475918
 30
0.0
 11
122.717959
 21
652.653995
 31
0.0
 11
125.265317
 21
657.918948
 31
0.0
 11
127.187362
 21
663.193139
 31
0.0
 11
128.526715
 21
668.475918
 31
0.0
  0
SPLINE
  5
1df
100
AcDbEntity
  8
Layer_1
 62
3
100
AcDbSpline
 70
0
 71
3
 72
10
 73
6
 74
4
 40
0.000000
 40
0.000000
 40
0.000000
 40
0.000000
 40
4.387259
 40
8.856273
 40
13.392427
 40
13.392427
 40
13.392427
 40
13.392427
 10
100.687281
 20
661.545904
 30
0.0
 10
101.310025
 20
662.867556
 30
0.0
 10
102.567117
 20
665.535487
 30
0.0
 10
104.126083
 20
669.756632
 30
0.0
 10
104.405776
 20
672.757725
 30
0.0
 10
104.546665
 20
674.269459
 30
0.0
 11
100.687281
 21
661.545904
 31
0.0
 11
102.500010
 21
665.541158
 31
0.0
 11
103.928980
 21
669.775557
 31
0.0
 11
104.546665
 21
674.269459
 31
0.0
  0
LWPOLYLINE
  5
1e0
100
AcDbEntity
  8
Layer_1
 62
7
100
AcDbPolyline
 90
16
 70
1
 10
100.841899
 20
661.640986
 30
0.0
 10
102.609904
 20
660.765524
 30
0.0
 10
103.247901
 20
655.036894
 30
0.0
 10
115.648453
 20
651.968309
 30
0.0
 10
126.078841
 20
653.162710
 30
0.0
 10
120.765096
 20
640.994661
 30
0.0
 10
120.630007
 20
602.457480
 30
0.0
 10
135.189109
 20
602.120927
 30
0.0
 10
134.723140
 20
551.032772
 30
0.0
 10
121.413284
 20
551.289467
 30
0.0
 10
108.256159
 20
536.190859
 30
0.0
 10
108.203649
 20
504.975250
 30
0.0
 10
102.863071
 20
500.482038
 30
0.0
 10
110.206649
 20
492.673890
 30
0.0
 10
114.357747
 20
498.274595
 30
0.0
 10
184.646248
 20
497.742063
 30
0.0
  0
LWPOLYLINE
  5
1e1
100
AcDbEntity
  8
Layer_1
 62
3
100
AcDbPolyline
 90
2
 70
0
 10
102.484780
 20
727.870245
 30
0.0
 10
136.393895
 20
740.692833
 30
0.0
  0
LWPOLYLINE
  5
1e2
100
AcDbEntity
  8
Layer_1
 62
7
100
AcDbPolyline
 90
2
 70
0
 10
105.416120
 20
714.638212
 30
0.0
 10
142.867597
 20
727.952267
 30
0.0
  0
LWPOLYLINE
  5
1e3
100
AcDbEntity
  8
Layer_1
 62
3
100
AcDbPolyline
 90
2
 70
0
 10
109.307052
 20
701.935875
 30
0.0
 10
147.026377
 20
714.974095
 30
0.0
  0
SPLINE
  5
1e4
100
AcDbEntity
  8
Layer_1
 62
3
100
AcDbSpline
 70
0
 71
3
 72
10
 73
6
 74
4
 40
0.000000
 40
0.000000
 40
0.000000
 40
0.000000
 40
5.171549
 40
9.780907
 40
14.138667
 40
14.138667
 40
14.138667
 40
14.138667
 10
102.308441
 20
660.842074
 30
0.0
 10
103.209913
 20
662.318513
 30
0.0
 10
104.914859
 20
665.110889
 30
0.0
 10
106.276329
 20
669.678557
 30
0.0
 10
106.574645
 20
672.654930
 30
0.0
 10
106.719618
 20
674.101361
 30
0.0
 11
102.308441
 21
660.842074
 31
0.0
 11
104.799520
 21
665.374120
 31
0.0
 11
106.151226
 21
669.780829
 31
0.0
 11
106.719618
 21
674.101361
 31
0.0
  0
SPLINE
  5
1e5
100
AcDbEntity
  8
Layer_1
 62
3
100
AcDbSpline
 70
0
 71
3
 72
10
 73
6
 74
4
 40
0.000000
 40
0.000000
 40
0.000000
 40
0.000000
 40
7.242404
 40
16.628760
 40
34.122794
 40
34.122794
 40
34.122794
 40
34.122794
 10
121.291484
 20
703.254089
 30
0.0
 10
122.589486
 20
701.095643
 30
0.0
 10
125.569733
 20
696.139791
 30
0.0
 10
139.351919
 20
695.528865
 30
0.0
 10
143.385409
 20
704.681577
 30
0.0
 10
146.010445
 20
710.638256
 30
0.0
 11
121.291484
 21
703.254089
 31
0.0
 11
125.894193
 21
697.662355
 31
0.0
 11
135.245218
 21
696.848727
 31
0.0
 11
146.010445
 21
710.638256
 31
0.0
  0
LWPOLYLINE
  5
1e6
100
AcDbEntity
  8
Layer_1
 62
3
100
AcDbPolyline
 90
2
 70
0
 10
112.275494
 20
700.396333
 30
0.0
 10
147.262029
 20
712.523219
 30
0.0
  0
LWPOLYLINE
  5
1e7
100
AcDbEntity
  8
Layer_1
 62
3
100
AcDbPolyline
 90
2
 70
0
 10
144.053025
 20
706.996187
 30
0.0
 10
123.959887
 20
699.815500
 30
0.0
  0
LWPOLYLINE
  5
1e8
100
AcDbEntity
  8
Layer_1
 62
3
100
AcDbPolyline
 90
2
 70
0
 10
142.657457
 20
704.569456
 30
0.0
 10
125.982820
 20
698.697838
 30
0.0
  0
LWPOLYLINE
  5
1e9
100
AcDbEntity
  8
Layer_1
 62
5
100
AcDbPolyline
 90
5
 70
1
 10
139.462411
 20
647.851111
 30
0.0
 10
175.905440
 20
737.288538
 30
0.0
 10
168.549559
 20
740.285836
 30
0.0
 10
132.106529
 20
650.848408
 30
0.0
 10
139.462411
 20
647.851111
 30
0.0
  0
LWPOLYLINE
  5
1ea
100
AcDbEntity
  8
Layer_1
 62
5
100
AcDbPolyline
 90
5
 70
1
 10
153.595812
 20
624.402467
 30
0.0
 10
153.709590
 20
632.089263
 30
0.0
 10
126.182447
 20
632.496710
 30
0.0
 10
126.068670
 20
624.809915
 30
0.0
 10
153.595812
 20
624.402467
 30
0.0
  0
LWPOLYLINE
  5
1eb
100
AcDbEntity
  8
Layer_1
 62
5
100
AcDbPolyline
 90
5
 70
1
 10
198.627919
 20
736.619560
 30
0.0
 10
198.741697
 20
744.306356
 30
0.0
 10
178.018391
 20
744.613095
 30
0.0
 10
177.904614
 20
736.926300
 30
0.0
 10
198.627919
 20
736.619560
 30
0.0
  0
SPLINE
  5
1ec
100
AcDbEntity
  8
Layer_1
 62
3
100
AcDbSpline
 70
0
 71
3
 72
10
 73
6
 74
4
 40
0.000000
 40
0.000000
 40
0.000000
 40
0.000000
 40
10.409369
 40
18.416242
 40
25.354497
 40
25.354497
 40
25.354497
 40
25.354497
 10
144.222279
 20
700.059402
 30
0.0
 10
142.699122
 20
696.740970
 30
0.0
 10
140.004354
 20
690.870005
 30
0.0
 10
130.827478
 20
688.549553
 30
0.0
 10
126.143563
 20
690.393498
 30
0.0
 10
123.969061
 20
691.249546
 30
0.0
 11
144.222279
 21
700.059402
 31
0.0
 11
138.384188
 21
691.441301
 31
0.0
 11
130.648901
 21
689.373614
 31
0.0
 11
123.969061
 21
691.249546
 31
0.0
  0
LWPOLYLINE
  5
1ed
100
AcDbEntity
  8
Layer_1
 62
7
100
AcDbPolyline
 90
21
 70
1
 10
212.562984
 20
580.597700
 30
0.0
 10
208.101488
 20
580.708044
 30
0.0
 10
207.088400
 20
579.990772
 30
0.0
 10
178.679328
 20
579.990772
 30
0.0
 10
177.907344
 20
580.505428
 30
0.0
 10
173.735424
 20
580.453988
 30
0.0
 10
173.683984
 20
576.333812
 30
0.0
 10
174.250104
 20
575.510364
 30
0.0
 10
174.250104
 20
560.482372
 30
0.0
 10
173.683984
 20
559.658924
 30
0.0
 10
173.683984
 20
555.295532
 30
0.0
 10
178.267624
 20
555.346972
 30
0.0
 10
179.502808
 20
555.913092
 30
0.0
 10
206.676704
 20
555.913092
 30
0.0
 10
207.660112
 20
555.250996
 30
0.0
 10
212.452656
 20
555.250996
 30
0.0
 10
212.618184
 20
559.371428
 30
0.0
 10
211.790560
 20
560.430876
 30
0.0
 10
211.790560
 20
575.613260
 30
0.0
 10
212.563008
 20
576.530836
 30
0.0
 10
212.562984
 20
580.597700
 30
0.0
  0
LWPOLYLINE
  5
1ee
100
AcDbEntity
  8
Layer_1
 62
3
100
AcDbPolyline
 90
2
 70
1
 10
198.845567
 20
566.786890
 30
0.0
 10
198.845567
 20
566.786890
 30
0.0
  0
SPLINE
  5
1ef
100
AcDbEntity
  8
Layer_1
 62
3
100
AcDbSpline
 70
0
 71
3
 72
19
 73
15
 74
13
 40
0.000000
 40
0.000000
 40
0.000000
 40
0.000000
 40
2.030520
 40
4.000816
 40
6.031340
 40
8.061860
 40
10.032157
 40
12.062677
 40
14.093197
 40
16.063495
 40
18.094015
 40
20.124539
 40
22.094835
 40
24.125355
 40
24.125355
 40
24.125355
 40
24.125355
 10
198.845567
 20
566.786890
 30
0.0
 10
198.952304
 20
566.102295
 30
0.0
 10
199.162612
 20
564.753408
 30
0.0
 10
200.708696
 20
563.268392
 30
0.0
 10
202.725497
 20
562.718148
 30
0.0
 10
204.763473
 20
563.268393
 30
0.0
 10
206.247290
 20
564.753408
 30
0.0
 10
206.797942
 20
566.786890
 30
0.0
 10
206.247290
 20
568.820373
 30
0.0
 10
204.763473
 20
570.305388
 30
0.0
 10
202.725497
 20
570.855633
 30
0.0
 10
200.708696
 20
570.305389
 30
0.0
 10
199.162612
 20
568.820373
 30
0.0
 10
198.952304
 20
567.471486
 30
0.0
 10
198.845567
 20
566.786890
 30
0.0
 11
198.845567
 21
566.786890
 31
0.0
 11
199.375777
 21
564.826817
 31
0.0
 11
200.768986
 21
563.433606
 31
0.0
 11
202.729063
 21
562.903394
 31
0.0
 11
204.689136
 21
563.433606
 31
0.0
 11
206.082347
 21
564.826817
 31
0.0
 11
206.612559
 21
566.786890
 31
0.0
 11
206.082347
 21
568.746964
 31
0.0
 11
204.689136
 21
570.140175
 31
0.0
 11
202.729063
 21
570.670386
 31
0.0
 11
200.768986
 21
570.140175
 31
0.0
 11
199.375777
 21
568.746964
 31
0.0
 11
198.845567
 21
566.786890
 31
0.0
  0
SPLINE
  5
1f0
100
AcDbEntity
  8
Layer_1
 62
3
100
AcDbSpline
 70
0
 71
3
 72
10
 73
6
 74
4
 40
0.000000
 40
0.000000
 40
0.000000
 40
0.000000
 40
1.975592
 40
3.976458
 40
6.041642
 40
6.041642
 40
6.041642
 40
6.041642
 10
211.301640
 20
575.537692
 30
0.0
 10
210.792417
 20
575.955524
 30
0.0
 10
209.767455
 20
576.796533
 30
0.0
 10
208.369124
 20
578.259115
 30
0.0
 10
207.606189
 20
579.381581
 30
0.0
 10
207.218688
 20
579.951692
 30
0.0
 11
211.301640
 21
575.537692
 31
0.0
 11
209.799792
 21
576.821209
 31
0.0
 11
208.427149
 21
578.276996
 31
0.0
 11
207.218688
 21
579.951692
 31
0.0
  0
SPLINE
  5
1f1
100
AcDbEntity
  8
Layer_1
 62
3
100
AcDbSpline
 70
0
 71
3
 72
10
 73
6
 74
4
 40
0.000000
 40
0.000000
 40
0.000000
 40
0.000000
 40
1.975592
 40
3.976458
 40
6.041642
 40
6.041642
 40
6.041642
 40
6.041642
 10
178.748424
 20
579.786172
 30
0.0
 10
178.330592
 20
579.276948
 30
0.0
 10
177.489583
 20
578.251987
 30
0.0
 10
176.027001
 20
576.853656
 30
0.0
 10
174.904535
 20
576.090721
 30
0.0
 10
174.334424
 20
575.703220
 30
0.0
 11
178.748424
 21
579.786172
 31
0.0
 11
177.464907
 21
578.284324
 31
0.0
 11
176.009120
 21
576.911681
 31
0.0
 11
174.334424
 21
575.703220
 31
0.0
  0
SPLINE
  5
1f2
100
AcDbEntity
  8
Layer_1
 62
3
100
AcDbSpline
 70
0
 71
3
 72
10
 73
6
 74
4
 40
0.000000
 40
0.000000
 40
0.000000
 40
0.000000
 40
1.975592
 40
3.976458
 40
6.041642
 40
6.041642
 40
6.041642
 40
6.041642
 10
211.853392
 20
560.364580
 30
0.0
 10
211.344169
 20
559.946748
 30
0.0
 10
210.319207
 20
559.105738
 30
0.0
 10
208.920876
 20
557.643157
 30
0.0
 10
208.157941
 20
556.520691
 30
0.0
 10
207.770440
 20
555.950580
 30
0.0
 11
211.853392
 21
560.364580
 31
0.0
 11
210.351544
 21
559.081063
 31
0.0
 11
208.978901
 21
557.625275
 31
0.0
 11
207.770440
 21
555.950580
 31
0.0
  0
LWPOLYLINE
  5
1f3
100
AcDbEntity
  8
Layer_1
 62
3
100
AcDbPolyline
 90
5
 70
1
 10
194.962064
 20
578.696276
 30
0.0
 10
191.078569
 20
578.696276
 30
0.0
 10
191.078569
 20
572.741583
 30
0.0
 10
194.962064
 20
572.741583
 30
0.0
 10
194.962064
 20
578.696276
 30
0.0
  0
LWPOLYLINE
  5
1f4
100
AcDbEntity
  8
Layer_1
 62
3
100
AcDbPolyline
 90
6
 70
0
 10
196.956152
 20
567.426972
 30
0.0
 10
194.087048
 20
567.426972
 30
0.0
 10
195.852648
 20
566.213124
 30
0.0
 10
194.031880
 20
565.054452
 30
0.0
 10
196.625096
 20
564.999252
 30
0.0
 10
196.625096
 20
565.495828
 30
0.0
  0
LWPOLYLINE
  5
1f5
100
AcDbEntity
  8
Layer_1
 62
3
100
AcDbPolyline
 90
3
 70
0
 10
192.100752
 20
564.392356
 30
0.0
 10
192.100752
 20
567.426972
 30
0.0
 10
188.404032
 20
567.426972
 30
0.0
  0
LWPOLYLINE
  5
1f6
100
AcDbEntity
  8
Layer_1
 62
3
100
AcDbPolyline
 90
2
 70
0
 10
190.116928
 20
567.372660
 30
0.0
 10
190.065488
 20
564.953100
 30
0.0
  0
LWPOLYLINE
  5
1f7
100
AcDbEntity
  8
Layer_1
 62
3
100
AcDbPolyline
 90
3
 70
0
 10
188.212168
 20
567.527100
 30
0.0
 10
188.057728
 20
565.828260
 30
0.0
 10
186.667768
 20
565.828260
 30
0.0
  0
LWPOLYLINE
  5
1f8
100
AcDbEntity
  8
Layer_1
 62
3
100
AcDbPolyline
 90
3
 70
0
 10
186.667768
 20
564.592740
 30
0.0
 10
186.667768
 20
567.475620
 30
0.0
 10
179.100200
 20
567.321180
 30
0.0
  0
LWPOLYLINE
  5
1f9
100
AcDbEntity
  8
Layer_1
 62
3
100
AcDbPolyline
 90
2
 70
0
 10
180.686496
 20
568.408068
 30
0.0
 10
180.789424
 20
565.062796
 30
0.0
  0
LWPOLYLINE
  5
1fa
100
AcDbEntity
  8
Layer_1
 62
3
100
AcDbPolyline
 90
6
 70
0
 10
182.693656
 20
567.481684
 30
0.0
 10
182.693656
 20
566.297972
 30
0.0
 10
184.237624
 20
566.297972
 30
0.0
 10
184.134696
 20
564.290812
 30
0.0
 10
182.384864
 20
564.393740
 30
0.0
 10
182.384864
 20
563.055636
 30
0.0
  0
LWPOLYLINE
  5
1fb
100
AcDbEntity
  8
Layer_1
 62
3
100
AcDbPolyline
 90
4
 70
1
 10
195.868880
 20
562.077788
 30
0.0
 10
190.001784
 20
562.077788
 30
0.0
 10
192.986800
 20
558.475188
 30
0.0
 10
195.868880
 20
562.077788
 30
0.0
  0
SPLINE
  5
1fc
100
AcDbEntity
  8
Layer_1
 62
3
100
AcDbSpline
 70
0
 71
3
 72
10
 73
6
 74
4
 40
0.000000
 40
0.000000
 40
0.000000
 40
0.000000
 40
1.975592
 40
3.976458
 40
6.041642
 40
6.041642
 40
6.041642
 40
6.041642
 10
179.300176
 20
556.116100
 30
0.0
 10
178.882344
 20
556.625323
 30
0.0
 10
178.041335
 20
557.650285
 30
0.0
 10
176.578753
 20
559.048616
 30
0.0
 10
175.456287
 20
559.811550
 30
0.0
 10
174.886176
 20
560.199052
 30
0.0
 11
179.300176
 21
556.116100
 31
0.0
 11
178.016659
 21
557.617948
 31
0.0
 11
176.560872
 21
558.990590
 31
0.0
 11
174.886176
 21
560.199052
 31
0.0
  0
LWPOLYLINE
  5
1fd
100
AcDbEntity
  8
Layer_1
 62
7
100
AcDbPolyline
 90
8
 70
1
 10
196.535345
 20
701.306103
 30
0.0
 10
194.316534
 20
709.276392
 30
0.0
 10
224.413507
 20
730.543492
 30
0.0
 10
228.339069
 20
720.358586
 30
0.0
 10
216.061311
 20
695.418848
 30
0.0
 10
203.740945
 20
686.371876
 30
0.0
 10
200.014432
 20
692.528524
 30
0.0
 10
190.283083
 20
688.789576
 30
0.0
  0
LWPOLYLINE
  5
1fe
100
AcDbEntity
  8
Layer_1
 62
7
100
AcDbPolyline
 90
2
 70
1
 10
186.550641
 20
697.860677
 30
0.0
 10
196.535345
 20
701.306103
 30
0.0
  0
LWPOLYLINE
  5
1ff
100
AcDbEntity
  8
Layer_1
 62
3
100
AcDbPolyline
 90
3
 70
0
 10
225.719280
 20
725.114412
 30
0.0
 10
214.336217
 20
704.122628
 30
0.0
 10
215.947926
 20
695.372194
 30
0.0
  0
LWPOLYLINE
  5
200
100
AcDbEntity
  8
Layer_1
 62
3
100
AcDbPolyline
 90
4
 70
0
 10
197.035554
 20
701.379339
 30
0.0
 10
204.185547
 20
703.658380
 30
0.0
 10
207.384694
 20
695.561130
 30
0.0
 10
199.827810
 20
692.982078
 30
0.0
  0
SPLINE
  5
201
100
AcDbEntity
  8
Layer_1
 62
7
100
AcDbSpline
 70
0
 71
3
 72
10
 73
6
 74
4
 40
0.000000
 40
0.000000
 40
0.000000
 40
0.000000
 40
4.414509
 40
9.036039
 40
13.190649
 40
13.190649
 40
13.190649
 40
13.190649
 10
190.283083
 20
688.789576
 30
0.0
 10
188.725143
 20
688.931838
 30
0.0
 10
185.536201
 20
689.223033
 30
0.0
 10
183.506305
 20
694.456718
 30
0.0
 10
185.572505
 20
696.766996
 30
0.0
 10
186.550641
 20
697.860677
 30
0.0
 11
190.283083
 21
688.789576
 31
0.0
 11
186.038495
 21
690.002573
 31
0.0
 11
184.381948
 21
694.317013
 31
0.0
 11
186.550641
 21
697.860677
 31
0.0
  0
LWPOLYLINE
  5
202
100
AcDbEntity
  8
Layer_1
 62
3
100
AcDbPolyline
 90
2
 70
0
 10
186.824075
 20
697.840596
 30
0.0
 10
189.802946
 20
688.989777
 30
0.0
  0
ENDSEC
  0
SECTION
  2
OBJECTS
  0
DICTIONARY
  5
C
330
0
100
AcDbDictionary
  3
ACAD_GROUP
350
D
  3
ACAD_MLINESTYLE
350
17
  0
DICTIONARY
  5
D
330
C
100
AcDbDictionary
  0
DICTIONARY
  5
1A
330
C
100
AcDbDictionary
  0
DICTIONARY
  5
17
330
C
100
AcDbDictionary
  3
STANDARD
350
18
  0
DICTIONARY
  5
19
330
C
100
AcDbDictionary
  0
ENDSEC
  0
EOF
