ISO-10303-21;
HEADER;
/* Generated by software containing ST-Developer
 * from STEP Tools, Inc. (www.steptools.com) 
 */

FILE_DESCRIPTION(
/* description */ (''),
/* implementation_level */ '2;1');

FILE_NAME(
/* name */ 
'C:\\Users\\Jacob\\Google Drive\\Spring 2016\\MAKE Course\\Instructabl
e Files\\Pin.stp',
/* time_stamp */ '2016-05-04T21:43:35-04:00',
/* author */ ('Jacob'),
/* organization */ (''),
/* preprocessor_version */ 'ST-DEVELOPER v16.1',
/* originating_system */ 'Autodesk Inventor 2016',
/* authorisation */ '');

FILE_SCHEMA (('AUTOMOTIVE_DESIGN { 1 0 10303 214 3 1 1 }'));
ENDSEC;

DATA;
#10=MECHANICAL_DESIGN_GEOMETRIC_PRESENTATION_REPRESENTATION('',(#13),#129);
#11=SHAPE_REPRESENTATION_RELATIONSHIP('SRR','None',#141,#12);
#12=ADVANCED_BREP_SHAPE_REPRESENTATION('',(#14),#128);
#13=STYLED_ITEM('',(#150),#14);
#14=MANIFOLD_SOLID_BREP('Solid2',#72);
#15=PLANE('',#79);
#16=PLANE('',#84);
#17=CYLINDRICAL_SURFACE('',#77,0.0925);
#18=CYLINDRICAL_SURFACE('',#82,0.105);
#19=FACE_BOUND('',#30,.T.);
#20=FACE_BOUND('',#32,.T.);
#21=FACE_BOUND('',#35,.T.);
#22=FACE_BOUND('',#37,.T.);
#23=FACE_OUTER_BOUND('',#29,.T.);
#24=FACE_OUTER_BOUND('',#31,.T.);
#25=FACE_OUTER_BOUND('',#33,.T.);
#26=FACE_OUTER_BOUND('',#34,.T.);
#27=FACE_OUTER_BOUND('',#36,.T.);
#28=FACE_OUTER_BOUND('',#38,.T.);
#29=EDGE_LOOP('',(#54));
#30=EDGE_LOOP('',(#55));
#31=EDGE_LOOP('',(#56));
#32=EDGE_LOOP('',(#57));
#33=EDGE_LOOP('',(#58));
#34=EDGE_LOOP('',(#59));
#35=EDGE_LOOP('',(#60));
#36=EDGE_LOOP('',(#61));
#37=EDGE_LOOP('',(#62));
#38=EDGE_LOOP('',(#63));
#39=CIRCLE('',#75,0.0925);
#40=CIRCLE('',#76,0.0905);
#41=CIRCLE('',#78,0.0925);
#42=CIRCLE('',#81,0.105);
#43=CIRCLE('',#83,0.105);
#44=VERTEX_POINT('',#111);
#45=VERTEX_POINT('',#113);
#46=VERTEX_POINT('',#116);
#47=VERTEX_POINT('',#120);
#48=VERTEX_POINT('',#123);
#49=EDGE_CURVE('',#44,#44,#39,.T.);
#50=EDGE_CURVE('',#45,#45,#40,.T.);
#51=EDGE_CURVE('',#46,#46,#41,.T.);
#52=EDGE_CURVE('',#47,#47,#42,.T.);
#53=EDGE_CURVE('',#48,#48,#43,.T.);
#54=ORIENTED_EDGE('',*,*,#49,.T.);
#55=ORIENTED_EDGE('',*,*,#50,.T.);
#56=ORIENTED_EDGE('',*,*,#51,.F.);
#57=ORIENTED_EDGE('',*,*,#49,.F.);
#58=ORIENTED_EDGE('',*,*,#50,.F.);
#59=ORIENTED_EDGE('',*,*,#52,.F.);
#60=ORIENTED_EDGE('',*,*,#51,.T.);
#61=ORIENTED_EDGE('',*,*,#52,.T.);
#62=ORIENTED_EDGE('',*,*,#53,.F.);
#63=ORIENTED_EDGE('',*,*,#53,.T.);
#64=CONICAL_SURFACE('',#74,0.0915,45.);
#65=CONICAL_SURFACE('',#80,0.09875,32.0442621980006);
#66=ADVANCED_FACE('',(#23,#19),#64,.T.);
#67=ADVANCED_FACE('',(#24,#20),#17,.T.);
#68=ADVANCED_FACE('',(#25),#15,.F.);
#69=ADVANCED_FACE('',(#26,#21),#65,.T.);
#70=ADVANCED_FACE('',(#27,#22),#18,.T.);
#71=ADVANCED_FACE('',(#28),#16,.T.);
#72=CLOSED_SHELL('',(#66,#67,#68,#69,#70,#71));
#73=AXIS2_PLACEMENT_3D('placement',#109,#85,#86);
#74=AXIS2_PLACEMENT_3D('',#110,#87,#88);
#75=AXIS2_PLACEMENT_3D('',#112,#89,#90);
#76=AXIS2_PLACEMENT_3D('',#114,#91,#92);
#77=AXIS2_PLACEMENT_3D('',#115,#93,#94);
#78=AXIS2_PLACEMENT_3D('',#117,#95,#96);
#79=AXIS2_PLACEMENT_3D('',#118,#97,#98);
#80=AXIS2_PLACEMENT_3D('',#119,#99,#100);
#81=AXIS2_PLACEMENT_3D('',#121,#101,#102);
#82=AXIS2_PLACEMENT_3D('',#122,#103,#104);
#83=AXIS2_PLACEMENT_3D('',#124,#105,#106);
#84=AXIS2_PLACEMENT_3D('',#125,#107,#108);
#85=DIRECTION('axis',(0.,0.,1.));
#86=DIRECTION('refdir',(1.,0.,0.));
#87=DIRECTION('center_axis',(0.,1.,0.));
#88=DIRECTION('ref_axis',(1.,0.,0.));
#89=DIRECTION('center_axis',(0.,-1.,0.));
#90=DIRECTION('ref_axis',(1.,0.,0.));
#91=DIRECTION('center_axis',(0.,1.,0.));
#92=DIRECTION('ref_axis',(1.,0.,0.));
#93=DIRECTION('center_axis',(0.,1.,0.));
#94=DIRECTION('ref_axis',(1.,0.,0.));
#95=DIRECTION('center_axis',(0.,1.,0.));
#96=DIRECTION('ref_axis',(1.,0.,0.));
#97=DIRECTION('center_axis',(0.,1.,0.));
#98=DIRECTION('ref_axis',(0.,0.,1.));
#99=DIRECTION('center_axis',(0.,1.,0.));
#100=DIRECTION('ref_axis',(-1.,0.,0.));
#101=DIRECTION('center_axis',(0.,1.,0.));
#102=DIRECTION('ref_axis',(-1.,0.,0.));
#103=DIRECTION('center_axis',(0.,1.,0.));
#104=DIRECTION('ref_axis',(-1.,0.,0.));
#105=DIRECTION('center_axis',(0.,1.,0.));
#106=DIRECTION('ref_axis',(-1.,0.,0.));
#107=DIRECTION('center_axis',(0.,1.,0.));
#108=DIRECTION('ref_axis',(0.,0.,1.));
#109=CARTESIAN_POINT('',(0.,0.,0.));
#110=CARTESIAN_POINT('Origin',(0.,0.001,0.));
#111=CARTESIAN_POINT('',(-0.0925,0.002,-1.1327982892113E-17));
#112=CARTESIAN_POINT('Origin',(0.,0.002,0.));
#113=CARTESIAN_POINT('',(-0.0905,0.,1.10830535322835E-17));
#114=CARTESIAN_POINT('Origin',(0.,0.,0.));
#115=CARTESIAN_POINT('Origin',(0.,0.,0.));
#116=CARTESIAN_POINT('',(-0.0925,0.24,1.1327982892113E-17));
#117=CARTESIAN_POINT('Origin',(0.,0.24,0.));
#118=CARTESIAN_POINT('Origin',(4.8197849028726E-18,0.,1.93789316426492E-18));
#119=CARTESIAN_POINT('Origin',(0.,0.249984918269971,0.));
#120=CARTESIAN_POINT('',(-0.105,0.259969836539943,0.));
#121=CARTESIAN_POINT('Origin',(0.,0.259969836539943,0.));
#122=CARTESIAN_POINT('Origin',(0.,0.24,0.));
#123=CARTESIAN_POINT('',(0.105,0.26,-1.28587913910472E-17));
#124=CARTESIAN_POINT('Origin',(0.,0.26,0.));
#125=CARTESIAN_POINT('Origin',(-4.48594914343499E-18,0.26,1.70719159709053E-18));
#126=UNCERTAINTY_MEASURE_WITH_UNIT(LENGTH_MEASURE(0.000393700787401575),
#130,'DISTANCE_ACCURACY_VALUE',
'Maximum model space distance between geometric entities at asserted c
onnectivities');
#127=UNCERTAINTY_MEASURE_WITH_UNIT(LENGTH_MEASURE(1.E-6),#131,
'DISTANCE_ACCURACY_VALUE',
'Maximum model space distance between geometric entities at asserted c
onnectivities');
#128=(
GEOMETRIC_REPRESENTATION_CONTEXT(3)
GLOBAL_UNCERTAINTY_ASSIGNED_CONTEXT((#126))
GLOBAL_UNIT_ASSIGNED_CONTEXT((#130,#136,#133))
REPRESENTATION_CONTEXT('','3D')
);
#129=(
GEOMETRIC_REPRESENTATION_CONTEXT(3)
GLOBAL_UNCERTAINTY_ASSIGNED_CONTEXT((#127))
GLOBAL_UNIT_ASSIGNED_CONTEXT((#131,#136,#133))
REPRESENTATION_CONTEXT('','3D')
);
#130=(
CONVERSION_BASED_UNIT('__CONSTANT UNIT inch',#132)
LENGTH_UNIT()
NAMED_UNIT(#135)
);
#131=(
LENGTH_UNIT()
NAMED_UNIT(*)
SI_UNIT(.MILLI.,.METRE.)
);
#132=LENGTH_MEASURE_WITH_UNIT(LENGTH_MEASURE(25.4),#131);
#133=(
NAMED_UNIT(*)
SI_UNIT($,.STERADIAN.)
SOLID_ANGLE_UNIT()
);
#134=DIMENSIONAL_EXPONENTS(0.,0.,0.,0.,0.,0.,0.);
#135=DIMENSIONAL_EXPONENTS(1.,0.,0.,0.,0.,0.,0.);
#136=(
CONVERSION_BASED_UNIT('degree',#138)
NAMED_UNIT(#134)
PLANE_ANGLE_UNIT()
);
#137=(
NAMED_UNIT(*)
PLANE_ANGLE_UNIT()
SI_UNIT($,.RADIAN.)
);
#138=PLANE_ANGLE_MEASURE_WITH_UNIT(PLANE_ANGLE_MEASURE(0.01745329252),#137);
#139=SHAPE_DEFINITION_REPRESENTATION(#140,#141);
#140=PRODUCT_DEFINITION_SHAPE('',$,#143);
#141=SHAPE_REPRESENTATION('',(#73),#128);
#142=PRODUCT_DEFINITION_CONTEXT('part definition',#147,'design');
#143=PRODUCT_DEFINITION('ToiletArmPin (1)','ToiletArmPin (1)',#144,#142);
#144=PRODUCT_DEFINITION_FORMATION('',$,#149);
#145=PRODUCT_RELATED_PRODUCT_CATEGORY('ToiletArmPin (1)',
'ToiletArmPin (1)',(#149));
#146=APPLICATION_PROTOCOL_DEFINITION('international standard',
'automotive_design',2009,#147);
#147=APPLICATION_CONTEXT(
'Core Data for Automotive Mechanical Design Process');
#148=PRODUCT_CONTEXT('part definition',#147,'mechanical');
#149=PRODUCT('ToiletArmPin (1)','ToiletArmPin (1)',$,(#148));
#150=PRESENTATION_STYLE_ASSIGNMENT((#151));
#151=SURFACE_STYLE_USAGE(.BOTH.,#152);
#152=SURFACE_SIDE_STYLE('',(#153));
#153=SURFACE_STYLE_FILL_AREA(#154);
#154=FILL_AREA_STYLE('',(#155));
#155=FILL_AREA_STYLE_COLOUR('',#156);
#156=COLOUR_RGB('',0.749019607843137,0.749019607843137,0.749019607843137);
ENDSEC;
END-ISO-10303-21;
