  0
SECTION
  2
HEADER
  9
$ACADVER
  1
AC1024
  9
$ACADMAINTVER
 70
     6
  9
$DWGCODEPAGE
  3
ANSI_1252
  9
$LASTSAVEDBY
  1
Richard
  9
$INSBASE
 10
0.0
 20
0.0
 30
0.0
  9
$EXTMIN
 10
0.0
 20
0.0
 30
0.0
  9
$EXTMAX
 10
610.0
 20
1220.0
 30
0.0
  9
$LIMMIN
 10
0.0
 20
0.0
  9
$LIMMAX
 10
12.0
 20
9.0
  9
$ORTHOMODE
 70
     0
  9
$REGENMODE
 70
     1
  9
$FILLMODE
 70
     1
  9
$QTEXTMODE
 70
     0
  9
$MIRRTEXT
 70
     0
  9
$LTSCALE
 40
1.0
  9
$ATTMODE
 70
     1
  9
$TEXTSIZE
 40
0.2
  9
$TRACEWID
 40
0.05
  9
$TEXTSTYLE
  7
Standard
  9
$CLAYER
  8
0
  9
$CELTYPE
  6
ByLayer
  9
$CECOLOR
 62
   256
  9
$CELTSCALE
 40
1.0
  9
$DISPSILH
 70
     0
  9
$DIMSCALE
 40
1.0
  9
$DIMASZ
 40
0.18
  9
$DIMEXO
 40
0.0625
  9
$DIMDLI
 40
0.38
  9
$DIMRND
 40
0.0
  9
$DIMDLE
 40
0.0
  9
$DIMEXE
 40
0.18
  9
$DIMTP
 40
0.0
  9
$DIMTM
 40
0.0
  9
$DIMTXT
 40
0.18
  9
$DIMCEN
 40
0.09
  9
$DIMTSZ
 40
0.0
  9
$DIMTOL
 70
     0
  9
$DIMLIM
 70
     0
  9
$DIMTIH
 70
     1
  9
$DIMTOH
 70
     1
  9
$DIMSE1
 70
     0
  9
$DIMSE2
 70
     0
  9
$DIMTAD
 70
     0
  9
$DIMZIN
 70
     0
  9
$DIMBLK
  1

  9
$DIMASO
 70
     1
  9
$DIMSHO
 70
     1
  9
$DIMPOST
  1

  9
$DIMAPOST
  1

  9
$DIMALT
 70
     0
  9
$DIMALTD
 70
     2
  9
$DIMALTF
 40
25.4
  9
$DIMLFAC
 40
1.0
  9
$DIMTOFL
 70
     0
  9
$DIMTVP
 40
0.0
  9
$DIMTIX
 70
     0
  9
$DIMSOXD
 70
     0
  9
$DIMSAH
 70
     0
  9
$DIMBLK1
  1

  9
$DIMBLK2
  1

  9
$DIMSTYLE
  2
Standard
  9
$DIMCLRD
 70
     0
  9
$DIMCLRE
 70
     0
  9
$DIMCLRT
 70
     0
  9
$DIMTFAC
 40
1.0
  9
$DIMGAP
 40
0.09
  9
$DIMJUST
 70
     0
  9
$DIMSD1
 70
     0
  9
$DIMSD2
 70
     0
  9
$DIMTOLJ
 70
     1
  9
$DIMTZIN
 70
     0
  9
$DIMALTZ
 70
     0
  9
$DIMALTTZ
 70
     0
  9
$DIMUPT
 70
     0
  9
$DIMDEC
 70
     4
  9
$DIMTDEC
 70
     4
  9
$DIMALTU
 70
     2
  9
$DIMALTTD
 70
     2
  9
$DIMTXSTY
  7
Standard
  9
$DIMAUNIT
 70
     0
  9
$DIMADEC
 70
     0
  9
$DIMALTRND
 40
0.0
  9
$DIMAZIN
 70
     0
  9
$DIMDSEP
 70
    46
  9
$DIMATFIT
 70
     3
  9
$DIMFRAC
 70
     0
  9
$DIMLDRBLK
  1

  9
$DIMLUNIT
 70
     2
  9
$DIMLWD
 70
    -2
  9
$DIMLWE
 70
    -2
  9
$DIMTMOVE
 70
     0
  9
$DIMFXL
 40
1.0
  9
$DIMFXLON
 70
     0
  9
$DIMJOGANG
 40
0.7853981633974483
  9
$DIMTFILL
 70
     0
  9
$DIMTFILLCLR
 70
     0
  9
$DIMARCSYM
 70
     0
  9
$DIMLTYPE
  6

  9
$DIMLTEX1
  6

  9
$DIMLTEX2
  6

  9
$DIMTXTDIRECTION
 70
     0
  9
$LUNITS
 70
     2
  9
$LUPREC
 70
     4
  9
$SKETCHINC
 40
0.1
  9
$FILLETRAD
 40
5.0
  9
$AUNITS
 70
     0
  9
$AUPREC
 70
     0
  9
$MENU
  1
.
  9
$ELEVATION
 40
0.0
  9
$PELEVATION
 40
0.0
  9
$THICKNESS
 40
0.0
  9
$LIMCHECK
 70
     0
  9
$CHAMFERA
 40
0.0
  9
$CHAMFERB
 40
0.0
  9
$CHAMFERC
 40
0.0
  9
$CHAMFERD
 40
0.0
  9
$SKPOLY
 70
     0
  9
$TDCREATE
 40
2452643.146717604
  9
$TDUCREATE
 40
2452643.063384271
  9
$TDUPDATE
 40
2456551.432076829
  9
$TDUUPDATE
 40
2456551.348743496
  9
$TDINDWG
 40
0.8069371875
  9
$TDUSRTIMER
 40
2456550.6080875
  9
$USRTIMER
 70
     1
  9
$ANGBASE
 50
0.0
  9
$ANGDIR
 70
     0
  9
$PDMODE
 70
     0
  9
$PDSIZE
 40
0.0
  9
$PLINEWID
 40
0.0
  9
$SPLFRAME
 70
     0
  9
$SPLINETYPE
 70
     6
  9
$SPLINESEGS
 70
     8
  9
$HANDSEED
  5
4CF
  9
$SURFTAB1
 70
     6
  9
$SURFTAB2
 70
     6
  9
$SURFTYPE
 70
     6
  9
$SURFU
 70
     6
  9
$SURFV
 70
     6
  9
$UCSBASE
  2

  9
$UCSNAME
  2

  9
$UCSORG
 10
0.0
 20
0.0
 30
0.0
  9
$UCSXDIR
 10
1.0
 20
0.0
 30
0.0
  9
$UCSYDIR
 10
0.0
 20
1.0
 30
0.0
  9
$UCSORTHOREF
  2

  9
$UCSORTHOVIEW
 70
     1
  9
$UCSORGTOP
 10
0.0
 20
0.0
 30
0.0
  9
$UCSORGBOTTOM
 10
0.0
 20
0.0
 30
0.0
  9
$UCSORGLEFT
 10
0.0
 20
0.0
 30
0.0
  9
$UCSORGRIGHT
 10
0.0
 20
0.0
 30
0.0
  9
$UCSORGFRONT
 10
0.0
 20
0.0
 30
0.0
  9
$UCSORGBACK
 10
0.0
 20
0.0
 30
0.0
  9
$PUCSBASE
  2

  9
$PUCSNAME
  2

  9
$PUCSORG
 10
0.0
 20
0.0
 30
0.0
  9
$PUCSXDIR
 10
1.0
 20
0.0
 30
0.0
  9
$PUCSYDIR
 10
0.0
 20
1.0
 30
0.0
  9
$PUCSORTHOREF
  2

  9
$PUCSORTHOVIEW
 70
     0
  9
$PUCSORGTOP
 10
0.0
 20
0.0
 30
0.0
  9
$PUCSORGBOTTOM
 10
0.0
 20
0.0
 30
0.0
  9
$PUCSORGLEFT
 10
0.0
 20
0.0
 30
0.0
  9
$PUCSORGRIGHT
 10
0.0
 20
0.0
 30
0.0
  9
$PUCSORGFRONT
 10
0.0
 20
0.0
 30
0.0
  9
$PUCSORGBACK
 10
0.0
 20
0.0
 30
0.0
  9
$USERI1
 70
     0
  9
$USERI2
 70
     0
  9
$USERI3
 70
     0
  9
$USERI4
 70
     0
  9
$USERI5
 70
     0
  9
$USERR1
 40
0.0
  9
$USERR2
 40
0.0
  9
$USERR3
 40
0.0
  9
$USERR4
 40
0.0
  9
$USERR5
 40
0.0
  9
$WORLDVIEW
 70
     1
  9
$SHADEDGE
 70
     3
  9
$SHADEDIF
 70
    70
  9
$TILEMODE
 70
     1
  9
$MAXACTVP
 70
    64
  9
$PINSBASE
 10
0.0
 20
0.0
 30
0.0
  9
$PLIMCHECK
 70
     0
  9
$PEXTMIN
 10
0.0
 20
0.0
 30
0.0
  9
$PEXTMAX
 10
0.0
 20
0.0
 30
0.0
  9
$PLIMMIN
 10
0.0
 20
0.0
  9
$PLIMMAX
 10
0.0
 20
0.0
  9
$UNITMODE
 70
     0
  9
$VISRETAIN
 70
     1
  9
$PLINEGEN
 70
     0
  9
$PSLTSCALE
 70
     1
  9
$TREEDEPTH
 70
  3020
  9
$CMLSTYLE
  2
Standard
  9
$CMLJUST
 70
     0
  9
$CMLSCALE
 40
1.0
  9
$PROXYGRAPHICS
 70
     1
  9
$MEASUREMENT
 70
     0
  9
$CELWEIGHT
370
    -1
  9
$ENDCAPS
280
     0
  9
$JOINSTYLE
280
     0
  9
$LWDISPLAY
290
     0
  9
$INSUNITS
 70
     1
  9
$HYPERLINKBASE
  1

  9
$STYLESHEET
  1

  9
$XEDIT
290
     1
  9
$CEPSNTYPE
380
     0
  9
$PSTYLEMODE
290
     1
  9
$FINGERPRINTGUID
  2
{FDEAD576-A652-11D2-9A35-0060089B3A3F}
  9
$VERSIONGUID
  2
{FBC2AE19-5C5C-49EC-81BC-71B1A3362A02}
  9
$EXTNAMES
290
     1
  9
$PSVPSCALE
 40
0.0
  9
$OLESTARTUP
290
     0
  9
$SORTENTS
280
   127
  9
$INDEXCTL
280
     0
  9
$HIDETEXT
280
     1
  9
$XCLIPFRAME
280
     0
  9
$HALOGAP
280
     0
  9
$OBSCOLOR
 70
   257
  9
$OBSLTYPE
280
     0
  9
$INTERSECTIONDISPLAY
280
     0
  9
$INTERSECTIONCOLOR
 70
   257
  9
$DIMASSOC
280
     2
  9
$PROJECTNAME
  1

  9
$CAMERADISPLAY
290
     0
  9
$LENSLENGTH
 40
50.0
  9
$CAMERAHEIGHT
 40
0.0
  9
$STEPSPERSEC
 40
2.0
  9
$STEPSIZE
 40
6.0
  9
$3DDWFPREC
 40
2.0
  9
$PSOLWIDTH
 40
0.25
  9
$PSOLHEIGHT
 40
4.0
  9
$LOFTANG1
 40
1.570796326794897
  9
$LOFTANG2
 40
1.570796326794897
  9
$LOFTMAG1
 40
0.0
  9
$LOFTMAG2
 40
0.0
  9
$LOFTPARAM
 70
     7
  9
$LOFTNORMALS
280
     1
  9
$LATITUDE
 40
37.795
  9
$LONGITUDE
 40
-122.394
  9
$NORTHDIRECTION
 40
0.0
  9
$TIMEZONE
 70
 -8000
  9
$LIGHTGLYPHDISPLAY
280
     1
  9
$TILEMODELIGHTSYNCH
280
     1
  9
$CMATERIAL
347
96
  9
$SOLIDHIST
280
     1
  9
$SHOWHIST
280
     1
  9
$DWFFRAME
280
     2
  9
$DGNFRAME
280
     0
  9
$REALWORLDSCALE
290
     1
  9
$INTERFERECOLOR
 62
     1
  9
$CSHADOW
280
     0
  9
$SHADOWPLANELOCATION
 40
0.0
  0
ENDSEC
  0
SECTION
  2
CLASSES
  0
CLASS
  1
ACDBDICTIONARYWDFLT
  2
AcDbDictionaryWithDefault
  3
ObjectDBX Classes
 90
        0
 91
        6
280
     0
281
     0
  0
CLASS
  1
ACDBPLACEHOLDER
  2
AcDbPlaceHolder
  3
ObjectDBX Classes
 90
        0
 91
        1
280
     0
281
     0
  0
CLASS
  1
LAYOUT
  2
AcDbLayout
  3
ObjectDBX Classes
 90
        0
 91
        1
280
     0
281
     0
  0
CLASS
  1
DICTIONARYVAR
  2
AcDbDictionaryVar
  3
ObjectDBX Classes
 90
        0
 91
        6
280
     0
281
     0
  0
CLASS
  1
TABLESTYLE
  2
AcDbTableStyle
  3
ObjectDBX Classes
 90
     4095
 91
        6
280
     0
281
     0
  0
CLASS
  1
MATERIAL
  2
AcDbMaterial
  3
ObjectDBX Classes
 90
     1153
 91
        6
280
     0
281
     0
  0
CLASS
  1
VISUALSTYLE
  2
AcDbVisualStyle
  3
ObjectDBX Classes
 90
     4095
 91
        6
280
     0
281
     0
  0
CLASS
  1
SCALE
  2
AcDbScale
  3
ObjectDBX Classes
 90
     1153
 91
        6
280
     0
281
     0
  0
CLASS
  1
CELLSTYLEMAP
  2
AcDbCellStyleMap
  3
ObjectDBX Classes
 90
     1152
 91
        6
280
     0
281
     0
  0
CLASS
  1
RASTERVARIABLES
  2
AcDbRasterVariables
  3
ISM
 90
        0
 91
        6
280
     0
281
     0
  0
ENDSEC
  0
SECTION
  2
TABLES
  0
TABLE
  2
VPORT
  5
8
330
0
100
AcDbSymbolTable
 70
     1
  0
VPORT
  5
94
330
8
100
AcDbSymbolTableRecord
100
AcDbViewportTableRecord
  2
*Active
 70
     0
 10
0.0
 20
0.0
 11
1.0
 21
1.0
 12
-653.904546704484
 22
629.9902933339828
 13
0.0
 23
0.0
 14
0.5
 24
0.5
 15
0.5
 25
0.5
 16
0.0
 26
0.0
 36
1.0
 17
1092.847528520805
 27
-36.79270839250489
 37
146.578833365576
 40
1555.499999999998
 41
1.939914163090129
 42
50.0
 43
0.0
 44
0.0
 50
0.0
 51
0.0
 71
    16
 72
  1000
 73
     1
 74
     3
 75
     0
 76
     0
 77
     0
 78
     0
281
     0
 65
     1
110
0.0
120
0.0
130
0.0
111
1.0
121
0.0
131
0.0
112
0.0
122
1.0
132
0.0
 79
     1
146
0.0
348
9F
 60
     2
 61
     5
292
     1
282
     1
141
0.0
142
0.0
 63
   250
421
  3355443
  0
ENDTAB
  0
TABLE
  2
LTYPE
  5
5
330
0
100
AcDbSymbolTable
 70
     1
  0
LTYPE
  5
14
330
5
100
AcDbSymbolTableRecord
100
AcDbLinetypeTableRecord
  2
ByBlock
 70
     0
  3

 72
    65
 73
     0
 40
0.0
  0
LTYPE
  5
15
330
5
100
AcDbSymbolTableRecord
100
AcDbLinetypeTableRecord
  2
ByLayer
 70
     0
  3

 72
    65
 73
     0
 40
0.0
  0
LTYPE
  5
16
330
5
100
AcDbSymbolTableRecord
100
AcDbLinetypeTableRecord
  2
Continuous
 70
     0
  3
Solid line
 72
    65
 73
     0
 40
0.0
  0
ENDTAB
  0
TABLE
  2
LAYER
  5
2
102
{ACAD_XDICTIONARY
360
E7
102
}
330
0
100
AcDbSymbolTable
 70
     5
  0
LAYER
  5
10
330
2
100
AcDbSymbolTableRecord
100
AcDbLayerTableRecord
  2
0
 70
     0
 62
     7
  6
Continuous
370
    -3
390
F
347
98
  0
LAYER
  5
EA
330
2
100
AcDbSymbolTableRecord
100
AcDbLayerTableRecord
  2
plank
 70
     0
 62
     2
  6
Continuous
370
    -3
390
F
347
98
1001
AcAecLayerStandard
1000

1000

  0
LAYER
  5
EE
330
2
100
AcDbSymbolTableRecord
100
AcDbLayerTableRecord
  2
Layer2
 70
     0
 62
     1
  6
Continuous
370
    -3
390
F
347
98
1001
AcAecLayerStandard
1000

1000

  0
LAYER
  5
121
330
2
100
AcDbSymbolTableRecord
100
AcDbLayerTableRecord
  2
Layer1
 70
     0
 62
     5
  6
Continuous
370
    -3
390
F
347
98
1001
AcAecLayerStandard
1000

1000

  0
LAYER
  5
464
330
2
100
AcDbSymbolTableRecord
100
AcDbLayerTableRecord
  2
Layer3
 70
     0
 62
     6
  6
Continuous
370
    -3
390
F
347
98
1001
AcAecLayerStandard
1000

1000

  0
ENDTAB
  0
TABLE
  2
STYLE
  5
3
330
0
100
AcDbSymbolTable
 70
     1
  0
STYLE
  5
11
330
3
100
AcDbSymbolTableRecord
100
AcDbTextStyleTableRecord
  2
Standard
 70
     0
 40
0.0
 41
1.0
 50
0.0
 71
     0
 42
0.2
  3
arial.ttf
  4

1001
ACAD
1000
Arial
1071
        0
  0
ENDTAB
  0
TABLE
  2
VIEW
  5
6
330
0
100
AcDbSymbolTable
 70
     1
  0
VIEW
  5
282
102
{ACAD_XDICTIONARY
360
3FA
102
}
330
6
100
AcDbSymbolTableRecord
100
AcDbViewTableRecord
  2
front
 70
     0
 40
3641.48539377627
 10
1319.318385887959
 20
-87.0766861227105
 41
7064.169090072422
 11
0.3062341979289158
 21
-0.197760383849527
 31
0.9311881907528914
 12
33.34561217159646
 22
-89.02868078384546
 32
146.5788333655759
 42
50.0
 43
0.0
 44
0.0
 50
53.80079392760651
 71
    16
281
     0
 72
     0
 73
     0
348
9F
  0
ENDTAB
  0
TABLE
  2
UCS
  5
7
330
0
100
AcDbSymbolTable
 70
     0
  0
ENDTAB
  0
TABLE
  2
APPID
  5
9
330
0
100
AcDbSymbolTable
 70
     2
  0
APPID
  5
12
330
9
100
AcDbSymbolTableRecord
100
AcDbRegAppTableRecord
  2
ACAD
 70
     0
  0
APPID
  5
EB
330
9
100
AcDbSymbolTableRecord
100
AcDbRegAppTableRecord
  2
AcAecLayerStandard
 70
     0
  0
ENDTAB
  0
TABLE
  2
DIMSTYLE
  5
A
330
0
100
AcDbSymbolTable
 70
     1
100
AcDbDimStyleTable
  0
DIMSTYLE
105
27
330
A
100
AcDbSymbolTableRecord
100
AcDbDimStyleTableRecord
  2
Standard
 70
     0
178
     0
340
11
  0
ENDTAB
  0
TABLE
  2
BLOCK_RECORD
  5
1
330
0
100
AcDbSymbolTable
 70
    21
  0
BLOCK_RECORD
  5
1F
330
1
100
AcDbSymbolTableRecord
100
AcDbBlockTableRecord
  2
*Model_Space
340
22
 70
     0
280
     1
281
     0
  0
BLOCK_RECORD
  5
58
330
1
100
AcDbSymbolTableRecord
100
AcDbBlockTableRecord
  2
*Paper_Space
340
59
 70
     0
280
     1
281
     0
  0
BLOCK_RECORD
  5
5D
330
1
100
AcDbSymbolTableRecord
100
AcDbBlockTableRecord
  2
*Paper_Space0
340
5E
 70
     0
280
     1
281
     0
  0
ENDTAB
  0
ENDSEC
  0
SECTION
  2
BLOCKS
  0
BLOCK
  5
20
330
1F
100
AcDbEntity
  8
0
100
AcDbBlockBegin
  2
*Model_Space
 70
     0
 10
0.0
 20
0.0
 30
0.0
  3
*Model_Space
  1

  0
ENDBLK
  5
21
330
1F
100
AcDbEntity
  8
0
100
AcDbBlockEnd
  0
BLOCK
  5
5A
330
58
100
AcDbEntity
 67
     1
  8
0
100
AcDbBlockBegin
  2
*Paper_Space
 70
     0
 10
0.0
 20
0.0
 30
0.0
  3
*Paper_Space
  1

  0
ENDBLK
  5
5B
330
58
100
AcDbEntity
 67
     1
  8
0
100
AcDbBlockEnd
  0
BLOCK
  5
5F
330
5D
100
AcDbEntity
  8
0
100
AcDbBlockBegin
  2
*Paper_Space0
 70
     0
 10
0.0
 20
0.0
 30
0.0
  3
*Paper_Space0
  1

  0
ENDBLK
  5
60
330
5D
100
AcDbEntity
  8
0
100
AcDbBlockEnd
  0
ENDSEC
  0
SECTION
  2
ENTITIES
  0
ARC
  5
10F
330
1F
100
AcDbEntity
  8
Layer1
100
AcDbCircle
 10
-411.1003428965307
 20
343.0489143770018
 30
0.0
 40
1000.0
100
AcDbArc
 50
354.1047424936147
 51
24.15257244959019
  0
ARC
  5
110
330
1F
100
AcDbEntity
  8
Layer1
100
AcDbCircle
 10
-411.1003428965307
 20
343.0489143770018
 30
0.0
 40
949.9999999999999
100
AcDbArc
 50
355.9235782904547
 51
55.07152469622099
  0
LINE
  5
111
330
1F
100
AcDbEntity
  8
Layer1
100
AcDbLine
 10
120.4203888025987
 20
1178.205014620556
 30
0.0
 11
114.3169318730195
 21
1168.614910259025
 31
0.0
  0
LINE
  5
112
330
1F
100
AcDbEntity
  8
Layer1
100
AcDbLine
 10
572.5363404299233
 20
231.4295826529078
 30
0.0
 11
560.648188255257
 21
232.7786047295175
 31
0.0
  0
LINE
  5
116
330
1F
100
AcDbEntity
  8
Layer1
100
AcDbLine
 10
576.1034794422202
 20
798.7422815010154
 30
0.0
 11
506.1741683696418
 21
765.3323629853189
 31
0.0
  0
LINE
  5
117
330
1F
100
AcDbEntity
  8
Layer1
100
AcDbLine
 10
555.7117857246498
 20
820.6899794143454
 30
0.0
 11
493.9291327541097
 21
790.974676295934
 31
0.0
  0
CIRCLE
  5
119
330
1F
100
AcDbEntity
  8
Layer2
100
AcDbCircle
 10
513.8493100069157
 20
784.7423491767491
 30
0.0
 40
3.0
  0
ARC
  5
11A
330
1F
100
AcDbEntity
  8
Layer1
100
AcDbCircle
 10
-411.1003428965307
 20
343.0489143770018
 30
0.0
 40
1000.0
100
AcDbArc
 50
26.89940235831758
 51
56.94723231429316
  0
ARC
  5
11D
330
1F
100
AcDbEntity
  8
Layer1
100
AcDbCircle
 10
510.4833727125888
 20
756.3084637211024
 30
0.0
 40
9.999999999999998
100
AcDbArc
 50
115.5259874039544
 51
204.1525724495903
  0
ARC
  5
11E
330
1F
100
AcDbEntity
  8
Layer1
100
AcDbCircle
 10
489.6199284111628
 20
799.9985755601505
 30
0.0
 40
9.999999999999998
100
AcDbArc
 50
206.8994023583182
 51
295.5259874039541
  0
LINE
  5
123
330
1F
100
AcDbEntity
  8
Layer1
100
AcDbLine
 10
63.67746412281724
 20
1038.96746055982
 30
0.0
 11
71.28313383597276
 21
73.68832211758837
 31
0.0
  0
LINE
  5
124
330
1F
100
AcDbEntity
  8
Layer1
100
AcDbLine
 10
23.22208020051187
 20
1038.967460611089
 30
0.0
 11
15.62756823034772
 21
73.68832211758837
 31
0.0
  0
LINE
  5
163
330
1F
100
AcDbEntity
  8
Layer1
100
AcDbLine
 10
485.823896722181
 20
18.65531425801043
 30
0.0
 11
582.351652684644
 21
18.65531425801043
 31
0.0
  0
LINE
  5
164
330
1F
100
AcDbEntity
  8
Layer1
100
AcDbLine
 10
186.052423310384
 20
18.65531425801055
 30
0.0
 11
91.14286571912612
 21
18.65531425801055
 31
0.0
  0
LINE
  5
165
330
1F
100
AcDbEntity
  8
Layer1
100
AcDbLine
 10
84.14218823266901
 20
35.79607855398149
 30
0.0
 11
271.6938062278426
 21
219.6683274095071
 31
0.0
  0
LINE
  5
166
330
1F
100
AcDbEntity
  8
Layer1
100
AcDbLine
 10
402.02173203088
 20
218.2789134766504
 30
0.0
 11
589.3294272838655
 21
35.8184603295673
 31
0.0
  0
LINE
  5
167
330
1F
100
AcDbEntity
  8
Layer1
100
AcDbLine
 10
327.9865262742082
 20
223.2269730444833
 30
0.0
 11
343.889793758357
 21
223.2269730444831
 31
0.0
  0
LINE
  5
168
330
1F
100
AcDbEntity
  8
Layer1
100
AcDbLine
 10
477.2929357365945
 20
23.43777607775712
 30
0.0
 11
360.9517157295298
 21
213.66204940499
 31
0.0
  0
LINE
  5
169
330
1F
100
AcDbEntity
  8
Layer1
100
AcDbLine
 10
194.5833842959704
 20
23.43777607775723
 30
0.0
 11
310.9246043030354
 21
213.66204940499
 31
0.0
  0
ARC
  5
16A
330
1F
100
AcDbEntity
  8
Layer1
100
AcDbCircle
 10
327.9865262742082
 20
203.2269730444833
 30
0.0
 40
20.0
100
AcDbArc
 50
90.0
 51
148.5500321654578
  0
ARC
  5
16B
330
1F
100
AcDbEntity
  8
Layer1
100
AcDbCircle
 10
343.889793758357
 20
203.2269730444831
 30
0.0
 40
20.00000000000001
100
AcDbArc
 50
31.44996783454231
 51
89.99999999999969
  0
ARC
  5
16C
330
1F
100
AcDbEntity
  8
Layer1
100
AcDbCircle
 10
91.14286571912612
 20
28.65531425801055
 30
0.0
 40
9.999999999999998
100
AcDbArc
 50
134.4324397368137
 51
270.0
  0
ARC
  5
16D
330
1F
100
AcDbEntity
  8
Layer1
100
AcDbCircle
 10
582.351652684644
 20
28.65531425801043
 30
0.0
 40
10.0
100
AcDbArc
 50
270.0
 51
45.75103983235847
  0
ARC
  5
16E
330
1F
100
AcDbEntity
  8
Layer1
100
AcDbCircle
 10
186.052423310384
 20
28.65531425801055
 30
0.0
 40
10.0
100
AcDbArc
 50
270.0
 51
328.5500321654583
  0
ARC
  5
16F
330
1F
100
AcDbEntity
  8
Layer1
100
AcDbCircle
 10
485.823896722181
 20
28.65531425801043
 30
0.0
 40
9.999999999999995
100
AcDbArc
 50
211.4499678345416
 51
270.0
  0
LINE
  5
172
330
1F
100
AcDbEntity
  8
Layer1
100
AcDbLine
 10
332.0381470725871
 20
273.2270142580107
 30
0.0
 11
339.8381729599786
 21
273.2270142580107
 31
0.0
  0
LINE
  5
173
330
1F
100
AcDbEntity
  8
Layer1
100
AcDbLine
 10
339.8381729599786
 20
273.2270142580107
 30
0.0
 11
339.8381729599786
 21
323.2270142580107
 31
0.0
  0
LINE
  5
176
330
1F
100
AcDbEntity
  8
Layer1
100
AcDbLine
 10
332.038147072587
 20
273.2270142580107
 30
0.0
 11
332.0381470725868
 21
323.2270142580106
 31
0.0
  0
LINE
  5
179
330
1F
100
AcDbEntity
  8
Layer1
100
AcDbLine
 10
282.8964969482857
 20
236.2672191134128
 30
0.0
 11
316.2971059559686
 21
317.0480002132003
 31
0.0
  0
LINE
  5
17A
330
1F
100
AcDbEntity
  8
Layer1
100
AcDbLine
 10
325.5383215865144
 20
323.2270142580106
 30
0.0
 11
332.0381470725868
 21
323.2270142580106
 31
0.0
  0
LINE
  5
17B
330
1F
100
AcDbEntity
  8
Layer1
100
AcDbLine
 10
346.420816321332
 20
323.2270142580106
 30
0.0
 11
339.8381729599789
 21
323.2270142580106
 31
0.0
  0
LINE
  5
17C
330
1F
100
AcDbEntity
  8
Layer1
100
AcDbLine
 10
390.9270894861118
 20
234.4600748678883
 30
0.0
 11
355.6175194295071
 21
317.1539280513197
 31
0.0
  0
ARC
  5
17E
330
1F
100
AcDbEntity
  8
Layer1
100
AcDbCircle
 10
236.6904187955573
 20
255.3721488893614
 30
0.0
 40
49.99999999999982
100
AcDbArc
 50
314.4324397368146
 51
337.5362647857169
  0
ARC
  5
17F
330
1F
100
AcDbEntity
  8
Layer1
100
AcDbCircle
 10
436.9106050269875
 20
254.0946438344344
 30
0.0
 40
49.9999999999999
100
AcDbArc
 50
203.1220688766057
 51
225.7510398323581
  0
ARC
  5
180
330
1F
100
AcDbEntity
  8
Layer1
100
AcDbCircle
 10
325.5383215865144
 20
313.2270142580106
 30
0.0
 40
10.0
100
AcDbArc
 50
90.0
 51
157.536264785717
  0
ARC
  5
181
330
1F
100
AcDbEntity
  8
Layer1
100
AcDbCircle
 10
346.420816321332
 20
313.2270142580106
 30
0.0
 40
9.999999999999998
100
AcDbArc
 50
23.12206887660539
 51
90.0
  0
LINE
  5
182
330
1F
100
AcDbEntity
  8
Layer1
100
AcDbLine
 10
33.22173299639928
 20
1048.884130174261
 30
0.0
 11
53.67781132650236
 21
1048.884130174261
 31
0.0
  0
CIRCLE
  5
18F
330
1F
100
AcDbEntity
  8
Layer2
100
AcDbCircle
 10
43.45682362108425
 20
1034.676131280552
 30
0.0
 40
3.0
  0
LINE
  5
194
330
1F
100
AcDbEntity
  8
Layer1
100
AcDbLine
 10
113.7272456585783
 20
1158.941014814127
 30
0.0
 11
129.5248922127414
 21
1125.81691720056
 31
0.0
  0
LINE
  5
195
330
1F
100
AcDbEntity
  8
Layer1
100
AcDbLine
 10
537.4449364662928
 20
270.5006953785987
 30
0.0
 11
552.7496769628456
 21
238.4101104664722
 31
0.0
  0
ARC
  5
196
330
1F
100
AcDbEntity
  8
Layer1
100
AcDbCircle
 10
122.7532824706128
 20
1163.245740062944
 30
0.0
 40
9.999999999999998
100
AcDbArc
 50
147.5259874039553
 51
205.4975514933396
  0
ARC
  5
197
330
1F
100
AcDbEntity
  8
Layer1
100
AcDbCircle
 10
138.550929024776
 20
1130.121642449376
 30
0.0
 40
10.0
100
AcDbArc
 50
205.4975514933373
 51
235.0715246962208
  0
ARC
  5
198
330
1F
100
AcDbEntity
  8
Layer1
100
AcDbCircle
 10
128.8567394001921
 20
1172.835844424475
 30
0.0
 40
10.0
100
AcDbArc
 50
56.94723231429136
 51
147.5259874039549
  0
ARC
  5
199
330
1F
100
AcDbEntity
  8
Layer1
100
AcDbCircle
 10
551.9855759792429
 20
275.8484688156805
 30
0.0
 40
15.49286539604348
100
AcDbArc
 50
181.2285579157646
 51
200.1925718680297
  0
ARC
  5
19A
330
1F
100
AcDbEntity
  8
Layer1
100
AcDbCircle
 10
561.77571377488
 20
242.7148357152887
 30
0.0
 40
9.999999999999993
100
AcDbArc
 50
205.4975514933378
 51
263.5259874039547
  0
ARC
  5
19B
330
1F
100
AcDbEntity
  8
Layer1
100
AcDbCircle
 10
573.6638659495463
 20
241.3658136386791
 30
0.0
 40
10.0
100
AcDbArc
 50
263.5259874039542
 51
354.1047424936147
  0
ARC
  5
19C
330
1F
100
AcDbEntity
  8
Layer1
100
AcDbCircle
 10
33.22173299639928
 20
1038.884130174261
 30
0.0
 40
10.0
100
AcDbArc
 50
90.0
 51
179.5225462406679
  0
ARC
  5
19D
330
1F
100
AcDbEntity
  8
Layer1
100
AcDbCircle
 10
53.67781132650236
 20
1038.884130174261
 30
0.0
 40
9.999999999999996
100
AcDbArc
 50
0.4774534655740897
 51
90.0
  0
CIRCLE
  5
1E0
330
1F
100
AcDbEntity
  8
Layer2
100
AcDbCircle
 10
464.2859880134718
 20
760.2680978731038
 30
0.0
 40
2.1
  0
CIRCLE
  5
1FE
330
1F
100
AcDbEntity
  8
Layer2
100
AcDbCircle
 10
136.1735793077369
 20
1152.521396953819
 30
0.0
 40
2.1
  0
CIRCLE
  5
21C
330
1F
100
AcDbEntity
  8
Layer2
100
AcDbCircle
 10
558.5554366171662
 20
269.8589923982978
 30
0.0
 40
2.1
  0
LINE
  5
256
330
1F
100
AcDbEntity
  8
Layer1
100
AcDbLine
 10
485.1953132372566
 20
163.3702894898543
 30
0.0
 11
581.7230691997197
 21
163.3702894898543
 31
0.0
  0
LINE
  5
257
330
1F
100
AcDbEntity
  8
Layer1
100
AcDbLine
 10
185.4238398254597
 20
163.3702894898544
 30
0.0
 11
90.5142822342018
 21
163.3702894898544
 31
0.0
  0
LINE
  5
258
330
1F
100
AcDbEntity
  8
Layer1
100
AcDbLine
 10
83.5136047477447
 20
180.5110537858253
 30
0.0
 11
271.0652227429182
 21
364.3833026413509
 31
0.0
  0
LINE
  5
259
330
1F
100
AcDbEntity
  8
Layer1
100
AcDbLine
 10
401.3931485459557
 20
362.9938887084942
 30
0.0
 11
588.7008437989412
 21
180.5334355614111
 31
0.0
  0
LINE
  5
25A
330
1F
100
AcDbEntity
  8
Layer1
100
AcDbLine
 10
327.3579427892839
 20
367.9419482763271
 30
0.0
 11
331.4095635876624
 21
367.941948276327
 31
0.0
  0
LINE
  5
25B
330
1F
100
AcDbEntity
  8
Layer1
100
AcDbLine
 10
476.6643522516702
 20
168.1527513096009
 30
0.0
 11
360.3231322446054
 21
358.3770246368338
 31
0.0
  0
LINE
  5
25C
330
1F
100
AcDbEntity
  8
Layer1
100
AcDbLine
 10
193.954800811046
 20
168.1527513096011
 30
0.0
 11
310.2960208181112
 21
358.3770246368338
 31
0.0
  0
ARC
  5
25D
330
1F
100
AcDbEntity
  8
Layer1
100
AcDbCircle
 10
327.3579427892839
 20
347.9419482763271
 30
0.0
 40
20.0
100
AcDbArc
 50
90.0
 51
148.550032165458
  0
ARC
  5
25E
330
1F
100
AcDbEntity
  8
Layer1
100
AcDbCircle
 10
343.2612102734327
 20
347.941948276327
 30
0.0
 40
20.00000000000001
100
AcDbArc
 50
31.44996783454262
 51
89.99999999999935
  0
ARC
  5
25F
330
1F
100
AcDbEntity
  8
Layer1
100
AcDbCircle
 10
90.5142822342018
 20
173.3702894898544
 30
0.0
 40
9.999999999999998
100
AcDbArc
 50
134.4324397368132
 51
270.0
  0
ARC
  5
260
330
1F
100
AcDbEntity
  8
Layer1
100
AcDbCircle
 10
581.7230691997197
 20
173.3702894898543
 30
0.0
 40
10.0
100
AcDbArc
 50
270.0
 51
45.75103983235852
  0
ARC
  5
261
330
1F
100
AcDbEntity
  8
Layer1
100
AcDbCircle
 10
185.4238398254597
 20
173.3702894898544
 30
0.0
 40
10.0
100
AcDbArc
 50
270.0
 51
328.5500321654584
  0
ARC
  5
262
330
1F
100
AcDbEntity
  8
Layer1
100
AcDbCircle
 10
485.1953132372566
 20
173.3702894898543
 30
0.0
 40
9.999999999999995
100
AcDbArc
 50
211.4499678345416
 51
270.0
  0
LINE
  5
265
330
1F
100
AcDbEntity
  8
Layer1
100
AcDbLine
 10
331.4095635876629
 20
417.9419894898545
 30
0.0
 11
339.2095894750541
 21
417.9419894898545
 31
0.0
  0
LINE
  5
266
330
1F
100
AcDbEntity
  8
Layer1
100
AcDbLine
 10
282.2679134633613
 20
380.9821943452566
 30
0.0
 11
315.6685224710443
 21
461.7629754450441
 31
0.0
  0
LINE
  5
269
330
1F
100
AcDbEntity
  8
Layer1
100
AcDbLine
 10
390.2985060011874
 20
379.1750500997321
 30
0.0
 11
354.9889359445829
 21
461.8689032831635
 31
0.0
  0
ARC
  5
26A
330
1F
100
AcDbEntity
  8
Layer1
100
AcDbCircle
 10
236.0618353106329
 20
400.0871241212052
 30
0.0
 40
49.99999999999982
100
AcDbArc
 50
314.4324397368146
 51
337.5362647857169
  0
ARC
  5
26B
330
1F
100
AcDbEntity
  8
Layer1
100
AcDbCircle
 10
436.2820215420631
 20
398.8096190662782
 30
0.0
 40
49.9999999999999
100
AcDbArc
 50
203.1220688766057
 51
225.7510398323581
  0
ARC
  5
26C
330
1F
100
AcDbEntity
  8
Layer1
100
AcDbCircle
 10
324.9097381015899
 20
457.9419894898544
 30
0.0
 40
10.0
100
AcDbArc
 50
97.47038194340742
 51
157.5362647857164
  0
ARC
  5
26D
330
1F
100
AcDbEntity
  8
Layer1
100
AcDbCircle
 10
345.7922328364077
 20
457.9419894898544
 30
0.0
 40
9.999999999999998
100
AcDbArc
 50
23.12206887660539
 51
82.52961805659388
  0
LINE
  5
26E
330
1F
100
AcDbEntity
  8
Layer1
100
AcDbLine
 10
331.4095635876629
 20
417.9419894898545
 30
0.0
 11
331.4095635876624
 21
367.941948276327
 31
0.0
  0
LINE
  5
26F
330
1F
100
AcDbEntity
  8
Layer1
100
AcDbLine
 10
339.2095894750541
 20
417.9419894898545
 30
0.0
 11
339.2095894750537
 21
367.941948276327
 31
0.0
  0
LINE
  5
270
330
1F
100
AcDbEntity
  8
Layer1
100
AcDbLine
 10
331.4095635876629
 20
467.9419894898544
 30
0.0
 11
339.2924073503345
 21
467.9419894898543
 31
0.0
  0
LINE
  5
271
330
1F
100
AcDbEntity
  8
Layer1
100
AcDbLine
 10
339.2095894750537
 20
367.941948276327
 30
0.0
 11
343.2612102734327
 21
367.941948276327
 31
0.0
  0
LINE
  5
278
330
1F
100
AcDbEntity
  8
Layer1
100
AcDbLine
 10
331.4095635876629
 20
437.9419399384338
 30
0.0
 11
331.4095635876629
 21
467.9419894898544
 31
0.0
  0
LINE
  5
279
330
1F
100
AcDbEntity
  8
Layer1
100
AcDbLine
 10
331.4095635876629
 20
437.9419399384338
 30
0.0
 11
323.6096014553116
 21
437.9419399384338
 31
0.0
  0
LINE
  5
27A
330
1F
100
AcDbEntity
  8
Layer1
100
AcDbLine
 10
323.6096014553116
 20
437.9419399384338
 30
0.0
 11
323.6096014553116
 21
467.8571115113428
 31
0.0
  0
LINE
  5
27B
330
1F
100
AcDbEntity
  8
Layer1
100
AcDbLine
 10
339.2924073503345
 20
437.9419399384338
 30
0.0
 11
339.2924073503345
 21
467.9419894898544
 31
0.0
  0
LINE
  5
27C
330
1F
100
AcDbEntity
  8
Layer1
100
AcDbLine
 10
339.2924073503345
 20
437.9419399384338
 30
0.0
 11
347.0923694826859
 21
437.9419399384338
 31
0.0
  0
LINE
  5
27D
330
1F
100
AcDbEntity
  8
Layer1
100
AcDbLine
 10
347.0923694826859
 20
437.9419399384338
 30
0.0
 11
347.0923694826859
 21
467.8571115113428
 31
0.0
  0
LINE
  5
27F
330
1F
100
AcDbEntity
  8
Layer1
100
AcDbLine
 10
15.62756823034772
 20
73.68832211758837
 30
0.0
 11
39.55681067738863
 21
73.68832211758837
 31
0.0
  0
LINE
  5
2AC
330
1F
100
AcDbEntity
  8
Layer1
100
AcDbLine
 10
39.55681067738863
 20
125.1680130142626
 30
0.0
 11
47.35683656477988
 21
125.1680130142626
 31
0.0
  0
LINE
  5
2AD
330
1F
100
AcDbEntity
  8
Layer1
100
AcDbLine
 10
39.55681067738863
 20
125.1680130142626
 30
0.0
 11
39.55681067738863
 21
73.68832211758837
 31
0.0
  0
LINE
  5
2AE
330
1F
100
AcDbEntity
  8
Layer1
100
AcDbLine
 10
47.35683656477988
 20
125.1680130142626
 30
0.0
 11
47.35683656477988
 21
73.68832211758837
 31
0.0
  0
LINE
  5
2AF
330
1F
100
AcDbEntity
  8
Layer1
100
AcDbLine
 10
47.35683656477988
 20
73.68832211758837
 30
0.0
 11
71.28313383597276
 21
73.68832211758837
 31
0.0
  0
CIRCLE
  5
2B0
330
1F
100
AcDbEntity
  8
Layer2
100
AcDbCircle
 10
27.59218945386817
 20
96.41717891905404
 30
0.0
 40
2.0
  0
CIRCLE
  5
2CE
330
1F
100
AcDbEntity
  8
0
100
AcDbCircle
 10
59.31998520037621
 20
96.41721231068925
 30
0.0
 40
2.0
  0
CIRCLE
  5
2F2
330
1F
100
AcDbEntity
  8
Layer2
100
AcDbCircle
 10
320.0735258490662
 20
265.6168506818179
 30
0.0
 40
2.1
  0
CIRCLE
  5
310
330
1F
100
AcDbEntity
  8
Layer2
100
AcDbCircle
 10
59.31998520037428
 20
96.41721231062172
 30
0.0
 40
2.0
  0
CIRCLE
  5
32E
330
1F
100
AcDbEntity
  8
Layer2
100
AcDbCircle
 10
351.7985699861949
 20
265.6168506818179
 30
0.0
 40
2.1
  0
CIRCLE
  5
34C
330
1F
100
AcDbEntity
  8
Layer2
100
AcDbCircle
 10
43.45682362108425
 20
573.4602750956445
 30
0.0
 40
2.1
  0
LINE
  5
37B
330
1F
100
AcDbEntity
  8
Layer1
100
AcDbLine
 10
12.74028222897846
 20
1151.42070576672
 30
0.0
 11
482.7285347385099
 21
308.2525527119114
 31
0.0
  0
LINE
  5
37C
330
1F
100
AcDbEntity
  8
Layer1
100
AcDbLine
 10
47.92077590897247
 20
1171.394963017817
 30
0.0
 11
531.1272911660022
 21
335.7316785923736
 31
0.0
  0
LINE
  5
37D
330
1F
100
AcDbEntity
  8
Layer1
100
AcDbLine
 10
16.53989052484542
 20
1164.981545271021
 30
0.0
 11
34.32874491500365
 21
1175.08143636613
 31
0.0
  0
CIRCLE
  5
37E
330
1F
100
AcDbEntity
  8
Layer2
100
AcDbCircle
 10
32.4554425209177
 20
1157.679523816693
 30
0.0
 40
3.0
  0
ARC
  5
37F
330
1F
100
AcDbEntity
  8
Layer1
100
AcDbCircle
 10
21.47724505200608
 20
1156.285423706029
 30
0.0
 40
10.0
100
AcDbArc
 50
119.5863991774654
 51
209.108945418133
  0
ARC
  5
380
330
1F
100
AcDbEntity
  8
Layer1
100
AcDbCircle
 10
39.26609944216455
 20
1166.385314801137
 30
0.0
 40
9.999999999999996
100
AcDbArc
 50
30.06385264303904
 51
119.5863991774654
  0
LINE
  5
381
330
1F
100
AcDbEntity
  8
Layer1
100
AcDbLine
 10
478.1203463757219
 20
364.834633081225
 30
0.0
 11
484.9033437084055
 21
368.685782393933
 31
0.0
  0
LINE
  5
382
330
1F
100
AcDbEntity
  8
Layer1
100
AcDbLine
 10
478.1203463757219
 20
364.834633081225
 30
0.0
 11
503.5376948662741
 21
320.0672680646538
 31
0.0
  0
LINE
  5
383
330
1F
100
AcDbEntity
  8
Layer1
100
AcDbLine
 10
484.9033437084055
 20
368.685782393933
 30
0.0
 11
510.3206921989585
 21
323.9184173773619
 31
0.0
  0
LINE
  5
384
330
1F
100
AcDbEntity
  8
Layer1
100
AcDbLine
 10
510.3206921989585
 20
323.9184173773619
 30
0.0
 11
531.1272911660022
 21
335.7316785923736
 31
0.0
  0
LINE
  5
385
330
1F
100
AcDbEntity
  8
Layer1
100
AcDbLine
 10
482.7285347385099
 20
308.2525527119114
 30
0.0
 11
503.5376948662741
 21
320.0672680646538
 31
0.0
  0
CIRCLE
  5
386
330
1F
100
AcDbEntity
  8
Layer2
100
AcDbCircle
 10
481.9110723998018
 20
333.9252005661676
 30
0.0
 40
2.1
  0
CIRCLE
  5
388
330
1F
100
AcDbEntity
  8
Layer2
100
AcDbCircle
 10
509.5019327932879
 20
349.5903672004648
 30
0.0
 40
2.1
  0
CIRCLE
  5
389
330
1F
100
AcDbEntity
  8
Layer2
100
AcDbCircle
 10
260.1740620742021
 20
756.6006085080919
 30
0.0
 40
2.1
  0
POINT
  5
38A
330
1F
100
AcDbEntity
  8
plank
100
AcDbPoint
 10
575.0879807877902
 20
353.606926842155
 30
0.0
 50
86.61096972642713
  0
POINT
  5
38B
330
1F
100
AcDbEntity
  8
plank
100
AcDbPoint
 10
552.8543573128196
 20
409.5190542133545
 30
0.0
 50
86.61096972642713
  0
POINT
  5
3CE
330
1F
100
AcDbEntity
  8
plank
100
AcDbPoint
 10
528.1757536681312
 20
648.0992236890988
 30
0.0
 50
111.4119347133636
  0
POINT
  5
3CF
330
1F
100
AcDbEntity
  8
plank
100
AcDbPoint
 10
484.5394149882569
 20
689.5283191006006
 30
0.0
 50
111.4119347133636
  0
POINT
  5
3F0
330
1F
100
AcDbEntity
  8
plank
100
AcDbPoint
 10
245.8089608176709
 20
1078.268928967984
 30
0.0
 50
140.0647228139385
  0
POINT
  5
3F1
330
1F
100
AcDbEntity
  8
plank
100
AcDbPoint
 10
187.6509850083438
 20
1093.701033482979
 30
0.0
 50
140.0647228139385
  0
LINE
  5
3F5
330
1F
100
AcDbEntity
  8
0
100
AcDbLine
 10
0.0
 20
0.0
 30
0.0
 11
610.0
 21
0.0
 31
0.0
  0
LINE
  5
3F6
330
1F
100
AcDbEntity
  8
0
100
AcDbLine
 10
610.0
 20
0.0
 30
0.0
 11
610.0
 21
1220.0
 31
0.0
  0
LINE
  5
3F7
330
1F
100
AcDbEntity
  8
0
100
AcDbLine
 10
610.0
 20
1220.0
 30
0.0
 11
0.0
 21
1220.0
 31
0.0
  0
LINE
  5
3F8
330
1F
100
AcDbEntity
  8
0
100
AcDbLine
 10
0.0
 20
1220.0
 30
0.0
 11
0.0
 21
0.0
 31
0.0
  0
CIRCLE
  5
43C
330
1F
100
AcDbEntity
  8
Layer2
100
AcDbCircle
 10
160.3703484466664
 20
581.0596988567652
 30
0.0
 40
2.1
  0
LINE
  5
43D
330
1F
100
AcDbEntity
  8
Layer1
100
AcDbLine
 10
146.5920993868225
 20
606.140203149095
 30
0.0
 11
205.4574625048573
 21
606.140203149095
 31
0.0
  0
LINE
  5
43F
330
1F
100
AcDbEntity
  8
Layer1
100
AcDbLine
 10
226.2158933306081
 20
621.693197924003
 30
0.0
 11
226.2158933306081
 21
602.1396884023138
 31
0.0
  0
LINE
  5
440
330
1F
100
AcDbEntity
  8
Layer1
100
AcDbLine
 10
216.2158933306081
 20
592.1396884023138
 30
0.0
 11
198.4333645065738
 21
592.1396884023138
 31
0.0
  0
LINE
  5
441
330
1F
100
AcDbEntity
  8
Layer1
100
AcDbLine
 10
191.4333645065738
 20
585.1396884023138
 30
0.0
 11
191.4333645065738
 21
582.4514645396529
 31
0.0
  0
LINE
  5
442
330
1F
100
AcDbEntity
  8
Layer1
100
AcDbLine
 10
201.4333645065738
 20
572.4514645396529
 30
0.0
 11
205.4967492276038
 21
572.4514645396529
 31
0.0
  0
LINE
  5
443
330
1F
100
AcDbEntity
  8
Layer1
100
AcDbLine
 10
215.4967492276038
 20
582.4514645396529
 30
0.0
 11
215.4967492276038
 21
582.9518505997387
 31
0.0
  0
LINE
  5
444
330
1F
100
AcDbEntity
  8
Layer1
100
AcDbLine
 10
215.4967492276038
 20
582.9518505997387
 30
0.0
 11
225.9971352876896
 21
582.9518505997387
 31
0.0
  0
LINE
  5
445
330
1F
100
AcDbEntity
  8
Layer1
100
AcDbLine
 10
225.9971352876896
 20
582.9518505997387
 30
0.0
 11
225.9971352876896
 21
569.8424843955428
 31
0.0
  0
LINE
  5
446
330
1F
100
AcDbEntity
  8
Layer1
100
AcDbLine
 10
215.9184608750112
 20
559.8427938834924
 30
0.0
 11
146.3108315575199
 21
560.3904447680763
 31
0.0
  0
LINE
  5
447
330
1F
100
AcDbEntity
  8
Layer1
100
AcDbLine
 10
136.3898154581481
 20
570.468809692805
 30
0.0
 11
136.5924088747721
 21
596.2188775617734
 31
0.0
  0
ARC
  5
448
330
1F
100
AcDbEntity
  8
Layer1
100
AcDbCircle
 10
146.5920993868225
 20
596.140203149095
 30
0.0
 40
9.999999999999998
100
AcDbArc
 50
90.0
 51
179.5492241694531
  0
ARC
  5
449
330
1F
100
AcDbEntity
  8
Layer1
100
AcDbCircle
 10
146.3895059701983
 20
570.3901352801267
 30
0.0
 40
10.00000000000001
100
AcDbArc
 50
179.5492241694531
 51
269.5492241694531
  0
ARC
  5
44A
330
1F
100
AcDbEntity
  8
Layer1
100
AcDbCircle
 10
215.9971352876896
 20
569.8424843955428
 30
0.0
 40
10.0
100
AcDbArc
 50
269.5492241694531
 51
0.0
  0
LINE
  5
44C
330
1F
100
AcDbEntity
  8
Layer1
100
AcDbLine
 10
215.4574625048573
 20
616.140203149095
 30
0.0
 11
215.4574625048573
 21
621.693197924003
 31
0.0
  0
LINE
  5
44D
330
1F
100
AcDbEntity
  8
Layer1
100
AcDbLine
 10
215.4574625048573
 20
621.693197924003
 30
0.0
 11
226.3078614336127
 21
621.693197924003
 31
0.0
  0
ARC
  5
44E
330
1F
100
AcDbEntity
  8
Layer1
100
AcDbCircle
 10
216.2158933306081
 20
602.1396884023138
 30
0.0
 40
10.0
100
AcDbArc
 50
270.0
 51
0.0
  0
ARC
  5
44F
330
1F
100
AcDbEntity
  8
Layer1
100
AcDbCircle
 10
205.4574625048573
 20
616.140203149095
 30
0.0
 40
10.0
100
AcDbArc
 50
270.0
 51
0.0
  0
ARC
  5
450
330
1F
100
AcDbEntity
  8
Layer1
100
AcDbCircle
 10
205.4967492276038
 20
582.4514645396529
 30
0.0
 40
10.0
100
AcDbArc
 50
270.0
 51
0.0
  0
ARC
  5
451
330
1F
100
AcDbEntity
  8
Layer1
100
AcDbCircle
 10
201.4333645065738
 20
582.4514645396529
 30
0.0
 40
10.0
100
AcDbArc
 50
180.0
 51
270.0
  0
ARC
  5
452
330
1F
100
AcDbEntity
  8
Layer1
100
AcDbCircle
 10
198.4333645065738
 20
585.1396884023138
 30
0.0
 40
7.0
100
AcDbArc
 50
90.0
 51
180.0
  0
LINE
  5
453
330
1F
100
AcDbEntity
  8
Layer1
100
AcDbLine
 10
570.5375122784955
 20
832.7221939954812
 30
0.0
 11
565.0738168401704
 21
845.5623849369467
 31
0.0
  0
LINE
  5
454
330
1F
100
AcDbEntity
  8
Layer1
100
AcDbLine
 10
565.0738168401704
 20
845.5623849369467
 30
0.0
 11
553.8734050427454
 21
840.6622047755733
 31
0.0
  0
LINE
  5
455
330
1F
100
AcDbEntity
  8
Layer1
100
AcDbLine
 10
553.8734050427454
 20
840.6622047755733
 30
0.0
 11
558.9860050779096
 21
830.0323285636086
 31
0.0
  0
LINE
  5
456
330
1F
100
AcDbEntity
  8
Layer1
100
AcDbLine
 10
568.207826624631
 20
818.2064603060186
 30
0.0
 11
554.517341074688
 21
808.8460814653338
 31
0.0
  0
LINE
  5
457
330
1F
100
AcDbEntity
  8
Layer1
100
AcDbLine
 10
551.0523125081536
 20
799.9381795386621
 30
0.0
 11
552.8233664367368
 21
795.5105447172042
 31
0.0
  0
LINE
  5
458
330
1F
100
AcDbEntity
  8
Layer1
100
AcDbLine
 10
552.8233664367368
 20
795.5105447172042
 30
0.0
 11
567.8717751804721
 21
802.282328651885
 31
0.0
  0
LINE
  5
459
330
1F
100
AcDbEntity
  8
Layer1
100
AcDbLine
 10
571.5676242568902
 20
811.0857166999024
 30
0.0
 11
571.3740484762218
 21
811.6111366760025
 31
0.0
  0
LINE
  5
45A
330
1F
100
AcDbEntity
  8
Layer1
100
AcDbLine
 10
571.3740484762218
 20
811.6111366760025
 30
0.0
 11
577.6742801122733
 21
815.1112653626977
 31
0.0
  0
LINE
  5
45B
330
1F
100
AcDbEntity
  8
Layer1
100
AcDbLine
 10
577.6742801122733
 20
815.1112653626977
 30
0.0
 11
579.8544657548898
 21
806.8432503371577
 31
0.0
  0
ARC
  5
45D
330
1F
100
AcDbEntity
  8
Layer1
100
AcDbCircle
 10
552.677720826648
 20
826.9982636656069
 30
0.0
 40
7.000000000000005
100
AcDbArc
 50
295.6859329616371
 51
25.68593296163702
  0
ARC
  5
45E
330
1F
100
AcDbEntity
  8
Layer1
100
AcDbCircle
 10
557.5952389028789
 20
827.3545320536252
 30
0.0
 40
14.0112181787039
100
AcDbArc
 50
319.2385962425299
 51
22.52567824987876
  0
ARC
  5
45F
330
1F
100
AcDbEntity
  8
Layer1
100
AcDbCircle
 10
557.5516493443504
 20
802.5379142731408
 30
0.0
 40
6.999999999999999
100
AcDbArc
 50
115.6881434356474
 51
201.8014094863522
  0
ARC
  5
460
330
1F
100
AcDbEntity
  8
Layer1
100
AcDbCircle
 10
564.9992224391705
 20
808.6657791881108
 30
0.0
 40
7.000000000000001
100
AcDbArc
 50
294.2277453179541
 51
20.22485943116858
  0
ARC
  5
461
330
1F
100
AcDbEntity
  8
Layer1
100
AcDbCircle
 10
573.0858297814307
 20
805.0584346439291
 30
0.0
 40
6.999999999999996
100
AcDbArc
 50
295.5369325345208
 51
14.77202500820012
  0
LINE
  5
466
330
1F
100
AcDbEntity
  8
Layer3
100
AcDbLine
 10
540.4919582919451
 20
517.8276750587398
 30
0.0
 11
541.8920097666232
 21
506.9772761299844
 31
0.0
  0
LINE
  5
484
330
1F
100
AcDbEntity
  8
Layer3
100
AcDbLine
 10
552.0423829580395
 20
520.6277780080961
 30
0.0
 11
553.4424344327176
 21
509.7773790793407
 31
0.0
  0
LINE
  5
4C7
330
1F
100
AcDbEntity
  8
Layer3
100
AcDbLine
 10
345.2580302578161
 20
951.6626131580639
 30
0.0
 11
350.017433121886
 21
941.8117560673145
 31
0.0
  0
LINE
  5
4C8
330
1F
100
AcDbEntity
  8
Layer3
100
AcDbLine
 10
355.3302549236384
 20
957.9715890476451
 30
0.0
 11
360.0896577877084
 21
948.1207319568956
 31
0.0
  0
ENDSEC
  0
SECTION
  2
OBJECTS
  0
DICTIONARY
  5
C
330
0
100
AcDbDictionary
281
     1
  3
ACAD_COLOR
350
73
  3
ACAD_GROUP
350
D
  3
ACAD_IMAGE_VARS
350
DC
  3
ACAD_LAYOUT
350
1A
  3
ACAD_MATERIAL
350
72
  3
ACAD_MLEADERSTYLE
350
B5
  3
ACAD_MLINESTYLE
350
17
  3
ACAD_PLOTSETTINGS
350
19
  3
ACAD_PLOTSTYLENAME
350
E
  3
ACAD_SCALELIST
350
B6
  3
ACAD_TABLESTYLE
350
86
  3
ACAD_VISUALSTYLE
350
99
  3
ACDB_RECOMPOSE_DATA
350
4CE
  3
AcDbVariableDictionary
350
66
  3
APPDATA
350
E1
  0
DICTIONARY
  5
E7
330
2
100
AcDbDictionary
280
     1
281
     1
  3
ACAD_LAYERSTATES
360
E8
  3
ACLYDICTIONARY
360
465
  0
DICTIONARY
  5
3FA
330
282
100
AcDbDictionary
280
     1
281
     1
  3
ADSK_XREC_VTRVIEWINFO
360
3FB
  0
DICTIONARY
  5
73
102
{ACAD_REACTORS
330
C
102
}
330
C
100
AcDbDictionary
281
     1
  0
DICTIONARY
  5
D
102
{ACAD_REACTORS
330
C
102
}
330
C
100
AcDbDictionary
281
     1
  0
RASTERVARIABLES
  5
DC
102
{ACAD_REACTORS
330
C
102
}
330
C
100
AcDbRasterVariables
 90
        0
 70
     1
 71
     1
 72
     5
  0
DICTIONARY
  5
1A
102
{ACAD_REACTORS
330
C
102
}
330
C
100
AcDbDictionary
281
     1
  3
Model
350
22
  3
Sheet1
350
59
  3
Sheet2
350
5E
  0
DICTIONARY
  5
72
102
{ACAD_REACTORS
330
C
102
}
330
C
100
AcDbDictionary
281
     1
  3
ByBlock
350
E2
  3
ByLayer
350
96
  3
Global
350
98
  0
DICTIONARY
  5
B5
102
{ACAD_REACTORS
330
C
102
}
330
C
100
AcDbDictionary
281
     1
  0
DICTIONARY
  5
17
102
{ACAD_REACTORS
330
C
102
}
330
C
100
AcDbDictionary
281
     1
  3
Standard
350
18
  0
DICTIONARY
  5
19
102
{ACAD_REACTORS
330
C
102
}
330
C
100
AcDbDictionary
281
     1
  0
ACDBDICTIONARYWDFLT
  5
E
102
{ACAD_REACTORS
330
C
102
}
330
C
100
AcDbDictionary
281
     1
  3
Normal
350
F
100
AcDbDictionaryWithDefault
340
F
  0
DICTIONARY
  5
B6
102
{ACAD_REACTORS
330
C
102
}
330
C
100
AcDbDictionary
281
     1
  3
A0
350
B7
  3
A1
350
B8
  3
A2
350
B9
  3
A3
350
BA
  3
A4
350
BB
  3
A5
350
BC
  3
A6
350
BD
  3
A7
350
BE
  3
A8
350
BF
  3
A9
350
C0
  3
B0
350
C1
  3
B1
350
C2
  3
B2
350
C3
  3
B3
350
C4
  3
B4
350
C5
  3
B5
350
C6
  3
B6
350
C7
  3
B7
350
C8
  3
B8
350
C9
  3
B9
350
CA
  3
C0
350
CB
  3
C1
350
CC
  3
C2
350
CD
  3
C3
350
CE
  3
C4
350
CF
  3
C5
350
D0
  3
C6
350
D1
  3
C7
350
D2
  3
C8
350
D3
  3
C9
350
D4
  3
D0
350
D5
  3
D1
350
D6
  3
D2
350
D7
  0
DICTIONARY
  5
86
102
{ACAD_REACTORS
330
C
102
}
330
C
100
AcDbDictionary
281
     1
  3
Standard
350
87
  0
DICTIONARY
  5
99
102
{ACAD_REACTORS
330
C
102
}
330
C
100
AcDbDictionary
281
     1
  3
2dWireframe
350
9F
  3
3D Hidden
350
A1
  3
3dWireframe
350
A0
  3
Basic
350
9E
  3
Brighten
350
A5
  3
ColorChange
350
A9
  3
Conceptual
350
A2
  3
Dim
350
A4
  3
Facepattern
350
A8
  3
Flat
350
9A
  3
FlatWithEdges
350
9B
  3
Gouraud
350
9C
  3
GouraudWithEdges
350
9D
  3
Linepattern
350
A7
  3
Realistic
350
A3
  3
Thicken
350
A6
  0
XRECORD
  5
4CE
102
{ACAD_REACTORS
330
C
102
}
330
C
100
AcDbXrecord
280
     1
 90
        1
330
87
  0
DICTIONARY
  5
66
102
{ACAD_REACTORS
330
C
102
}
330
C
100
AcDbDictionary
281
     1
  3
CANNOSCALE
350
D8
  3
CTABLESTYLE
350
89
  3
DIMASSOC
350
67
  3
HIDETEXT
350
6B
  3
LIGHTSINBLOCKS
350
DF
  3
XCLIPFRAME
350
E0
  0
DICTIONARY
  5
E1
102
{ACAD_REACTORS
330
C
102
}
330
C
100
AcDbDictionary
281
     1
  0
DICTIONARY
  5
E8
102
{ACAD_REACTORS
330
E7
102
}
330
E7
100
AcDbDictionary
281
     1
  3
ARGON_LAYERP_1
350
E9
  3
ARGON_LAYERP_2
350
120
  3
ARGON_LAYERP_3
350
184
  3
ARGON_LAYERP_4
350
187
  3
ARGON_LAYERP_5
350
18A
  3
ARGON_LAYERP_6
350
18D
  3
ARGON_LAYERP_7
350
192
  3
ARGON_LAYERP_8
350
3F3
  3
ARGON_LAYERP_9
350
463
  0
DICTIONARY
  5
465
102
{ACAD_REACTORS
330
E7
102
}
330
E7
100
AcDbDictionary
281
     1
1001
ACAD
1000
<All
  0
XRECORD
  5
3FB
102
{ACAD_REACTORS
330
3FA
102
}
330
3FA
100
AcDbXrecord
280
     1
300

292
     0
293
     0
294
     0
  0
LAYOUT
  5
22
102
{ACAD_REACTORS
330
1A
102
}
330
1A
100
AcDbPlotSettings
  1

  2
none_device
  4
ANSI_A_(8.50_x_11.00_Inches)
  6

 40
6.35
 41
19.05
 42
6.35
 43
19.05
 44
215.9
 45
279.4
 46
11.11250000000003
 47
0.0000000000000142
 48
0.0
 49
0.0
140
0.0
141
0.0
142
1.0
143
1.263157894736842
 70
 11444
 72
     0
 73
     1
 74
     1
  7
monochrome.ctb
 75
     0
 76
     0
 77
     2
 78
   300
147
0.7916666666666665
148
-702.8076765758875
149
-496.2830551296954
100
AcDbLayout
  1
Model
 70
     1
 71
     0
 10
0.0
 20
0.0
 11
12.0
 21
9.0
 12
0.0
 22
0.0
 32
0.0
 14
0.0
 24
0.0
 34
0.0
 15
610.0
 25
1220.0
 35
0.0
146
0.0
 13
0.0
 23
0.0
 33
0.0
 16
1.0
 26
0.0
 36
0.0
 17
0.0
 27
1.0
 37
0.0
 76
     0
330
1F
331
94
  0
LAYOUT
  5
59
102
{ACAD_REACTORS
330
1A
102
}
330
1A
100
AcDbPlotSettings
  1

  2
None
  4

  6

 40
0.0
 41
0.0
 42
0.0
 43
0.0
 44
0.0
 45
0.0
 46
0.0
 47
0.0
 48
0.0
 49
0.0
140
0.0
141
0.0
142
1.0
143
1.0
 70
   688
 72
     0
 73
     0
 74
     5
  7

 75
    16
 76
     0
 77
     2
 78
   300
147
1.0
148
0.0
149
0.0
100
AcDbLayout
  1
Sheet1
 70
     1
 71
     1
 10
0.0
 20
0.0
 11
12.0
 21
9.0
 12
0.0
 22
0.0
 32
0.0
 14
0.0
 24
0.0
 34
0.0
 15
0.0
 25
0.0
 35
0.0
146
0.0
 13
0.0
 23
0.0
 33
0.0
 16
1.0
 26
0.0
 36
0.0
 17
0.0
 27
1.0
 37
0.0
 76
     0
330
58
  0
LAYOUT
  5
5E
102
{ACAD_REACTORS
330
1A
102
}
330
1A
100
AcDbPlotSettings
  1

  2
None
  4

  6

 40
0.0
 41
0.0
 42
0.0
 43
0.0
 44
0.0
 45
0.0
 46
0.0
 47
0.0
 48
0.0
 49
0.0
140
0.0
141
0.0
142
1.0
143
1.0
 70
   688
 72
     0
 73
     0
 74
     5
  7

 75
    16
 76
     0
 77
     2
 78
   300
147
1.0
148
0.0
149
0.0
100
AcDbLayout
  1
Sheet2
 70
     1
 71
     2
 10
0.0
 20
0.0
 11
12.0
 21
9.0
 12
0.0
 22
0.0
 32
0.0
 14
0.0
 24
0.0
 34
0.0
 15
0.0
 25
0.0
 35
0.0
146
0.0
 13
0.0
 23
0.0
 33
0.0
 16
1.0
 26
0.0
 36
0.0
 17
0.0
 27
1.0
 37
0.0
 76
     0
330
5D
  0
MATERIAL
  5
E2
102
{ACAD_REACTORS
330
72
102
}
330
72
100
AcDbMaterial
  1
ByBlock
 72
     1
 94
      127
  0
MATERIAL
  5
96
102
{ACAD_REACTORS
330
72
102
}
330
72
100
AcDbMaterial
  1
ByLayer
 72
     1
 94
       63
  0
MATERIAL
  5
98
102
{ACAD_REACTORS
330
72
102
}
330
72
100
AcDbMaterial
  1
Global
 72
     1
 94
       63
  0
MLINESTYLE
  5
18
102
{ACAD_REACTORS
330
17
102
}
330
17
100
AcDbMlineStyle
  2
STANDARD
 70
     0
  3

 62
   256
 51
90.0
 52
90.0
 71
     2
 49
0.5
 62
   256
  6
BYLAYER
 49
-0.5
 62
   256
  6
BYLAYER
  0
ACDBPLACEHOLDER
  5
F
102
{ACAD_REACTORS
330
E
102
}
330
E
  0
SCALE
  5
B7
102
{ACAD_REACTORS
330
B6
102
}
330
B6
100
AcDbScale
 70
     0
300
1:1
140
1.0
141
1.0
290
     1
  0
SCALE
  5
B8
102
{ACAD_REACTORS
330
B6
102
}
330
B6
100
AcDbScale
 70
     0
300
1:2
140
1.0
141
2.0
290
     0
  0
SCALE
  5
B9
102
{ACAD_REACTORS
330
B6
102
}
330
B6
100
AcDbScale
 70
     0
300
1:4
140
1.0
141
4.0
290
     0
  0
SCALE
  5
BA
102
{ACAD_REACTORS
330
B6
102
}
330
B6
100
AcDbScale
 70
     0
300
1:5
140
1.0
141
5.0
290
     0
  0
SCALE
  5
BB
102
{ACAD_REACTORS
330
B6
102
}
330
B6
100
AcDbScale
 70
     0
300
1:8
140
1.0
141
8.0
290
     0
  0
SCALE
  5
BC
102
{ACAD_REACTORS
330
B6
102
}
330
B6
100
AcDbScale
 70
     0
300
1:10
140
1.0
141
10.0
290
     0
  0
SCALE
  5
BD
102
{ACAD_REACTORS
330
B6
102
}
330
B6
100
AcDbScale
 70
     0
300
1:16
140
1.0
141
16.0
290
     0
  0
SCALE
  5
BE
102
{ACAD_REACTORS
330
B6
102
}
330
B6
100
AcDbScale
 70
     0
300
1:20
140
1.0
141
20.0
290
     0
  0
SCALE
  5
BF
102
{ACAD_REACTORS
330
B6
102
}
330
B6
100
AcDbScale
 70
     0
300
1:30
140
1.0
141
30.0
290
     0
  0
SCALE
  5
C0
102
{ACAD_REACTORS
330
B6
102
}
330
B6
100
AcDbScale
 70
     0
300
1:40
140
1.0
141
40.0
290
     0
  0
SCALE
  5
C1
102
{ACAD_REACTORS
330
B6
102
}
330
B6
100
AcDbScale
 70
     0
300
1:50
140
1.0
141
50.0
290
     0
  0
SCALE
  5
C2
102
{ACAD_REACTORS
330
B6
102
}
330
B6
100
AcDbScale
 70
     0
300
1:100
140
1.0
141
100.0
290
     0
  0
SCALE
  5
C3
102
{ACAD_REACTORS
330
B6
102
}
330
B6
100
AcDbScale
 70
     0
300
2:1
140
2.0
141
1.0
290
     0
  0
SCALE
  5
C4
102
{ACAD_REACTORS
330
B6
102
}
330
B6
100
AcDbScale
 70
     0
300
4:1
140
4.0
141
1.0
290
     0
  0
SCALE
  5
C5
102
{ACAD_REACTORS
330
B6
102
}
330
B6
100
AcDbScale
 70
     0
300
8:1
140
8.0
141
1.0
290
     0
  0
SCALE
  5
C6
102
{ACAD_REACTORS
330
B6
102
}
330
B6
100
AcDbScale
 70
     0
300
10:1
140
10.0
141
1.0
290
     0
  0
SCALE
  5
C7
102
{ACAD_REACTORS
330
B6
102
}
330
B6
100
AcDbScale
 70
     0
300
100:1
140
100.0
141
1.0
290
     0
  0
SCALE
  5
C8
102
{ACAD_REACTORS
330
B6
102
}
330
B6
100
AcDbScale
 70
     0
300
1/128" = 1'-0"
140
0.0078125
141
12.0
290
     0
  0
SCALE
  5
C9
102
{ACAD_REACTORS
330
B6
102
}
330
B6
100
AcDbScale
 70
     0
300
1/64" = 1'-0"
140
0.015625
141
12.0
290
     0
  0
SCALE
  5
CA
102
{ACAD_REACTORS
330
B6
102
}
330
B6
100
AcDbScale
 70
     0
300
1/32" = 1'-0"
140
0.03125
141
12.0
290
     0
  0
SCALE
  5
CB
102
{ACAD_REACTORS
330
B6
102
}
330
B6
100
AcDbScale
 70
     0
300
1/16" = 1'-0"
140
0.0625
141
12.0
290
     0
  0
SCALE
  5
CC
102
{ACAD_REACTORS
330
B6
102
}
330
B6
100
AcDbScale
 70
     0
300
3/32" = 1'-0"
140
0.09375
141
12.0
290
     0
  0
SCALE
  5
CD
102
{ACAD_REACTORS
330
B6
102
}
330
B6
100
AcDbScale
 70
     0
300
1/8" = 1'-0"
140
0.125
141
12.0
290
     0
  0
SCALE
  5
CE
102
{ACAD_REACTORS
330
B6
102
}
330
B6
100
AcDbScale
 70
     0
300
3/16" = 1'-0"
140
0.1875
141
12.0
290
     0
  0
SCALE
  5
CF
102
{ACAD_REACTORS
330
B6
102
}
330
B6
100
AcDbScale
 70
     0
300
1/4" = 1'-0"
140
0.25
141
12.0
290
     0
  0
SCALE
  5
D0
102
{ACAD_REACTORS
330
B6
102
}
330
B6
100
AcDbScale
 70
     0
300
3/8" = 1'-0"
140
0.375
141
12.0
290
     0
  0
SCALE
  5
D1
102
{ACAD_REACTORS
330
B6
102
}
330
B6
100
AcDbScale
 70
     0
300
1/2" = 1'-0"
140
0.5
141
12.0
290
     0
  0
SCALE
  5
D2
102
{ACAD_REACTORS
330
B6
102
}
330
B6
100
AcDbScale
 70
     0
300
3/4" = 1'-0"
140
0.75
141
12.0
290
     0
  0
SCALE
  5
D3
102
{ACAD_REACTORS
330
B6
102
}
330
B6
100
AcDbScale
 70
     0
300
1" = 1'-0"
140
1.0
141
12.0
290
     0
  0
SCALE
  5
D4
102
{ACAD_REACTORS
330
B6
102
}
330
B6
100
AcDbScale
 70
     0
300
1-1/2" = 1'-0"
140
1.5
141
12.0
290
     0
  0
SCALE
  5
D5
102
{ACAD_REACTORS
330
B6
102
}
330
B6
100
AcDbScale
 70
     0
300
3" = 1'-0"
140
3.0
141
12.0
290
     0
  0
SCALE
  5
D6
102
{ACAD_REACTORS
330
B6
102
}
330
B6
100
AcDbScale
 70
     0
300
6" = 1'-0"
140
6.0
141
12.0
290
     0
  0
SCALE
  5
D7
102
{ACAD_REACTORS
330
B6
102
}
330
B6
100
AcDbScale
 70
     0
300
1'-0" = 1'-0"
140
12.0
141
12.0
290
     0
  0
TABLESTYLE
  5
87
102
{ACAD_REACTORS
330
86
102
}
102
{ACAD_XDICTIONARY
360
4CC
102
}
330
86
100
AcDbTableStyle
  3
Standard
 70
     0
 71
     0
 40
0.06
 41
0.06
280
     0
281
     0
  7
Standard
140
0.18
170
     2
 62
     0
 63
   257
283
     0
 90
      512
 91
        0
  1

274
    -2
284
     1
 64
     0
275
    -2
285
     1
 65
     0
276
    -2
286
     1
 66
     0
277
    -2
287
     1
 67
     0
278
    -2
288
     1
 68
     0
279
    -2
289
     1
 69
     0
  7
Standard
140
0.25
170
     5
 62
     0
 63
   257
283
     0
 90
      512
 91
        0
  1

274
    -2
284
     1
 64
     0
275
    -2
285
     1
 65
     0
276
    -2
286
     1
 66
     0
277
    -2
287
     1
 67
     0
278
    -2
288
     1
 68
     0
279
    -2
289
     1
 69
     0
  7
Standard
140
0.18
170
     5
 62
     0
 63
   257
283
     0
 90
      512
 91
        0
  1

274
    -2
284
     1
 64
     0
275
    -2
285
     1
 65
     0
276
    -2
286
     1
 66
     0
277
    -2
287
     1
 67
     0
278
    -2
288
     1
 68
     0
279
    -2
289
     1
 69
     0
  0
VISUALSTYLE
  5
9F
102
{ACAD_REACTORS
330
99
102
}
330
99
100
AcDbVisualStyle
  2
2dWireframe
 70
     4
177
     2
291
     0
 71
     0
176
     1
 72
     2
176
     1
 73
     1
176
     1
 90
        0
176
     1
 40
-0.6
176
     1
 41
-30.0
176
     1
 62
     5
 63
     7
421
 16777215
176
     1
 74
     1
176
     1
 91
        4
176
     1
 64
     7
176
     1
 65
   257
176
     1
 75
     1
176
     1
175
     1
176
     1
 42
1.0
176
     1
 92
        0
176
     1
 66
   257
176
     1
 43
1.0
176
     1
 76
     1
176
     1
 77
     6
176
     1
 78
     2
176
     1
 67
     7
176
     1
 79
     5
176
     1
170
     0
176
     1
171
     0
176
     1
290
     0
176
     1
 93
        1
176
     1
 44
0.0
176
     1
173
     0
176
     1
  0
VISUALSTYLE
  5
A1
102
{ACAD_REACTORS
330
99
102
}
330
99
100
AcDbVisualStyle
  2
3D Hidden
 70
     6
177
     2
291
     0
 71
     1
176
     1
 72
     2
176
     1
 73
     2
176
     1
 90
        0
176
     1
 40
-0.6
176
     1
 41
-30.0
176
     1
 62
     5
 63
     7
421
 16777215
176
     1
 74
     2
176
     1
 91
        2
176
     1
 64
     7
176
     1
 65
   257
176
     1
 75
     2
176
     1
175
     1
176
     1
 42
40.0
176
     1
 92
        0
176
     1
 66
   257
176
     1
 43
1.0
176
     1
 76
     1
176
     1
 77
     6
176
     1
 78
     2
176
     1
 67
     7
176
     1
 79
     3
176
     1
170
     0
176
     1
171
     0
176
     1
290
     0
176
     1
 93
        1
176
     1
 44
0.0
176
     1
173
     0
176
     1
  0
VISUALSTYLE
  5
A0
102
{ACAD_REACTORS
330
99
102
}
330
99
100
AcDbVisualStyle
  2
3dWireframe
 70
     5
177
     2
291
     0
 71
     0
176
     1
 72
     2
176
     1
 73
     1
176
     1
 90
        0
176
     1
 40
-0.6
176
     1
 41
-30.0
176
     1
 62
     5
 63
     7
421
 16777215
176
     1
 74
     1
176
     1
 91
        4
176
     1
 64
     7
176
     1
 65
   257
176
     1
 75
     1
176
     1
175
     1
176
     1
 42
1.0
176
     1
 92
        0
176
     1
 66
   257
176
     1
 43
1.0
176
     1
 76
     1
176
     1
 77
     6
176
     1
 78
     2
176
     1
 67
     7
176
     1
 79
     5
176
     1
170
     0
176
     1
171
     0
176
     1
290
     0
176
     1
 93
        1
176
     1
 44
0.0
176
     1
173
     0
176
     1
  0
VISUALSTYLE
  5
9E
102
{ACAD_REACTORS
330
99
102
}
330
99
100
AcDbVisualStyle
  2
Basic
 70
     7
177
     2
291
     1
 71
     1
176
     1
 72
     0
176
     1
 73
     1
176
     1
 90
        0
176
     1
 40
-0.6
176
     1
 41
-30.0
176
     1
 62
     5
 63
     7
421
 16777215
176
     1
 74
     0
176
     1
 91
        4
176
     1
 64
     7
176
     1
 65
   257
176
     1
 75
     1
176
     1
175
     1
176
     1
 42
1.0
176
     1
 92
        8
176
     1
 66
     7
176
     1
 43
1.0
176
     1
 76
     1
176
     1
 77
     6
176
     1
 78
     2
176
     1
 67
     7
176
     1
 79
     5
176
     1
170
     0
176
     1
171
     0
176
     1
290
     0
176
     1
 93
        1
176
     1
 44
0.0
176
     1
173
     0
176
     1
  0
VISUALSTYLE
  5
A5
102
{ACAD_REACTORS
330
99
102
}
330
99
100
AcDbVisualStyle
  2
Brighten
 70
    12
177
     2
291
     1
 71
     2
176
     1
 72
     2
176
     1
 73
     1
176
     1
 90
        0
176
     1
 40
-0.6
176
     1
 41
-30.0
176
     1
 62
     5
 63
     7
421
 16777215
176
     1
 74
     1
176
     1
 91
        4
176
     1
 64
     7
176
     1
 65
   257
176
     1
 75
     1
176
     1
175
     1
176
     1
 42
1.0
176
     1
 92
        8
176
     1
 66
     7
176
     1
 43
1.0
176
     1
 76
     1
176
     1
 77
     6
176
     1
 78
     2
176
     1
 67
     7
176
     1
 79
     5
176
     1
170
     0
176
     1
171
     0
176
     1
290
     0
176
     1
 93
        1
176
     1
 44
50.0
176
     1
173
     0
176
     1
  0
VISUALSTYLE
  5
A9
102
{ACAD_REACTORS
330
99
102
}
330
99
100
AcDbVisualStyle
  2
ColorChange
 70
    16
177
     2
291
     1
 71
     2
176
     1
 72
     2
176
     1
 73
     3
176
     1
 90
        0
176
     1
 40
-0.6
176
     1
 41
-30.0
176
     1
 62
     5
 63
     8
421
  8421504
176
     1
 74
     1
176
     1
 91
        4
176
     1
 64
     7
176
     1
 65
   257
176
     1
 75
     1
176
     1
175
     1
176
     1
 42
1.0
176
     1
 92
        8
176
     1
 66
     8
424
  8421504
176
     1
 43
1.0
176
     1
 76
     1
176
     1
 77
     6
176
     1
 78
     2
176
     1
 67
     7
176
     1
 79
     5
176
     1
170
     0
176
     1
171
     0
176
     1
290
     0
176
     1
 93
        1
176
     1
 44
0.0
176
     1
173
     0
176
     1
  0
VISUALSTYLE
  5
A2
102
{ACAD_REACTORS
330
99
102
}
330
99
100
AcDbVisualStyle
  2
Conceptual
 70
     9
177
     2
291
     0
 71
     3
176
     1
 72
     2
176
     1
 73
     1
176
     1
 90
        0
176
     1
 40
-0.6
176
     1
 41
-30.0
176
     1
 62
     5
 63
     7
421
 16777215
176
     1
 74
     2
176
     1
 91
        2
176
     1
 64
     7
176
     1
 65
   257
176
     1
 75
     1
176
     1
175
     1
176
     1
 42
40.0
176
     1
 92
        8
176
     1
 66
     7
176
     1
 43
1.0
176
     1
 76
     1
176
     1
 77
     6
176
     1
 78
     2
176
     1
 67
     7
176
     1
 79
     3
176
     1
170
     0
176
     1
171
     0
176
     1
290
     0
176
     1
 93
        1
176
     1
 44
0.0
176
     1
173
     0
176
     1
  0
VISUALSTYLE
  5
A4
102
{ACAD_REACTORS
330
99
102
}
330
99
100
AcDbVisualStyle
  2
Dim
 70
    11
177
     2
291
     1
 71
     2
176
     1
 72
     2
176
     1
 73
     1
176
     1
 90
        0
176
     1
 40
-0.6
176
     1
 41
-30.0
176
     1
 62
     5
 63
     7
421
 16777215
176
     1
 74
     1
176
     1
 91
        4
176
     1
 64
     7
176
     1
 65
   257
176
     1
 75
     1
176
     1
175
     1
176
     1
 42
1.0
176
     1
 92
        8
176
     1
 66
     7
176
     1
 43
1.0
176
     1
 76
     1
176
     1
 77
     6
176
     1
 78
     2
176
     1
 67
     7
176
     1
 79
     5
176
     1
170
     0
176
     1
171
     0
176
     1
290
     0
176
     1
 93
        1
176
     1
 44
-50.0
176
     1
173
     0
176
     1
  0
VISUALSTYLE
  5
A8
102
{ACAD_REACTORS
330
99
102
}
330
99
100
AcDbVisualStyle
  2
Facepattern
 70
    15
177
     2
291
     1
 71
     2
176
     1
 72
     2
176
     1
 73
     1
176
     1
 90
        0
176
     1
 40
-0.6
176
     1
 41
-30.0
176
     1
 62
     5
 63
     7
421
 16777215
176
     1
 74
     1
176
     1
 91
        4
176
     1
 64
     7
176
     1
 65
   257
176
     1
 75
     1
176
     1
175
     1
176
     1
 42
1.0
176
     1
 92
        8
176
     1
 66
     7
176
     1
 43
1.0
176
     1
 76
     1
176
     1
 77
     6
176
     1
 78
     2
176
     1
 67
     7
176
     1
 79
     5
176
     1
170
     0
176
     1
171
     0
176
     1
290
     0
176
     1
 93
        1
176
     1
 44
0.0
176
     1
173
     0
176
     1
  0
VISUALSTYLE
  5
9A
102
{ACAD_REACTORS
330
99
102
}
330
99
100
AcDbVisualStyle
  2
Flat
 70
     0
177
     2
291
     1
 71
     2
176
     1
 72
     1
176
     1
 73
     1
176
     1
 90
        2
176
     1
 40
-0.6
176
     1
 41
30.0
176
     1
 62
     5
 63
     7
421
 16777215
176
     1
 74
     0
176
     1
 91
        4
176
     1
 64
     7
176
     1
 65
   257
176
     1
 75
     1
176
     1
175
     1
176
     1
 42
1.0
176
     1
 92
        8
176
     1
 66
     7
176
     1
 43
1.0
176
     1
 76
     1
176
     1
 77
     6
176
     1
 78
     2
176
     1
 67
     7
176
     1
 79
     5
176
     1
170
     0
176
     1
171
     0
176
     1
290
     0
176
     1
 93
        1
176
     1
 44
0.0
176
     1
173
     0
176
     1
  0
VISUALSTYLE
  5
9B
102
{ACAD_REACTORS
330
99
102
}
330
99
100
AcDbVisualStyle
  2
FlatWithEdges
 70
     1
177
     2
291
     1
 71
     2
176
     1
 72
     1
176
     1
 73
     1
176
     1
 90
        2
176
     1
 40
-0.6
176
     1
 41
30.0
176
     1
 62
     5
 63
     7
421
 16777215
176
     1
 74
     1
176
     1
 91
        4
176
     1
 64
     7
176
     1
 65
   257
176
     1
 75
     1
176
     1
175
     1
176
     1
 42
1.0
176
     1
 92
        0
176
     1
 66
   257
176
     1
 43
1.0
176
     1
 76
     1
176
     1
 77
     6
176
     1
 78
     2
176
     1
 67
     7
176
     1
 79
     5
176
     1
170
     0
176
     1
171
     0
176
     1
290
     0
176
     1
 93
        1
176
     1
 44
0.0
176
     1
173
     0
176
     1
  0
VISUALSTYLE
  5
9C
102
{ACAD_REACTORS
330
99
102
}
330
99
100
AcDbVisualStyle
  2
Gouraud
 70
     2
177
     2
291
     1
 71
     2
176
     1
 72
     2
176
     1
 73
     1
176
     1
 90
        2
176
     1
 40
-0.6
176
     1
 41
30.0
176
     1
 62
     5
 63
     7
421
 16777215
176
     1
 74
     0
176
     1
 91
        4
176
     1
 64
     7
176
     1
 65
   257
176
     1
 75
     1
176
     1
175
     1
176
     1
 42
1.0
176
     1
 92
        0
176
     1
 66
     7
176
     1
 43
1.0
176
     1
 76
     1
176
     1
 77
     6
176
     1
 78
     2
176
     1
 67
     7
176
     1
 79
     5
176
     1
170
     0
176
     1
171
     0
176
     1
290
     0
176
     1
 93
        1
176
     1
 44
0.0
176
     1
173
     0
176
     1
  0
VISUALSTYLE
  5
9D
102
{ACAD_REACTORS
330
99
102
}
330
99
100
AcDbVisualStyle
  2
GouraudWithEdges
 70
     3
177
     2
291
     1
 71
     2
176
     1
 72
     2
176
     1
 73
     1
176
     1
 90
        2
176
     1
 40
-0.6
176
     1
 41
30.0
176
     1
 62
     5
 63
     7
421
 16777215
176
     1
 74
     1
176
     1
 91
        4
176
     1
 64
     7
176
     1
 65
   257
176
     1
 75
     1
176
     1
175
     1
176
     1
 42
1.0
176
     1
 92
        0
176
     1
 66
   257
176
     1
 43
1.0
176
     1
 76
     1
176
     1
 77
     6
176
     1
 78
     2
176
     1
 67
     7
176
     1
 79
     5
176
     1
170
     0
176
     1
171
     0
176
     1
290
     0
176
     1
 93
        1
176
     1
 44
0.0
176
     1
173
     0
176
     1
  0
VISUALSTYLE
  5
A7
102
{ACAD_REACTORS
330
99
102
}
330
99
100
AcDbVisualStyle
  2
Linepattern
 70
    14
177
     2
291
     1
 71
     2
176
     1
 72
     2
176
     1
 73
     1
176
     1
 90
        0
176
     1
 40
-0.6
176
     1
 41
-30.0
176
     1
 62
     5
 63
     7
421
 16777215
176
     1
 74
     1
176
     1
 91
        4
176
     1
 64
     7
176
     1
 65
   257
176
     1
 75
     7
176
     1
175
     7
176
     1
 42
1.0
176
     1
 92
        8
176
     1
 66
     7
176
     1
 43
1.0
176
     1
 76
     1
176
     1
 77
     6
176
     1
 78
     2
176
     1
 67
     7
176
     1
 79
     5
176
     1
170
     0
176
     1
171
     0
176
     1
290
     0
176
     1
 93
        1
176
     1
 44
0.0
176
     1
173
     0
176
     1
  0
VISUALSTYLE
  5
A3
102
{ACAD_REACTORS
330
99
102
}
330
99
100
AcDbVisualStyle
  2
Realistic
 70
     8
177
     2
291
     0
 71
     2
176
     1
 72
     2
176
     1
 73
     1
176
     1
 90
        0
176
     1
 40
-0.6
176
     1
 41
-30.0
176
     1
 62
     5
 63
     7
421
 16777215
176
     1
 74
     1
176
     1
 91
        0
176
     1
 64
     7
176
     1
 65
   257
176
     1
 75
     1
176
     1
175
     1
176
     1
 42
1.0
176
     1
 92
        8
176
     1
 66
     8
424
  7895160
176
     1
 43
1.0
176
     1
 76
     1
176
     1
 77
     6
176
     1
 78
     2
176
     1
 67
     7
176
     1
 79
     5
176
     1
170
     0
176
     1
171
     0
176
     1
290
     0
176
     1
 93
       13
176
     1
 44
0.0
176
     1
173
     0
176
     1
  0
VISUALSTYLE
  5
A6
102
{ACAD_REACTORS
330
99
102
}
330
99
100
AcDbVisualStyle
  2
Thicken
 70
    13
177
     2
291
     1
 71
     2
176
     1
 72
     2
176
     1
 73
     1
176
     1
 90
        0
176
     1
 40
-0.6
176
     1
 41
-30.0
176
     1
 62
     5
 63
     7
421
 16777215
176
     1
 74
     1
176
     1
 91
        4
176
     1
 64
     7
176
     1
 65
   257
176
     1
 75
     1
176
     1
175
     1
176
     1
 42
1.0
176
     1
 92
       12
176
     1
 66
     7
176
     1
 43
1.0
176
     1
 76
     1
176
     1
 77
     6
176
     1
 78
     2
176
     1
 67
     7
176
     1
 79
     5
176
     1
170
     0
176
     1
171
     0
176
     1
290
     0
176
     1
 93
        1
176
     1
 44
0.0
176
     1
173
     0
176
     1
  0
DICTIONARYVAR
  5
D8
102
{ACAD_REACTORS
330
66
102
}
330
66
100
DictionaryVariables
280
     0
  1
1:1
  0
DICTIONARYVAR
  5
89
102
{ACAD_REACTORS
330
66
102
}
330
66
100
DictionaryVariables
280
     0
  1
Standard
  0
DICTIONARYVAR
  5
67
102
{ACAD_REACTORS
330
66
102
}
330
66
100
DictionaryVariables
280
     0
  1
2
  0
DICTIONARYVAR
  5
6B
102
{ACAD_REACTORS
330
66
102
}
330
66
100
DictionaryVariables
280
     0
  1
1
  0
DICTIONARYVAR
  5
DF
102
{ACAD_REACTORS
330
66
102
}
330
66
100
DictionaryVariables
280
     0
  1
0
  0
DICTIONARYVAR
  5
E0
102
{ACAD_REACTORS
330
66
102
}
330
66
100
DictionaryVariables
280
     0
  1
0
  0
XRECORD
  5
E9
102
{ACAD_REACTORS
330
E8
102
}
330
E8
100
AcDbXrecord
280
     1
 91
     1023
301

290
     0
302
0
330
10
 90
        8
 62
     7
370
    -3
331
16
  1
Color_7
  0
XRECORD
  5
120
102
{ACAD_REACTORS
330
E8
102
}
330
E8
100
AcDbXrecord
280
     1
 91
     1023
301

290
     0
302
0
330
10
 90
        8
 62
     7
370
    -3
331
16
  1
Color_7
330
EA
 90
        8
 62
     2
370
    -3
331
16
  1
Color_2
330
EE
 90
        8
 62
     1
370
    -3
331
16
  1
Color_1
  0
XRECORD
  5
184
102
{ACAD_REACTORS
330
E8
102
}
330
E8
100
AcDbXrecord
280
     1
 91
     1023
301

290
     0
302
0
330
10
 90
        8
 62
     7
370
    -3
331
16
  1
Color_7
330
EA
 90
        8
 62
     2
370
    -3
331
16
  1
Color_2
330
EE
 90
        8
 62
     1
370
    -3
331
16
  1
Color_1
330
121
 90
        8
 62
     5
370
    -3
331
16
  1
Color_5
  0
XRECORD
  5
187
102
{ACAD_REACTORS
330
E8
102
}
330
E8
100
AcDbXrecord
280
     1
 91
     1023
301

290
     0
302
0
330
10
 90
       12
 62
     7
370
    -3
331
16
  1
Color_7
330
EA
 90
       12
 62
     2
370
    -3
331
16
  1
Color_2
330
EE
 90
        8
 62
     1
370
    -3
331
16
  1
Color_1
330
121
 90
       12
 62
     5
370
    -3
331
16
  1
Color_5
  0
XRECORD
  5
18A
102
{ACAD_REACTORS
330
E8
102
}
330
E8
100
AcDbXrecord
280
     1
 91
     1023
301

290
     0
302
0
330
10
 90
        8
 62
     7
370
    -3
331
16
  1
Color_7
330
EA
 90
        8
 62
     2
370
    -3
331
16
  1
Color_2
330
EE
 90
        8
 62
     1
370
    -3
331
16
  1
Color_1
330
121
 90
        8
 62
     5
370
    -3
331
16
  1
Color_5
  0
XRECORD
  5
18D
102
{ACAD_REACTORS
330
E8
102
}
330
E8
100
AcDbXrecord
280
     1
 91
     1023
301

290
     0
302
0
330
10
 90
       12
 62
     7
370
    -3
331
16
  1
Color_7
330
EA
 90
       12
 62
     2
370
    -3
331
16
  1
Color_2
330
EE
 90
        8
 62
     1
370
    -3
331
16
  1
Color_1
330
121
 90
       12
 62
     5
370
    -3
331
16
  1
Color_5
  0
XRECORD
  5
192
102
{ACAD_REACTORS
330
E8
102
}
330
E8
100
AcDbXrecord
280
     1
 91
     1023
301

290
     0
302
0
330
10
 90
       12
 62
     7
370
    -3
331
16
  1
Color_7
330
EA
 90
       12
 62
     2
370
    -3
331
16
  1
Color_2
330
EE
 90
        8
 62
     1
370
    -3
331
16
  1
Color_1
330
121
 90
       12
 62
     5
370
    -3
331
16
  1
Color_5
  0
XRECORD
  5
3F3
102
{ACAD_REACTORS
330
E8
102
}
330
E8
100
AcDbXrecord
280
     1
 91
     1023
301

290
     0
302
0
330
10
 90
        8
 62
     7
370
    -3
331
16
  1
Color_7
330
EA
 90
        8
 62
     2
370
    -3
331
16
  1
Color_2
330
EE
 90
        8
 62
     1
370
    -3
331
16
  1
Color_1
330
121
 90
        8
 62
     5
370
    -3
331
16
  1
Color_5
  0
XRECORD
  5
463
102
{ACAD_REACTORS
330
E8
102
}
330
E8
100
AcDbXrecord
280
     1
 91
     1023
301

290
     0
302
0
330
10
 90
        8
 62
     7
370
    -3
331
16
  1
Color_7
330
EA
 90
        8
 62
     2
370
    -3
331
16
  1
Color_2
330
EE
 90
        8
 62
     1
370
    -3
331
16
  1
Color_1
330
121
 90
        8
 62
     5
370
    -3
331
16
  1
Color_5
  0
DICTIONARY
  5
4CC
330
87
100
AcDbDictionary
280
     1
281
     1
  3
ACAD_ROUNDTRIP_2008_TABLESTYLE_CELLSTYLEMAP
360
4CD
  0
CELLSTYLEMAP
  5
4CD
102
{ACAD_REACTORS
330
4CC
102
}
330
4CC
100
AcDbCellStyleMap
 90
        3
300
CELLSTYLE
  1
TABLEFORMAT_BEGIN
 90
        5
170
     1
 91
        0
 92
    32768
 62
   257
 93
        1
300
CONTENTFORMAT
  1
CONTENTFORMAT_BEGIN
 90
        0
 91
        0
 92
      512
 93
        0
300

 40
0.0
140
1.0
 94
        5
 62
     0
340
11
144
0.25
309
CONTENTFORMAT_END
171
     0
 94
        6
 95
        1
302
GRIDFORMAT
  1
GRIDFORMAT_BEGIN
 90
        0
 91
        1
 62
     0
 92
       -2
340
0
 93
        0
 40
0.045
309
GRIDFORMAT_END
 95
        2
302
GRIDFORMAT
  1
GRIDFORMAT_BEGIN
 90
        0
 91
        1
 62
     0
 92
       -2
340
0
 93
        0
 40
0.045
309
GRIDFORMAT_END
 95
        4
302
GRIDFORMAT
  1
GRIDFORMAT_BEGIN
 90
        0
 91
        1
 62
     0
 92
       -2
340
0
 93
        0
 40
0.045
309
GRIDFORMAT_END
 95
        8
302
GRIDFORMAT
  1
GRIDFORMAT_BEGIN
 90
        0
 91
        1
 62
     0
 92
       -2
340
0
 93
        0
 40
0.045
309
GRIDFORMAT_END
 95
       16
302
GRIDFORMAT
  1
GRIDFORMAT_BEGIN
 90
        0
 91
        1
 62
     0
 92
       -2
340
0
 93
        0
 40
0.045
309
GRIDFORMAT_END
 95
       32
302
GRIDFORMAT
  1
GRIDFORMAT_BEGIN
 90
        0
 91
        1
 62
     0
 92
       -2
340
0
 93
        0
 40
0.045
309
GRIDFORMAT_END
309
TABLEFORMAT_END
  1
CELLSTYLE_BEGIN
 90
        1
 91
        1
300
_TITLE
309
CELLSTYLE_END
300
CELLSTYLE
  1
TABLEFORMAT_BEGIN
 90
        5
170
     1
 91
        0
 92
        0
 62
   257
 93
        1
300
CONTENTFORMAT
  1
CONTENTFORMAT_BEGIN
 90
        0
 91
        0
 92
      512
 93
        0
300

 40
0.0
140
1.0
 94
        5
 62
     0
340
11
144
0.18
309
CONTENTFORMAT_END
171
     0
 94
        6
 95
        1
302
GRIDFORMAT
  1
GRIDFORMAT_BEGIN
 90
        0
 91
        1
 62
     0
 92
       -2
340
0
 93
        0
 40
0.045
309
GRIDFORMAT_END
 95
        2
302
GRIDFORMAT
  1
GRIDFORMAT_BEGIN
 90
        0
 91
        1
 62
     0
 92
       -2
340
0
 93
        0
 40
0.045
309
GRIDFORMAT_END
 95
        4
302
GRIDFORMAT
  1
GRIDFORMAT_BEGIN
 90
        0
 91
        1
 62
     0
 92
       -2
340
0
 93
        0
 40
0.045
309
GRIDFORMAT_END
 95
        8
302
GRIDFORMAT
  1
GRIDFORMAT_BEGIN
 90
        0
 91
        1
 62
     0
 92
       -2
340
0
 93
        0
 40
0.045
309
GRIDFORMAT_END
 95
       16
302
GRIDFORMAT
  1
GRIDFORMAT_BEGIN
 90
        0
 91
        1
 62
     0
 92
       -2
340
0
 93
        0
 40
0.045
309
GRIDFORMAT_END
 95
       32
302
GRIDFORMAT
  1
GRIDFORMAT_BEGIN
 90
        0
 91
        1
 62
     0
 92
       -2
340
0
 93
        0
 40
0.045
309
GRIDFORMAT_END
309
TABLEFORMAT_END
  1
CELLSTYLE_BEGIN
 90
        2
 91
        1
300
_HEADER
309
CELLSTYLE_END
300
CELLSTYLE
  1
TABLEFORMAT_BEGIN
 90
        5
170
     1
 91
        0
 92
        0
 62
   257
 93
        1
300
CONTENTFORMAT
  1
CONTENTFORMAT_BEGIN
 90
        0
 91
        0
 92
      512
 93
        0
300

 40
0.0
140
1.0
 94
        2
 62
     0
340
11
144
0.18
309
CONTENTFORMAT_END
171
     0
 94
        6
 95
        1
302
GRIDFORMAT
  1
GRIDFORMAT_BEGIN
 90
        0
 91
        1
 62
     0
 92
       -2
340
0
 93
        0
 40
0.045
309
GRIDFORMAT_END
 95
        2
302
GRIDFORMAT
  1
GRIDFORMAT_BEGIN
 90
        0
 91
        1
 62
     0
 92
       -2
340
0
 93
        0
 40
0.045
309
GRIDFORMAT_END
 95
        4
302
GRIDFORMAT
  1
GRIDFORMAT_BEGIN
 90
        0
 91
        1
 62
     0
 92
       -2
340
0
 93
        0
 40
0.045
309
GRIDFORMAT_END
 95
        8
302
GRIDFORMAT
  1
GRIDFORMAT_BEGIN
 90
        0
 91
        1
 62
     0
 92
       -2
340
0
 93
        0
 40
0.045
309
GRIDFORMAT_END
 95
       16
302
GRIDFORMAT
  1
GRIDFORMAT_BEGIN
 90
        0
 91
        1
 62
     0
 92
       -2
340
0
 93
        0
 40
0.045
309
GRIDFORMAT_END
 95
       32
302
GRIDFORMAT
  1
GRIDFORMAT_BEGIN
 90
        0
 91
        1
 62
     0
 92
       -2
340
0
 93
        0
 40
0.045
309
GRIDFORMAT_END
309
TABLEFORMAT_END
  1
CELLSTYLE_BEGIN
 90
        3
 91
        2
300
_DATA
309
CELLSTYLE_END
  0
ENDSEC
  0
EOF
