0
SECTION
2
HEADER
9
$INSUNITS
70
4
9
$ACADVER
1
AC1014
9
$HANDSEED
5
FFFF
0
ENDSEC
0
SECTION
2
TABLES
0
TABLE
2
VPORT
5
8
100
AcDbSymbolTable
0
ENDTAB
0
TABLE
2
LTYPE
5
5
100
AcDbSymbolTable
0
LTYPE
5
14
100
AcDbSymbolTableRecord
100
AcDbLinetypeTableRecord
2
BYBLOCK
70
0
0
LTYPE
5
15
100
AcDbSymbolTableRecord
100
AcDbLinetypeTableRecord
2
BYLAYER
70
0
0
ENDTAB
0
TABLE
2
LAYER
5
2
100
AcDbSymbolTable
70
2
0
LAYER
5
50
100
AcDbSymbolTableRecord
100
AcDbLayerTableRecord
2
0
70
0
6
CONTINUOUS
0
ENDTAB
0
TABLE
2
STYLE
5
3
100
AcDbSymbolTable
70
1
0
STYLE
5
11
100
AcDbSymbolTableRecord
100
AcDbTextStyleTableRecord
2
STANDARD
70
0
0
ENDTAB
0
TABLE
2
VIEW
5
6
100
AcDbSymbolTable
70
0
0
ENDTAB
0
TABLE
2
UCS
5
7
100
AcDbSymbolTable
70
0
0
ENDTAB
0
TABLE
2
APPID
5
9
100
AcDbSymbolTable
70
2
0
APPID
5
12
100
AcDbSymbolTableRecord
100
AcDbRegAppTableRecord
2
ACAD
70
0
0
ENDTAB
0
TABLE
2
DIMSTYLE
5
A
100
AcDbSymbolTable
70
1
0
ENDTAB
0
TABLE
2
BLOCK_RECORD
5
1
100
AcDbSymbolTable
70
1
0
BLOCK_RECORD
5
1F
100
AcDbSymbolTableRecord
100
AcDbBlockTableRecord
2
*MODEL_SPACE
0
BLOCK_RECORD
5
1B
100
AcDbSymbolTableRecord
100
AcDbBlockTableRecord
2
*PAPER_SPACE
0
ENDTAB
0
ENDSEC
0
SECTION
2
BLOCKS
0
BLOCK
5
20
100
AcDbEntity
100
AcDbBlockBegin
2
*MODEL_SPACE
0
ENDBLK
5
21
100
AcDbEntity
100
AcDbBlockEnd
0
BLOCK
5
1C
100
AcDbEntity
100
AcDbBlockBegin
2
*PAPER_SPACE
0
ENDBLK
5
1D
100
AcDbEntity
100
AcDbBlockEnd
0
ENDSEC
0
SECTION
2
ENTITIES
0
CIRCLE
5
100
100
AcDbEntity
8
0
100
AcDbCircle
10
50.00000074505806
20
60
30
0
40
10
0
CIRCLE
5
101
100
AcDbEntity
8
0
100
AcDbCircle
10
50.000000745058124
20
63
30
0
40
1.5000000000000002
0
CIRCLE
5
102
100
AcDbEntity
8
0
100
AcDbCircle
10
50.00000074505806
20
57
30
0
40
1.4999999999999987
0
CIRCLE
5
103
100
AcDbEntity
8
0
100
AcDbCircle
10
73.000000745058131
20
63
30
0
40
1.5000000000000002
0
CIRCLE
5
104
100
AcDbEntity
8
0
100
AcDbCircle
10
73.00000074505806
20
60
30
0
40
10
0
CIRCLE
5
105
100
AcDbEntity
8
0
100
AcDbCircle
10
73.00000074505806
20
57
30
0
40
1.4999999999999987
0
CIRCLE
5
106
100
AcDbEntity
8
0
100
AcDbCircle
10
96.000000745058145
20
63
30
0
40
1.5000000000000002
0
CIRCLE
5
107
100
AcDbEntity
8
0
100
AcDbCircle
10
96.000000745058074
20
60
30
0
40
10
0
CIRCLE
5
108
100
AcDbEntity
8
0
100
AcDbCircle
10
96.000000745058074
20
57
30
0
40
1.4999999999999987
0
CIRCLE
5
109
100
AcDbEntity
8
0
100
AcDbCircle
10
50.000000745058124
20
86.000000000000014
30
0
40
1.5000000000000002
0
CIRCLE
5
110
100
AcDbEntity
8
0
100
AcDbCircle
10
50.00000074505806
20
83
30
0
40
10
0
CIRCLE
5
111
100
AcDbEntity
8
0
100
AcDbCircle
10
50.00000074505806
20
80
30
0
40
1.4999999999999987
0
CIRCLE
5
112
100
AcDbEntity
8
0
100
AcDbCircle
10
73.000000745058131
20
86.000000000000014
30
0
40
1.5000000000000002
0
CIRCLE
5
113
100
AcDbEntity
8
0
100
AcDbCircle
10
73.00000074505806
20
83
30
0
40
10
0
CIRCLE
5
114
100
AcDbEntity
8
0
100
AcDbCircle
10
73.00000074505806
20
80
30
0
40
1.4999999999999987
0
CIRCLE
5
115
100
AcDbEntity
8
0
100
AcDbCircle
10
96.000000745058145
20
86.000000000000014
30
0
40
1.5000000000000002
0
CIRCLE
5
116
100
AcDbEntity
8
0
100
AcDbCircle
10
96.000000745058074
20
83
30
0
40
10
0
CIRCLE
5
117
100
AcDbEntity
8
0
100
AcDbCircle
10
96.000000745058074
20
80
30
0
40
1.4999999999999987
0
LWPOLYLINE
5
118
100
AcDbEntity
8
0
100
AcDbPolyline
90
4
70
1
43
0.0
10
115
20
103.08452457178504
10
30
20
103.08452457178504
10
30
20
40
10
115
20
40
0
LWPOLYLINE
5
119
100
AcDbEntity
8
0
100
AcDbPolyline
90
8
70
1
43
0.0
10
105
20
96.459554924927858
10
41.620249836258694
20
96.459554924927858
42
0.41421356237309553
10
36.620249836258694
20
91.459554924927858
10
36.620249836258701
20
50
42
0.41421356237309509
10
41.620249836258694
20
45
10
105
20
45
42
0.41421356237309342
10
110
20
50
10
110
20
91.459554924927858
42
0.41421356237309509
0
LWPOLYLINE
5
120
100
AcDbEntity
8
0
100
AcDbPolyline
90
4
70
1
43
0.0
10
120
20
103.08452457178504
10
120
20
40
10
205
20
40
10
205
20
103.08452457178504
0
LWPOLYLINE
5
121
100
AcDbEntity
8
0
100
AcDbPolyline
90
8
70
1
43
0.0
10
131.62024983625869
20
45
10
195
20
45
42
0.41421356237309448
10
200
20
50
10
200
20
91.459554924927858
42
0.41421356237309509
10
195
20
96.459554924927858
10
131.62024983625869
20
96.459554924927858
42
0.41421356237309509
10
126.62024983625869
20
91.459554924927858
10
126.62024983625869
20
50
42
0.41421356237309509
0
LWPOLYLINE
5
122
100
AcDbEntity
8
0
100
AcDbPolyline
90
4
70
1
43
0.0
10
30
20
173.08452457178504
10
30
20
110
10
115
20
110
10
115
20
173.08452457178504
0
LWPOLYLINE
5
123
100
AcDbEntity
8
0
100
AcDbPolyline
90
4
70
1
43
0.0
10
120
20
173.08452457178504
10
120
20
110
10
205
20
110
10
205
20
173.08452457178504
0
LWPOLYLINE
5
124
100
AcDbEntity
8
0
100
AcDbPolyline
90
8
70
1
43
0.0
10
131.62024983625869
20
115
10
195
20
115
42
0.41421356237309509
10
200
20
120
10
200
20
161.45955492492786
42
0.41421356237309509
10
195
20
166.45955492492786
10
131.62024983625869
20
166.45955492492786
42
0.41421356237309509
10
126.62024983625869
20
161.45955492492786
10
126.62024983625869
20
120
42
0.41421356237309509
0
ENDSEC
0
SECTION
2
OBJECTS
0
DICTIONARY
5
C
100
AcDbDictionary
3
ACAD_GROUP
350
D
3
ACAD_MLINESTYLE
350
17
0
DICTIONARY
5
D
100
AcDbDictionary
0
DICTIONARY
5
1A
330
C
100
AcDbDictionary
0
DICTIONARY
5
17
100
AcDbDictionary
0
ENDSEC
0
EOF
