  0
SECTION
  2
HEADER
  9
$ACADVER
  1
AC1014
  9
$HANDSEED
  5
FFFF
  9
$MEASUREMENT
 70
     1
  0
ENDSEC
  0
SECTION
  2
TABLES
  0
TABLE
  2
VPORT
  5
8
330
0
100
AcDbSymbolTable
 70
     4
  0
VPORT
  5
2E
330
8
100
AcDbSymbolTableRecord
100
AcDbViewportTableRecord
  2
*ACTIVE
 70
     0
 10
0.0
 20
0.0
 11
1.0
 21
1.0
 12
210.0
 22
148.5
 13
0.0
 23
0.0
 14
10.0
 24
10.0
 15
10.0
 25
10.0
 16
0.0
 26
0.0
 36
1.0
 17
0.0
 27
0.0
 37
0.0
 40
341.0
 41
1.24
 42
50.0
 43
0.0
 44
0.0
 50
0.0
 51
0.0
 71
     0
 72
   100
 73
     1
 74
     3
 75
     0
 76
     0
 77
     0
 78
     0
  0
ENDTAB
  0
TABLE
  2
LTYPE
  5
5
330
0
100
AcDbSymbolTable
 70
     1
  0
LTYPE
  5
14
330
5
100
AcDbSymbolTableRecord
100
AcDbLinetypeTableRecord
  2
BYBLOCK
 70
     0
  3

 72
    65
 73
     0
 40
0.0
  0
LTYPE
  5
15
330
5
100
AcDbSymbolTableRecord
100
AcDbLinetypeTableRecord
  2
BYLAYER
 70
     0
  3

 72
    65
 73
     0
 40
0.0
  0
LTYPE
  5
16
330
5
100
AcDbSymbolTableRecord
100
AcDbLinetypeTableRecord
  2
CONTINUOUS
 70
     0
  3
Solid line
 72
    65
 73
     0
 40
0.0
  0
ENDTAB
  0
TABLE
  2
LAYER
  5
2
100
AcDbSymbolTable
 70
1
  0
LAYER
  5
50
100
AcDbSymbolTableRecord
100
AcDbLayerTableRecord
  2
0
 70
0
  6
CONTINUOUS
  0
ENDTAB
  0
TABLE
  2
STYLE
  5
3
330
0
100
AcDbSymbolTable
 70
     1
  0
STYLE
  5
11
330
3
100
AcDbSymbolTableRecord
100
AcDbTextStyleTableRecord
  2
STANDARD
 70
     0
 40
0.0
 41
1.0
 50
0.0
 71
     0
 42
2.5
  3
txt
  4

  0
ENDTAB
  0
TABLE
  2
VIEW
  5
6
330
0
100
AcDbSymbolTable
 70
     0
  0
ENDTAB
  0
TABLE
  2
UCS
  5
7
330
0
100
AcDbSymbolTable
 70
     0
  0
ENDTAB
  0
TABLE
  2
APPID
  5
9
330
0
100
AcDbSymbolTable
 70
     2
  0
APPID
  5
12
330
9
100
AcDbSymbolTableRecord
100
AcDbRegAppTableRecord
  2
ACAD
 70
     0
  0
ENDTAB
  0
TABLE
  2
DIMSTYLE
  5
A
330
0
100
AcDbSymbolTable
 70
     1
  0
DIMSTYLE
105
27
330
A
100
AcDbSymbolTableRecord
100
AcDbDimStyleTableRecord
  2
ISO-25
 70
     0
  3

  4

  5

  6

  7

 40
1.0
 41
2.5
 42
0.625
 43
3.75
 44
1.25
 45
0.0
 46
0.0
 47
0.0
 48
0.0
140
2.5
141
2.5
142
0.0
143
0.03937007874016
144
1.0
145
0.0
146
1.0
147
0.625
 71
     0
 72
     0
 73
     0
 74
     0
 75
     0
 76
     0
 77
     1
 78
     8
170
     0
171
     3
172
     1
173
     0
174
     0
175
     0
176
     0
177
     0
178
     0
270
     2
271
     2
272
     2
273
     2
274
     3
340
11
275
     0
280
     0
281
     0
282
     0
283
     0
284
     8
285
     0
286
     0
287
     3
288
     0
  0
ENDTAB
  0
TABLE
  2
BLOCK_RECORD
  5
1
330
0
100
AcDbSymbolTable
 70
     1
  0
BLOCK_RECORD
  5
1F
330
1
100
AcDbSymbolTableRecord
100
AcDbBlockTableRecord
  2
*MODEL_SPACE
  0
BLOCK_RECORD
  5
1B
330
1
100
AcDbSymbolTableRecord
100
AcDbBlockTableRecord
  2
*PAPER_SPACE
  0
ENDTAB
  0
ENDSEC
  0
SECTION
  2
BLOCKS
  0
BLOCK
  5
20
330
1F
100
AcDbEntity
  8
0
100
AcDbBlockBegin
  2
*MODEL_SPACE
 70
     0
 10
0.0
 20
0.0
 30
0.0
  3
*MODEL_SPACE
  1

  0
ENDBLK
  5
21
330
1F
100
AcDbEntity
  8
0
100
AcDbBlockEnd
  0
BLOCK
  5
1C
330
1B
100
AcDbEntity
 67
     1
  8
0
100
AcDbBlockBegin
  2
*PAPER_SPACE
  1

  0
ENDBLK
  5
1D
330
1B
100
AcDbEntity
 67
     1
  8
0
100
AcDbBlockEnd
  0
ENDSEC
  0
SECTION
  2
ENTITIES
  0
LWPOLYLINE
  5
100
100
AcDbEntity
  8
0
 62
7
100
AcDbPolyline
 90
45
 70
1
 10
18.000014
 20
584.929087
 30
0.0
 10
52.015790
 20
584.929087
 30
0.0
 10
52.015790
 20
576.425143
 30
0.0
 10
86.031566
 20
576.425143
 30
0.0
 10
86.031566
 20
584.929087
 30
0.0
 10
108.708750
 20
584.929087
 30
0.0
 10
108.708750
 20
576.425143
 30
0.0
 10
131.385934
 20
576.425143
 30
0.0
 10
131.385934
 20
584.929087
 30
0.0
 10
154.063118
 20
584.929087
 30
0.0
 10
154.063118
 20
576.425143
 30
0.0
 10
176.740302
 20
576.425143
 30
0.0
 10
176.740302
 20
584.929087
 30
0.0
 10
199.417486
 20
584.929087
 30
0.0
 10
199.417486
 20
576.425143
 30
0.0
 10
222.094670
 20
576.425143
 30
0.0
 10
222.094670
 20
584.929087
 30
0.0
 10
244.771854
 20
584.929087
 30
0.0
 10
244.771854
 20
576.425143
 30
0.0
 10
267.449038
 20
576.425143
 30
0.0
 10
267.449038
 20
584.929087
 30
0.0
 10
290.126222
 20
584.929087
 30
0.0
 10
290.126222
 20
576.425143
 30
0.0
 10
324.141998
 20
576.425143
 30
0.0
 10
324.141998
 20
584.929087
 30
0.0
 10
358.157774
 20
584.929087
 30
0.0
 10
358.157774
 20
555.165283
 30
0.0
 10
349.653830
 20
555.165283
 30
0.0
 10
349.653830
 20
525.401479
 30
0.0
 10
358.157774
 20
525.401479
 30
0.0
 10
358.157774
 20
502.724295
 30
0.0
 10
349.653830
 20
502.724295
 30
0.0
 10
349.653830
 20
472.960495
 30
0.0
 10
358.157774
 20
472.960495
 30
0.0
 10
358.157774
 20
443.196687
 30
0.0
 10
18.000014
 20
443.196687
 30
0.0
 10
18.000014
 20
472.960495
 30
0.0
 10
26.503958
 20
472.960495
 30
0.0
 10
26.503958
 20
502.724295
 30
0.0
 10
18.000014
 20
502.724295
 30
0.0
 10
18.000014
 20
525.401479
 30
0.0
 10
26.503958
 20
525.401479
 30
0.0
 10
26.503958
 20
555.165283
 30
0.0
 10
18.000014
 20
555.165283
 30
0.0
 10
18.000014
 20
584.929087
 30
0.0
  0
LWPOLYLINE
  5
101
100
AcDbEntity
  8
0
 62
7
100
AcDbPolyline
 90
45
 70
1
 10
358.157776
 20
584.929087
 30
0.0
 10
392.173552
 20
584.929087
 30
0.0
 10
392.173552
 20
576.425143
 30
0.0
 10
426.189328
 20
576.425143
 30
0.0
 10
426.189328
 20
584.929087
 30
0.0
 10
448.866512
 20
584.929087
 30
0.0
 10
448.866512
 20
576.425143
 30
0.0
 10
471.543696
 20
576.425143
 30
0.0
 10
471.543696
 20
584.929087
 30
0.0
 10
494.220880
 20
584.929087
 30
0.0
 10
494.220880
 20
576.425143
 30
0.0
 10
516.898064
 20
576.425143
 30
0.0
 10
516.898064
 20
584.929087
 30
0.0
 10
539.575248
 20
584.929087
 30
0.0
 10
539.575248
 20
576.425143
 30
0.0
 10
562.252432
 20
576.425143
 30
0.0
 10
562.252432
 20
584.929087
 30
0.0
 10
584.929616
 20
584.929087
 30
0.0
 10
584.929616
 20
576.425143
 30
0.0
 10
607.606800
 20
576.425143
 30
0.0
 10
607.606800
 20
584.929087
 30
0.0
 10
630.283984
 20
584.929087
 30
0.0
 10
630.283984
 20
576.425143
 30
0.0
 10
664.299760
 20
576.425143
 30
0.0
 10
664.299760
 20
584.929087
 30
0.0
 10
698.315536
 20
584.929087
 30
0.0
 10
698.315536
 20
555.165283
 30
0.0
 10
689.811592
 20
555.165283
 30
0.0
 10
689.811592
 20
525.401479
 30
0.0
 10
698.315536
 20
525.401479
 30
0.0
 10
698.315536
 20
502.724295
 30
0.0
 10
689.811592
 20
502.724295
 30
0.0
 10
689.811592
 20
472.960495
 30
0.0
 10
698.315536
 20
472.960495
 30
0.0
 10
698.315536
 20
443.196687
 30
0.0
 10
358.157776
 20
443.196687
 30
0.0
 10
358.157776
 20
472.960495
 30
0.0
 10
366.661720
 20
472.960495
 30
0.0
 10
366.661720
 20
502.724295
 30
0.0
 10
358.157776
 20
502.724295
 30
0.0
 10
358.157776
 20
525.401479
 30
0.0
 10
366.661720
 20
525.401479
 30
0.0
 10
366.661720
 20
555.165283
 30
0.0
 10
358.157776
 20
555.165283
 30
0.0
 10
358.157776
 20
584.929087
 30
0.0
  0
LWPOLYLINE
  5
102
100
AcDbEntity
  8
0
 62
7
100
AcDbPolyline
 90
53
 70
1
 10
513.485024
 20
23.951736
 30
0.0
 10
513.485024
 20
48.046244
 30
0.0
 10
521.988968
 20
48.046244
 30
0.0
 10
521.988968
 20
80.644696
 30
0.0
 10
513.485024
 20
80.644696
 30
0.0
 10
513.485024
 20
103.321880
 30
0.0
 10
521.988968
 20
103.321880
 30
0.0
 10
521.988968
 20
125.999064
 30
0.0
 10
513.485024
 20
125.999064
 30
0.0
 10
513.485024
 20
148.676248
 30
0.0
 10
521.988968
 20
148.676248
 30
0.0
 10
521.988968
 20
171.353432
 30
0.0
 10
513.485024
 20
171.353432
 30
0.0
 10
513.485024
 20
194.030616
 30
0.0
 10
521.988968
 20
194.030616
 30
0.0
 10
521.988968
 20
216.707800
 30
0.0
 10
513.485024
 20
216.707800
 30
0.0
 10
513.485024
 20
239.384984
 30
0.0
 10
521.988968
 20
239.384984
 30
0.0
 10
521.988968
 20
262.062168
 30
0.0
 10
513.485024
 20
262.062168
 30
0.0
 10
513.485024
 20
284.739352
 30
0.0
 10
521.988968
 20
284.739352
 30
0.0
 10
521.988968
 20
307.416536
 30
0.0
 10
513.485024
 20
307.416536
 30
0.0
 10
513.485024
 20
330.093720
 30
0.0
 10
521.988968
 20
330.093720
 30
0.0
 10
521.988968
 20
352.770904
 30
0.0
 10
513.485024
 20
352.770904
 30
0.0
 10
513.485024
 20
375.448088
 30
0.0
 10
521.988968
 20
375.448088
 30
0.0
 10
521.988968
 20
408.046536
 30
0.0
 10
513.485024
 20
408.046536
 30
0.0
 10
513.485024
 20
432.141048
 30
0.0
 10
543.248828
 20
432.141048
 30
0.0
 10
543.248828
 20
440.644992
 30
0.0
 10
573.012632
 20
440.644992
 30
0.0
 10
573.012632
 20
432.141048
 30
0.0
 10
595.689816
 20
432.141048
 30
0.0
 10
595.689816
 20
440.644992
 30
0.0
 10
625.453616
 20
440.644992
 30
0.0
 10
625.453616
 20
432.141048
 30
0.0
 10
655.217424
 20
432.141048
 30
0.0
 10
655.217424
 20
23.951736
 30
0.0
 10
625.453616
 20
23.951736
 30
0.0
 10
625.453616
 20
15.447792
 30
0.0
 10
595.689816
 20
15.447792
 30
0.0
 10
595.689816
 20
23.951736
 30
0.0
 10
573.012632
 20
23.951736
 30
0.0
 10
573.012632
 20
15.447792
 30
0.0
 10
543.248828
 20
15.447792
 30
0.0
 10
543.248828
 20
23.951736
 30
0.0
 10
513.485024
 20
23.951736
 30
0.0
  0
LWPOLYLINE
  5
103
100
AcDbEntity
  8
0
 62
7
100
AcDbPolyline
 90
117
 70
1
 10
26.503958
 20
434.692744
 30
0.0
 10
52.015790
 20
434.692744
 30
0.0
 10
52.015790
 20
443.196688
 30
0.0
 10
86.031566
 20
443.196688
 30
0.0
 10
86.031566
 20
434.692744
 30
0.0
 10
108.708750
 20
434.692744
 30
0.0
 10
108.708750
 20
443.196688
 30
0.0
 10
131.385934
 20
443.196688
 30
0.0
 10
131.385934
 20
434.692744
 30
0.0
 10
154.063118
 20
434.692744
 30
0.0
 10
154.063118
 20
443.196688
 30
0.0
 10
176.740302
 20
443.196688
 30
0.0
 10
176.740302
 20
434.692744
 30
0.0
 10
199.417486
 20
434.692744
 30
0.0
 10
199.417486
 20
443.196688
 30
0.0
 10
222.094670
 20
443.196688
 30
0.0
 10
222.094670
 20
434.692744
 30
0.0
 10
244.771854
 20
434.692744
 30
0.0
 10
244.771854
 20
443.196688
 30
0.0
 10
267.449038
 20
443.196688
 30
0.0
 10
267.449038
 20
434.692744
 30
0.0
 10
290.126222
 20
434.692744
 30
0.0
 10
290.126222
 20
443.196688
 30
0.0
 10
324.141998
 20
443.196688
 30
0.0
 10
324.141998
 20
434.692744
 30
0.0
 10
349.653830
 20
434.692744
 30
0.0
 10
349.653830
 20
410.598236
 30
0.0
 10
358.157774
 20
410.598236
 30
0.0
 10
358.157774
 20
377.999784
 30
0.0
 10
349.653830
 20
377.999784
 30
0.0
 10
349.653830
 20
355.322600
 30
0.0
 10
358.157774
 20
355.322600
 30
0.0
 10
358.157774
 20
332.645416
 30
0.0
 10
349.653830
 20
332.645416
 30
0.0
 10
349.653830
 20
309.968232
 30
0.0
 10
358.157774
 20
309.968232
 30
0.0
 10
358.157774
 20
287.291048
 30
0.0
 10
349.653830
 20
287.291048
 30
0.0
 10
349.653830
 20
264.613864
 30
0.0
 10
358.157774
 20
264.613864
 30
0.0
 10
358.157774
 20
241.936680
 30
0.0
 10
349.653830
 20
241.936680
 30
0.0
 10
349.653830
 20
219.259496
 30
0.0
 10
358.157774
 20
219.259496
 30
0.0
 10
358.157774
 20
196.582312
 30
0.0
 10
349.653830
 20
196.582312
 30
0.0
 10
349.653830
 20
173.905128
 30
0.0
 10
358.157774
 20
173.905128
 30
0.0
 10
358.157774
 20
151.227944
 30
0.0
 10
349.653830
 20
151.227944
 30
0.0
 10
349.653830
 20
128.550760
 30
0.0
 10
358.157774
 20
128.550760
 30
0.0
 10
358.157774
 20
105.873576
 30
0.0
 10
349.653830
 20
105.873576
 30
0.0
 10
349.653830
 20
83.196392
 30
0.0
 10
358.157774
 20
83.196392
 30
0.0
 10
358.157774
 20
50.597944
 30
0.0
 10
349.653830
 20
50.597944
 30
0.0
 10
349.653830
 20
26.503432
 30
0.0
 10
324.141998
 20
26.503432
 30
0.0
 10
324.141998
 20
17.999488
 30
0.0
 10
290.126222
 20
17.999488
 30
0.0
 10
290.126222
 20
26.503432
 30
0.0
 10
267.449038
 20
26.503432
 30
0.0
 10
267.449038
 20
17.999488
 30
0.0
 10
244.771854
 20
17.999488
 30
0.0
 10
244.771854
 20
26.503432
 30
0.0
 10
222.094670
 20
26.503432
 30
0.0
 10
222.094670
 20
17.999488
 30
0.0
 10
199.417486
 20
17.999488
 30
0.0
 10
199.417486
 20
26.503432
 30
0.0
 10
176.740302
 20
26.503432
 30
0.0
 10
176.740302
 20
17.999488
 30
0.0
 10
154.063118
 20
17.999488
 30
0.0
 10
154.063118
 20
26.503432
 30
0.0
 10
131.385934
 20
26.503432
 30
0.0
 10
131.385934
 20
17.999488
 30
0.0
 10
108.708750
 20
17.999488
 30
0.0
 10
108.708750
 20
26.503432
 30
0.0
 10
86.031566
 20
26.503432
 30
0.0
 10
86.031566
 20
17.999488
 30
0.0
 10
52.015790
 20
17.999488
 30
0.0
 10
52.015790
 20
26.503432
 30
0.0
 10
26.503958
 20
26.503432
 30
0.0
 10
26.503958
 20
50.597944
 30
0.0
 10
18.000014
 20
50.597944
 30
0.0
 10
18.000014
 20
83.196392
 30
0.0
 10
26.503958
 20
83.196392
 30
0.0
 10
26.503958
 20
105.873576
 30
0.0
 10
18.000014
 20
105.873576
 30
0.0
 10
18.000014
 20
128.550760
 30
0.0
 10
26.503958
 20
128.550760
 30
0.0
 10
26.503958
 20
151.227944
 30
0.0
 10
18.000014
 20
151.227944
 30
0.0
 10
18.000014
 20
173.905128
 30
0.0
 10
26.503958
 20
173.905128
 30
0.0
 10
26.503958
 20
196.582312
 30
0.0
 10
18.000014
 20
196.582312
 30
0.0
 10
18.000014
 20
219.259496
 30
0.0
 10
26.503958
 20
219.259496
 30
0.0
 10
26.503958
 20
241.936680
 30
0.0
 10
18.000014
 20
241.936680
 30
0.0
 10
18.000014
 20
264.613864
 30
0.0
 10
26.503958
 20
264.613864
 30
0.0
 10
26.503958
 20
287.291048
 30
0.0
 10
18.000014
 20
287.291048
 30
0.0
 10
18.000014
 20
309.968232
 30
0.0
 10
26.503958
 20
309.968232
 30
0.0
 10
26.503958
 20
332.645416
 30
0.0
 10
18.000014
 20
332.645416
 30
0.0
 10
18.000014
 20
355.322600
 30
0.0
 10
26.503958
 20
355.322600
 30
0.0
 10
26.503958
 20
377.999784
 30
0.0
 10
18.000014
 20
377.999784
 30
0.0
 10
18.000014
 20
410.598236
 30
0.0
 10
26.503958
 20
410.598236
 30
0.0
 10
26.503958
 20
434.692744
 30
0.0
  0
LWPOLYLINE
  5
104
100
AcDbEntity
  8
0
 62
7
100
AcDbPolyline
 90
54
 70
0
 10
506.182024
 20
298.636224
 30
0.0
 10
506.182024
 20
25.775544
 30
0.0
 10
476.418216
 20
25.775544
 30
0.0
 10
476.418216
 20
17.271600
 30
0.0
 10
446.654416
 20
17.271600
 30
0.0
 10
446.654416
 20
25.775544
 30
0.0
 10
423.977232
 20
25.775544
 30
0.0
 10
423.977232
 20
17.271600
 30
0.0
 10
394.213428
 20
17.271600
 30
0.0
 10
394.213428
 20
25.775544
 30
0.0
 10
364.449624
 20
25.775544
 30
0.0
 10
364.449624
 20
49.870052
 30
0.0
 10
372.953568
 20
49.870052
 30
0.0
 10
372.953568
 20
82.468504
 30
0.0
 10
364.449624
 20
82.468504
 30
0.0
 10
364.449624
 20
105.145688
 30
0.0
 10
372.953568
 20
105.145688
 30
0.0
 10
372.953568
 20
127.822872
 30
0.0
 10
364.449624
 20
127.822872
 30
0.0
 10
364.449624
 20
150.500056
 30
0.0
 10
372.953568
 20
150.500056
 30
0.0
 10
372.953568
 20
173.177240
 30
0.0
 10
364.449624
 20
173.177240
 30
0.0
 10
364.449624
 20
195.854424
 30
0.0
 10
372.953568
 20
195.854424
 30
0.0
 10
372.953568
 20
218.531608
 30
0.0
 10
364.449624
 20
218.531608
 30
0.0
 10
364.449624
 20
241.208792
 30
0.0
 10
372.953568
 20
241.208792
 30
0.0
 10
372.953568
 20
263.885976
 30
0.0
 10
364.449624
 20
263.885976
 30
0.0
 10
364.449624
 20
286.563160
 30
0.0
 10
372.953568
 20
286.563160
 30
0.0
 10
372.953568
 20
309.240344
 30
0.0
 10
364.449624
 20
309.240344
 30
0.0
 10
364.449624
 20
331.917528
 30
0.0
 10
372.953568
 20
331.917528
 30
0.0
 10
372.953568
 20
354.594712
 30
0.0
 10
364.449624
 20
354.594712
 30
0.0
 10
364.449624
 20
377.271896
 30
0.0
 10
372.953568
 20
377.271896
 30
0.0
 10
372.953568
 20
409.870344
 30
0.0
 10
364.449624
 20
409.870344
 30
0.0
 10
364.449624
 20
433.964856
 30
0.0
 10
394.213428
 20
433.964856
 30
0.0
 10
394.213428
 20
442.468800
 30
0.0
 10
423.977232
 20
442.468800
 30
0.0
 10
423.977232
 20
433.964856
 30
0.0
 10
446.654416
 20
433.964856
 30
0.0
 10
446.654416
 20
442.468800
 30
0.0
 10
476.418216
 20
442.468800
 30
0.0
 10
476.418216
 20
433.964856
 30
0.0
 10
506.182024
 20
433.964856
 30
0.0
 10
506.182024
 20
398.228808
 30
0.0
  0
LWPOLYLINE
  5
105
100
AcDbEntity
  8
0
 62
7
100
AcDbPolyline
 90
2
 70
0
 10
506.043776
 20
298.988511
 30
0.0
 10
453.775120
 20
298.988511
 30
0.0
  0
SPLINE
  5
106
100
AcDbEntity
  8
0
 62
7
100
AcDbSpline
 70
0
 71
3
 72
10
 73
6
 74
4
 40
0.000000
 40
0.000000
 40
0.000000
 40
0.000000
 40
50.423541
 40
96.209164
 40
144.752860
 40
144.752860
 40
144.752860
 40
144.752860
 10
453.775120
 20
298.988511
 30
0.0
 10
436.581800
 20
305.477742
 30
0.0
 10
403.776589
 20
317.859331
 30
0.0
 10
405.284184
 20
380.238536
 30
0.0
 10
437.299446
 20
391.882474
 30
0.0
 10
453.775120
 20
397.874671
 30
0.0
 11
453.775120
 21
298.988511
 31
0.0
 11
411.481474
 21
326.443583
 31
0.0
 11
412.566617
 21
372.216345
 31
0.0
 11
453.775120
 21
397.874671
 31
0.0
  0
SPLINE
  5
107
100
AcDbEntity
  8
0
 62
3
100
AcDbSpline
 70
0
 71
3
 72
10
 73
6
 74
4
 40
0.000000
 40
0.000000
 40
0.000000
 40
0.000000
 40
4.848197
 40
9.207898
 40
13.844429
 40
13.844429
 40
13.844429
 40
13.844429
 10
503.571360
 20
284.155631
 30
0.0
 10
502.171419
 20
283.261205
 30
0.0
 10
499.512593
 20
281.562474
 30
0.0
 10
494.669565
 20
282.014113
 30
0.0
 10
491.920891
 20
283.194220
 30
0.0
 10
490.504264
 20
283.802431
 30
0.0
 11
503.571360
 21
284.155631
 31
0.0
 11
499.215662
 21
282.026567
 31
0.0
 11
494.859962
 21
282.213308
 31
0.0
 11
490.504264
 21
283.802431
 31
0.0
  0
SPLINE
  5
108
100
AcDbEntity
  8
0
 62
3
100
AcDbSpline
 70
0
 71
3
 72
10
 73
6
 74
4
 40
0.000000
 40
0.000000
 40
0.000000
 40
0.000000
 40
5.485095
 40
10.549030
 40
15.864100
 40
15.864100
 40
15.864100
 40
15.864100
 10
490.504264
 20
283.802431
 30
0.0
 10
488.861491
 20
282.924199
 30
0.0
 10
485.702081
 20
281.235170
 30
0.0
 10
480.207061
 20
281.600503
 30
0.0
 10
476.973876
 20
282.823180
 30
0.0
 10
475.318168
 20
283.449311
 30
0.0
 11
490.504264
 21
283.802431
 31
0.0
 11
485.442232
 21
281.690063
 31
0.0
 11
480.380200
 21
281.828878
 31
0.0
 11
475.318168
 21
283.449311
 31
0.0
  0
SPLINE
  5
109
100
AcDbEntity
  8
0
 62
3
100
AcDbSpline
 70
0
 71
3
 72
10
 73
6
 74
4
 40
0.000000
 40
0.000000
 40
0.000000
 40
0.000000
 40
6.660297
 40
13.295534
 40
20.799421
 40
20.799421
 40
20.799421
 40
20.799421
 10
475.318168
 20
283.449311
 30
0.0
 10
473.186232
 20
282.884108
 30
0.0
 10
468.930382
 20
281.755828
 30
0.0
 10
461.847176
 20
280.556274
 30
0.0
 10
457.496668
 20
282.676950
 30
0.0
 10
455.187776
 20
283.802431
 30
0.0
 11
475.318168
 21
283.449311
 31
0.0
 11
468.854123
 21
281.844416
 31
0.0
 11
462.245298
 21
281.252979
 31
0.0
 11
455.187776
 21
283.802431
 31
0.0
  0
SPLINE
  5
10a
100
AcDbEntity
  8
0
 62
3
100
AcDbSpline
 70
0
 71
3
 72
10
 73
6
 74
4
 40
0.000000
 40
0.000000
 40
0.000000
 40
0.000000
 40
5.559869
 40
11.038508
 40
17.418442
 40
17.418442
 40
17.418442
 40
17.418442
 10
455.187776
 20
283.802431
 30
0.0
 10
453.470004
 20
283.120795
 30
0.0
 10
450.059557
 20
281.767483
 30
0.0
 10
444.027454
 20
281.109409
 30
0.0
 10
440.491418
 20
283.090045
 30
0.0
 10
438.589024
 20
284.155631
 30
0.0
 11
455.187776
 21
283.802431
 31
0.0
 11
449.929875
 21
281.995050
 31
0.0
 11
444.461378
 21
281.661838
 31
0.0
 11
438.589024
 21
284.155631
 31
0.0
  0
SPLINE
  5
10b
100
AcDbEntity
  8
0
 62
3
100
AcDbSpline
 70
0
 71
3
 72
10
 73
6
 74
4
 40
0.000000
 40
0.000000
 40
0.000000
 40
0.000000
 40
5.180820
 40
10.120817
 40
15.869668
 40
15.869668
 40
15.869668
 40
15.869668
 10
438.589024
 20
284.155631
 30
0.0
 10
436.865372
 20
283.972553
 30
0.0
 10
433.498188
 20
283.614907
 30
0.0
 10
428.176146
 20
285.320406
 30
0.0
 10
425.990898
 20
288.237403
 30
0.0
 10
424.815592
 20
289.806271
 30
0.0
 11
438.589024
 21
284.155631
 31
0.0
 11
433.411011
 21
283.985127
 31
0.0
 11
428.746299
 21
285.611174
 31
0.0
 11
424.815592
 21
289.806271
 31
0.0
  0
SPLINE
  5
10c
100
AcDbEntity
  8
0
 62
3
100
AcDbSpline
 70
0
 71
3
 72
10
 73
6
 74
4
 40
0.000000
 40
0.000000
 40
0.000000
 40
0.000000
 40
6.742901
 40
13.169454
 40
20.630473
 40
20.630473
 40
20.630473
 40
20.630473
 10
424.815592
 20
289.806271
 30
0.0
 10
422.589367
 20
290.187523
 30
0.0
 10
418.241363
 20
290.932142
 30
0.0
 10
412.248976
 20
295.035166
 30
0.0
 10
410.544971
 20
299.444813
 30
0.0
 10
409.629504
 20
301.813871
 30
0.0
 11
424.815592
 21
289.806271
 31
0.0
 11
418.273964
 21
291.441450
 31
0.0
 11
413.048364
 21
295.182265
 31
0.0
 11
409.629504
 21
301.813871
 31
0.0
  0
SPLINE
  5
10d
100
AcDbEntity
  8
0
 62
3
100
AcDbSpline
 70
0
 71
3
 72
10
 73
6
 74
4
 40
0.000000
 40
0.000000
 40
0.000000
 40
0.000000
 40
6.011322
 40
11.505906
 40
17.473096
 40
17.473096
 40
17.473096
 40
17.473096
 10
409.629504
 20
301.813871
 30
0.0
 10
407.943280
 20
302.874754
 30
0.0
 10
404.715780
 20
304.905326
 30
0.0
 10
400.635271
 20
309.568308
 30
0.0
 10
400.743854
 20
313.526573
 30
0.0
 10
400.800384
 20
315.587311
 30
0.0
 11
409.629504
 21
301.813871
 31
0.0
 11
404.718370
 21
305.280389
 31
0.0
 11
401.385716
 21
309.648899
 31
0.0
 11
400.800384
 21
315.587311
 31
0.0
  0
SPLINE
  5
10e
100
AcDbEntity
  8
0
 62
3
100
AcDbSpline
 70
0
 71
3
 72
10
 73
6
 74
4
 40
0.000000
 40
0.000000
 40
0.000000
 40
0.000000
 40
5.665397
 40
11.882765
 40
19.959079
 40
19.959079
 40
19.959079
 40
19.959079
 10
400.800384
 20
315.587311
 30
0.0
 10
399.859181
 20
317.224562
 30
0.0
 10
397.885075
 20
320.658580
 30
0.0
 10
395.938640
 20
327.179141
 30
0.0
 10
396.562864
 20
331.958004
 30
0.0
 10
396.915568
 20
334.658191
 30
0.0
 11
400.800384
 21
315.587311
 31
0.0
 11
398.162100
 21
320.600911
 31
0.0
 11
396.501767
 21
326.592484
 31
0.0
 11
396.915568
 21
334.658191
 31
0.0
  0
SPLINE
  5
10f
100
AcDbEntity
  8
0
 62
3
100
AcDbSpline
 70
0
 71
3
 72
10
 73
6
 74
4
 40
0.000000
 40
0.000000
 40
0.000000
 40
0.000000
 40
5.741613
 40
11.354656
 40
17.763742
 40
17.763742
 40
17.763742
 40
17.763742
 10
396.915568
 20
334.658191
 30
0.0
 10
396.182663
 20
336.416005
 30
0.0
 10
394.733264
 20
339.892271
 30
0.0
 10
393.674566
 20
345.992402
 30
0.0
 10
395.558219
 20
349.656665
 30
0.0
 10
396.562408
 20
351.610111
 30
0.0
 11
396.915568
 21
334.658191
 31
0.0
 11
394.914420
 21
340.039782
 31
0.0
 11
394.288814
 21
345.617853
 31
0.0
 11
396.562408
 21
351.610111
 31
0.0
  0
SPLINE
  5
110
100
AcDbEntity
  8
0
 62
3
100
AcDbSpline
 70
0
 71
3
 72
10
 73
6
 74
4
 40
0.000000
 40
0.000000
 40
0.000000
 40
0.000000
 40
6.454825
 40
11.642884
 40
16.380784
 40
16.380784
 40
16.380784
 40
16.380784
 10
396.562408
 20
351.610111
 30
0.0
 10
395.936071
 20
353.685011
 30
0.0
 10
394.806317
 20
357.427611
 30
0.0
 10
395.284856
 20
363.015274
 30
0.0
 10
396.627743
 20
366.052682
 30
0.0
 10
397.268736
 20
367.502511
 30
0.0
 11
396.562408
 21
351.610111
 31
0.0
 11
395.135182
 21
357.905171
 31
0.0
 11
395.585653
 21
363.073637
 31
0.0
 11
397.268736
 21
367.502511
 31
0.0
  0
SPLINE
  5
111
100
AcDbEntity
  8
0
 62
3
100
AcDbSpline
 70
0
 71
3
 72
10
 73
6
 74
4
 40
0.000000
 40
0.000000
 40
0.000000
 40
0.000000
 40
10.313517
 40
14.636494
 40
18.915175
 40
18.915175
 40
18.915175
 40
18.915175
 10
397.268736
 20
367.502511
 30
0.0
 10
397.215078
 20
371.186363
 30
0.0
 10
397.138929
 20
376.414325
 30
0.0
 10
401.881236
 20
380.882954
 30
0.0
 10
403.753760
 20
383.032161
 30
0.0
 10
404.685200
 20
384.101231
 30
0.0
 11
397.268736
 21
367.502511
 31
0.0
 11
398.967603
 21
377.675145
 31
0.0
 11
401.820600
 21
380.922997
 31
0.0
 11
404.685200
 21
384.101231
 31
0.0
  0
SPLINE
  5
112
100
AcDbEntity
  8
0
 62
3
100
AcDbSpline
 70
0
 71
3
 72
10
 73
6
 74
4
 40
0.000000
 40
0.000000
 40
0.000000
 40
0.000000
 40
4.885614
 40
9.657551
 40
15.028447
 40
15.028447
 40
15.028447
 40
15.028447
 10
404.685200
 20
384.101231
 30
0.0
 10
405.356805
 20
385.561204
 30
0.0
 10
406.684388
 20
388.447181
 30
0.0
 10
408.959325
 20
393.273615
 30
0.0
 10
412.399163
 20
394.203691
 30
0.0
 10
414.220648
 20
394.696191
 30
0.0
 11
404.685200
 21
384.101231
 31
0.0
 11
406.734393
 21
388.536321
 31
0.0
 11
409.290201
 21
392.566114
 31
0.0
 11
414.220648
 21
394.696191
 31
0.0
  0
SPLINE
  5
113
100
AcDbEntity
  8
0
 62
3
100
AcDbSpline
 70
0
 71
3
 72
10
 73
6
 74
4
 40
0.000000
 40
0.000000
 40
0.000000
 40
0.000000
 40
4.736593
 40
9.486832
 40
15.324002
 40
15.324002
 40
15.324002
 40
15.324002
 10
414.220648
 20
394.696191
 30
0.0
 10
415.087021
 20
395.999368
 30
0.0
 10
416.822262
 20
398.609478
 30
0.0
 10
420.230297
 20
402.743638
 30
0.0
 10
423.868972
 20
403.247510
 30
0.0
 10
425.875088
 20
403.525311
 30
0.0
 11
414.220648
 21
394.696191
 31
0.0
 11
416.913151
 21
398.593080
 31
0.0
 11
420.247049
 21
401.976849
 31
0.0
 11
425.875088
 21
403.525311
 31
0.0
  0
SPLINE
  5
114
100
AcDbEntity
  8
0
 62
3
100
AcDbSpline
 70
0
 71
3
 72
10
 73
6
 74
4
 40
0.000000
 40
0.000000
 40
0.000000
 40
0.000000
 40
4.899302
 40
10.250611
 40
17.601921
 40
17.601921
 40
17.601921
 40
17.601921
 10
425.875088
 20
403.525311
 30
0.0
 10
427.049350
 20
404.663111
 30
0.0
 10
429.506210
 20
407.043684
 30
0.0
 10
434.977272
 20
409.704873
 30
0.0
 10
439.278361
 20
409.369842
 30
0.0
 10
441.767504
 20
409.175951
 30
0.0
 11
425.875088
 21
403.525311
 31
0.0
 11
429.564462
 21
406.748923
 31
0.0
 11
434.418247
 21
409.002206
 31
0.0
 11
441.767504
 21
409.175951
 31
0.0
  0
SPLINE
  5
115
100
AcDbEntity
  8
0
 62
3
100
AcDbSpline
 70
0
 71
3
 72
10
 73
6
 74
4
 40
0.000000
 40
0.000000
 40
0.000000
 40
0.000000
 40
5.824729
 40
11.012072
 40
16.027240
 40
16.027240
 40
16.027240
 40
16.027240
 10
441.767504
 20
409.175951
 30
0.0
 10
443.565745
 20
409.922817
 30
0.0
 10
446.965450
 20
411.334823
 30
0.0
 10
452.436802
 20
411.779476
 30
0.0
 10
455.701802
 20
410.744316
 30
0.0
 10
457.306752
 20
410.235471
 30
0.0
 11
441.767504
 21
409.175951
 31
0.0
 11
447.262829
 21
411.106979
 31
0.0
 11
452.439246
 21
411.443483
 31
0.0
 11
457.306752
 21
410.235471
 31
0.0
  0
SPLINE
  5
116
100
AcDbEntity
  8
0
 62
3
100
AcDbSpline
 70
0
 71
3
 72
10
 73
6
 74
4
 40
0.000000
 40
0.000000
 40
0.000000
 40
0.000000
 40
5.083101
 40
10.794029
 40
18.203378
 40
18.203378
 40
18.203378
 40
18.203378
 10
457.306752
 20
410.235471
 30
0.0
 10
458.949514
 20
410.648564
 30
0.0
 10
462.437939
 20
411.525774
 30
0.0
 10
468.511905
 20
412.257319
 30
0.0
 10
472.861714
 20
411.642253
 30
0.0
 10
475.318160
 20
411.294911
 30
0.0
 11
457.306752
 21
410.235471
 31
0.0
 11
462.260151
 21
411.376416
 31
0.0
 11
467.939871
 21
411.972632
 31
0.0
 11
475.318160
 21
411.294911
 31
0.0
  0
SPLINE
  5
117
100
AcDbEntity
  8
0
 62
3
100
AcDbSpline
 70
0
 71
3
 72
10
 73
6
 74
4
 40
0.000000
 40
0.000000
 40
0.000000
 40
0.000000
 40
6.861457
 40
11.233887
 40
15.102648
 40
15.102648
 40
15.102648
 40
15.102648
 10
475.318160
 20
411.294911
 30
0.0
 10
477.529265
 20
411.996731
 30
0.0
 10
481.149385
 20
413.145784
 30
0.0
 10
486.227421
 20
412.565721
 30
0.0
 10
488.897596
 20
411.941314
 30
0.0
 10
490.151088
 20
411.648191
 30
0.0
 11
475.318160
 21
411.294911
 31
0.0
 11
482.010082
 21
412.810751
 31
0.0
 11
486.368398
 21
412.459711
 31
0.0
 11
490.151088
 21
411.648191
 31
0.0
  0
LWPOLYLINE
  5
118
100
AcDbEntity
  8
0
 62
7
100
AcDbPolyline
 90
2
 70
0
 10
453.775120
 20
397.874671
 30
0.0
 10
505.690616
 20
397.874671
 30
0.0
  0
LWPOLYLINE
  5
119
100
AcDbEntity
  8
0
 62
3
100
AcDbPolyline
 90
2
 70
0
 10
490.151096
 20
284.155631
 30
0.0
 10
490.151096
 20
298.988511
 30
0.0
  0
LWPOLYLINE
  5
11a
100
AcDbEntity
  8
0
 62
3
100
AcDbPolyline
 90
2
 70
0
 10
475.318168
 20
283.096111
 30
0.0
 10
474.965008
 20
298.635391
 30
0.0
  0
LWPOLYLINE
  5
11b
100
AcDbEntity
  8
0
 62
3
100
AcDbPolyline
 90
2
 70
0
 10
454.481448
 20
284.155631
 30
0.0
 10
455.540936
 20
297.929071
 30
0.0
  0
LWPOLYLINE
  5
11c
100
AcDbEntity
  8
0
 62
3
100
AcDbPolyline
 90
2
 70
0
 10
437.882696
 20
284.155631
 30
0.0
 10
443.180168
 20
300.401231
 30
0.0
  0
LWPOLYLINE
  5
11d
100
AcDbEntity
  8
0
 62
3
100
AcDbPolyline
 90
2
 70
0
 10
424.109264
 20
289.806271
 30
0.0
 10
431.172560
 20
304.286031
 30
0.0
  0
LWPOLYLINE
  5
11e
100
AcDbEntity
  8
0
 62
3
100
AcDbPolyline
 90
2
 70
0
 10
409.629504
 20
302.520191
 30
0.0
 10
421.990280
 20
311.702431
 30
0.0
  0
LWPOLYLINE
  5
11f
100
AcDbEntity
  8
0
 62
3
100
AcDbPolyline
 90
2
 70
0
 10
400.447216
 20
315.587311
 30
0.0
 10
413.161152
 20
321.237951
 30
0.0
  0
LWPOLYLINE
  5
120
100
AcDbEntity
  8
0
 62
3
100
AcDbPolyline
 90
2
 70
0
 10
397.268736
 20
335.011311
 30
0.0
 10
406.451024
 20
337.130351
 30
0.0
  0
LWPOLYLINE
  5
121
100
AcDbEntity
  8
0
 62
3
100
AcDbPolyline
 90
2
 70
0
 10
397.268736
 20
351.963231
 30
0.0
 10
406.097856
 20
351.256911
 30
0.0
  0
SPLINE
  5
122
100
AcDbEntity
  8
0
 62
3
100
AcDbSpline
 70
0
 71
3
 72
10
 73
6
 74
4
 40
0.000000
 40
0.000000
 40
0.000000
 40
0.000000
 40
5.427580
 40
10.344568
 40
15.204258
 40
15.204258
 40
15.204258
 40
15.204258
 10
490.151088
 20
411.648191
 30
0.0
 10
491.955523
 20
411.812622
 30
0.0
 10
495.394645
 20
412.126017
 30
0.0
 10
500.463917
 20
411.842777
 30
0.0
 10
503.719121
 20
411.712745
 30
0.0
 10
505.337184
 20
411.648111
 30
0.0
 11
490.151088
 21
411.648191
 31
0.0
 11
495.567113
 21
412.002161
 31
0.0
 11
500.481895
 21
411.854887
 31
0.0
 11
505.337184
 21
411.648111
 31
0.0
  0
LWPOLYLINE
  5
123
100
AcDbEntity
  8
0
 62
3
100
AcDbPolyline
 90
2
 70
0
 10
396.915568
 20
368.562031
 30
0.0
 10
408.570008
 20
365.383551
 30
0.0
  0
SPLINE
  5
124
100
AcDbEntity
  8
0
 62
3
100
AcDbSpline
 70
0
 71
3
 72
10
 73
6
 74
4
 40
0.000000
 40
0.000000
 40
0.000000
 40
0.000000
 40
3.584553
 40
8.743925
 40
11.376419
 40
11.376419
 40
11.376419
 40
11.376419
 10
403.272536
 20
381.629071
 30
0.0
 10
404.372108
 20
381.160658
 30
0.0
 10
407.054332
 20
380.018042
 30
0.0
 10
410.423402
 20
378.271736
 30
0.0
 10
412.733761
 20
377.085577
 30
0.0
 10
413.514320
 20
376.684831
 30
0.0
 11
403.272536
 21
381.629071
 31
0.0
 11
406.555664
 21
380.190289
 31
0.0
 11
411.172968
 21
377.888200
 31
0.0
 11
413.514320
 21
376.684831
 31
0.0
  0
LWPOLYLINE
  5
125
100
AcDbEntity
  8
0
 62
3
100
AcDbPolyline
 90
2
 70
0
 10
413.867488
 20
394.343071
 30
0.0
 10
423.049768
 20
386.926591
 30
0.0
  0
LWPOLYLINE
  5
126
100
AcDbEntity
  8
0
 62
3
100
AcDbPolyline
 90
2
 70
0
 10
441.061176
 20
408.469631
 30
0.0
 10
444.239664
 20
396.462031
 30
0.0
  0
LWPOLYLINE
  5
127
100
AcDbEntity
  8
0
 62
3
100
AcDbPolyline
 90
2
 70
0
 10
457.659928
 20
409.529151
 30
0.0
 10
458.366256
 20
398.580991
 30
0.0
  0
LWPOLYLINE
  5
128
100
AcDbEntity
  8
0
 62
3
100
AcDbPolyline
 90
2
 70
0
 10
474.258680
 20
410.941791
 30
0.0
 10
474.611840
 20
397.874671
 30
0.0
  0
SPLINE
  5
129
100
AcDbEntity
  8
0
 62
3
100
AcDbSpline
 70
0
 71
3
 72
10
 73
6
 74
4
 40
0.000000
 40
0.000000
 40
0.000000
 40
0.000000
 40
4.066896
 40
9.597262
 40
12.383461
 40
12.383461
 40
12.383461
 40
12.383461
 10
425.521928
 20
403.525311
 30
0.0
 10
426.450688
 20
402.534891
 30
0.0
 10
428.642421
 20
400.197649
 30
0.0
 10
430.905047
 20
396.727007
 30
0.0
 10
432.428125
 20
394.412239
 30
0.0
 10
432.938384
 20
393.636751
 30
0.0
 11
425.521928
 21
403.525311
 31
0.0
 11
428.229524
 21
400.490748
 31
0.0
 11
431.408004
 21
395.965020
 31
0.0
 11
432.938384
 21
393.636751
 31
0.0
  0
SPLINE
  5
12a
100
AcDbEntity
  8
0
 62
3
100
AcDbSpline
 70
0
 71
3
 72
13
 73
9
 74
7
 40
0.000000
 40
0.000000
 40
0.000000
 40
0.000000
 40
24.539752
 40
42.482119
 40
55.442301
 40
75.059253
 40
102.010961
 40
122.641450
 40
122.641450
 40
122.641450
 40
122.641450
 10
196.182399
 20
362.064003
 30
0.0
 10
204.229240
 20
363.213482
 30
0.0
 10
218.159572
 20
365.203409
 30
0.0
 10
237.334448
 20
364.727307
 30
0.0
 10
251.479150
 20
353.335602
 30
0.0
 10
254.019915
 20
332.626844
 30
0.0
 10
259.277127
 20
311.113221
 30
0.0
 10
259.517810
 20
295.166894
 30
0.0
 10
259.622165
 20
288.252953
 30
0.0
 11
196.182399
 21
362.064003
 31
0.0
 11
220.577263
 21
364.726717
 31
0.0
 11
238.371370
 21
362.424918
 31
0.0
 11
248.391827
 21
354.205626
 31
0.0
 11
254.000647
 21
335.407596
 31
0.0
 11
258.654559
 21
308.860738
 31
0.0
 11
259.622165
 21
288.252953
 31
0.0
  0
SPLINE
  5
12b
100
AcDbEntity
  8
0
 62
3
100
AcDbSpline
 70
0
 71
3
 72
13
 73
9
 74
7
 40
0.000000
 40
0.000000
 40
0.000000
 40
0.000000
 40
45.078742
 40
94.087497
 40
136.652585
 40
165.159476
 40
200.419422
 40
237.455086
 40
237.455086
 40
237.455086
 40
237.455086
 10
135.229811
 20
350.249842
 30
0.0
 10
126.863797
 20
337.608982
 30
0.0
 10
109.402412
 20
311.225217
 30
0.0
 10
97.771319
 20
267.275865
 30
0.0
 10
91.960510
 20
225.461042
 30
0.0
 10
111.794596
 20
194.209705
 30
0.0
 10
140.735558
 20
174.395848
 30
0.0
 10
165.209245
 20
173.067996
 30
0.0
 10
177.746649
 20
172.387763
 30
0.0
 11
135.229811
 21
350.249842
 31
0.0
 11
112.301762
 21
311.437504
 31
0.0
 11
98.186078
 21
264.505580
 31
0.0
 11
97.268888
 21
221.950375
 31
0.0
 11
111.816682
 21
197.434982
 31
0.0
 11
141.109952
 21
177.809281
 31
0.0
 11
177.746649
 21
172.387763
 31
0.0
  0
SPLINE
  5
12c
100
AcDbEntity
  8
0
 62
3
100
AcDbSpline
 70
0
 71
3
 72
13
 73
9
 74
7
 40
0.000000
 40
0.000000
 40
0.000000
 40
0.000000
 40
14.534006
 40
26.495631
 40
38.697842
 40
63.012153
 40
88.468867
 40
119.160814
 40
119.160814
 40
119.160814
 40
119.160814
 10
177.746649
 20
172.387763
 30
0.0
 10
182.592431
 20
174.428704
 30
0.0
 10
191.426338
 20
178.149359
 30
0.0
 10
192.955802
 20
192.248363
 30
0.0
 10
192.811564
 20
208.071534
 30
0.0
 10
197.596442
 20
228.461680
 30
0.0
 10
197.582369
 20
255.723676
 30
0.0
 10
190.713363
 20
273.315498
 30
0.0
 10
186.958631
 20
282.931528
 30
0.0
 11
177.746649
 21
172.387763
 31
0.0
 11
189.940973
 21
180.295720
 31
0.0
 11
192.694648
 21
191.936071
 31
0.0
 11
193.174547
 21
204.128841
 31
0.0
 11
196.589067
 21
228.202204
 31
0.0
 11
196.173351
 21
253.655523
 31
0.0
 11
186.958631
 21
282.931528
 31
0.0
  0
SPLINE
  5
12d
100
AcDbEntity
  8
0
 62
3
100
AcDbSpline
 70
0
 71
3
 72
10
 73
6
 74
4
 40
0.000000
 40
0.000000
 40
0.000000
 40
0.000000
 40
42.189161
 40
75.360740
 40
106.344662
 40
106.344662
 40
106.344662
 40
106.344662
 10
140.991163
 20
356.276017
 30
0.0
 10
155.194864
 20
362.382585
 30
0.0
 10
180.566344
 20
373.290494
 30
0.0
 10
210.250283
 20
346.010529
 30
0.0
 10
218.870694
 20
326.711603
 30
0.0
 10
223.033925
 20
317.391181
 30
0.0
 11
140.991163
 21
356.276017
 31
0.0
 11
182.243303
 21
365.118312
 31
0.0
 11
208.378057
 21
344.689696
 31
0.0
 11
223.033925
 21
317.391181
 31
0.0
  0
SPLINE
  5
12e
100
AcDbEntity
  8
0
 62
3
100
AcDbSpline
 70
0
 71
3
 72
10
 73
6
 74
4
 40
0.000000
 40
0.000000
 40
0.000000
 40
0.000000
 40
30.602307
 40
41.440724
 40
52.483234
 40
52.483234
 40
52.483234
 40
52.483234
 10
145.601345
 20
295.597530
 30
0.0
 10
146.452977
 20
306.461595
 30
0.0
 10
147.606231
 20
321.173384
 30
0.0
 10
166.610985
 20
331.194198
 30
0.0
 10
171.481225
 20
324.433603
 30
0.0
 10
173.939058
 20
321.021776
 30
0.0
 11
145.601345
 21
295.597530
 31
0.0
 11
155.710535
 21
324.481877
 31
0.0
 11
165.787982
 21
328.471406
 31
0.0
 11
173.939058
 21
321.021776
 31
0.0
  0
SPLINE
  5
12f
100
AcDbEntity
  8
0
 62
3
100
AcDbSpline
 70
0
 71
3
 72
10
 73
6
 74
4
 40
0.000000
 40
0.000000
 40
0.000000
 40
0.000000
 40
26.771971
 40
51.348884
 40
83.975067
 40
83.975067
 40
83.975067
 40
83.975067
 10
142.968037
 20
285.108577
 30
0.0
 10
140.376568
 20
276.739490
 30
0.0
 10
135.406109
 20
260.687506
 30
0.0
 10
133.781199
 20
229.536241
 30
0.0
 10
152.429855
 20
219.815127
 30
0.0
 10
163.066246
 20
214.270622
 30
0.0
 11
142.968037
 21
285.108577
 31
0.0
 11
136.274666
 21
259.186825
 31
0.0
 11
137.583688
 21
234.644797
 31
0.0
 11
163.066246
 21
214.270622
 31
0.0
  0
SPLINE
  5
130
100
AcDbEntity
  8
0
 62
3
100
AcDbSpline
 70
0
 71
3
 72
10
 73
6
 74
4
 40
0.000000
 40
0.000000
 40
0.000000
 40
0.000000
 40
5.544531
 40
10.995065
 40
15.950138
 40
15.950138
 40
15.950138
 40
15.950138
 10
163.066246
 20
214.270622
 30
0.0
 10
164.891959
 20
213.986376
 30
0.0
 10
168.512432
 20
213.422701
 30
0.0
 10
173.762520
 20
212.540334
 30
0.0
 10
177.230032
 20
212.373302
 30
0.0
 10
178.881236
 20
212.293762
 30
0.0
 11
163.066246
 21
214.270622
 31
0.0
 11
168.543033
 21
213.406547
 31
0.0
 11
173.937249
 21
212.625037
 31
0.0
 11
178.881236
 21
212.293762
 31
0.0
  0
SPLINE
  5
131
100
AcDbEntity
  8
0
 62
3
100
AcDbSpline
 70
0
 71
3
 72
10
 73
6
 74
4
 40
0.000000
 40
0.000000
 40
0.000000
 40
0.000000
 40
8.826021
 40
19.758494
 40
35.563202
 40
35.563202
 40
35.563202
 40
35.563202
 10
178.881236
 20
212.293762
 30
0.0
 10
181.469477
 20
213.807020
 30
0.0
 10
187.263678
 20
217.194697
 30
0.0
 10
191.140593
 20
230.378954
 30
0.0
 10
184.678148
 20
237.442201
 30
0.0
 10
180.858109
 20
241.617382
 30
0.0
 11
178.881236
 21
212.293762
 31
0.0
 11
185.919600
 21
217.619180
 31
0.0
 11
189.041691
 21
228.096370
 31
0.0
 11
180.858109
 21
241.617382
 31
0.0
  0
SPLINE
  5
132
100
AcDbEntity
  8
0
 62
3
100
AcDbSpline
 70
0
 71
3
 72
10
 73
6
 74
4
 40
0.000000
 40
0.000000
 40
0.000000
 40
0.000000
 40
15.201983
 40
30.590651
 40
50.419763
 40
50.419763
 40
50.419763
 40
50.419763
 10
180.858109
 20
241.617382
 30
0.0
 10
176.739414
 20
244.488046
 30
0.0
 10
168.451443
 20
250.264627
 30
0.0
 10
153.838883
 20
260.061896
 30
0.0
 10
151.310612
 20
272.081138
 30
0.0
 10
149.887088
 20
278.848483
 30
0.0
 11
180.858109
 21
241.617382
 31
0.0
 11
168.359341
 21
250.270768
 31
0.0
 11
156.591869
 21
260.187305
 31
0.0
 11
149.887088
 21
278.848483
 31
0.0
  0
SPLINE
  5
133
100
AcDbEntity
  8
0
 62
3
100
AcDbSpline
 70
0
 71
3
 72
10
 73
6
 74
4
 40
0.000000
 40
0.000000
 40
0.000000
 40
0.000000
 40
10.540646
 40
21.293618
 40
34.328962
 40
34.328962
 40
34.328962
 40
34.328962
 10
149.887088
 20
278.848483
 30
0.0
 10
149.719808
 20
282.338089
 30
0.0
 10
149.381880
 20
289.387594
 30
0.0
 10
150.060009
 20
301.194020
 30
0.0
 10
155.056592
 20
307.617511
 30
0.0
 10
157.794583
 20
311.137407
 30
0.0
 11
149.887088
 21
278.848483
 31
0.0
 11
149.571126
 21
289.384393
 31
0.0
 11
150.939853
 21
300.049898
 31
0.0
 11
157.794583
 21
311.137407
 31
0.0
  0
SPLINE
  5
134
100
AcDbEntity
  8
0
 62
3
100
AcDbSpline
 70
0
 71
3
 72
10
 73
6
 74
4
 40
0.000000
 40
0.000000
 40
0.000000
 40
0.000000
 40
12.701525
 40
21.990634
 40
31.036206
 40
31.036206
 40
31.036206
 40
31.036206
 10
157.794583
 20
311.137407
 30
0.0
 10
161.439912
 20
313.492804
 30
0.0
 10
167.751211
 20
317.570792
 30
0.0
 10
178.754412
 20
316.854473
 30
0.0
 10
183.913811
 20
313.467405
 30
0.0
 10
186.459245
 20
311.796365
 30
0.0
 11
157.794583
 21
311.137407
 31
0.0
 11
169.225978
 21
316.673828
 31
0.0
 11
178.496599
 21
316.088061
 31
0.0
 11
186.459245
 21
311.796365
 31
0.0
  0
SPLINE
  5
135
100
AcDbEntity
  8
0
 62
3
100
AcDbSpline
 70
0
 71
3
 72
10
 73
6
 74
4
 40
0.000000
 40
0.000000
 40
0.000000
 40
0.000000
 40
10.673909
 40
23.944410
 40
40.639286
 40
40.639286
 40
40.639286
 40
40.639286
 10
186.459245
 20
311.796365
 30
0.0
 10
190.048541
 20
311.804944
 30
0.0
 10
198.100285
 20
311.824187
 30
0.0
 10
210.805553
 20
306.276137
 30
0.0
 10
219.080221
 20
300.722772
 30
0.0
 10
223.690360
 20
297.628777
 30
0.0
 11
186.459245
 21
311.796365
 31
0.0
 11
197.114683
 21
311.168689
 31
0.0
 11
209.520497
 21
306.456795
 31
0.0
 11
223.690360
 21
297.628777
 31
0.0
  0
SPLINE
  5
136
100
AcDbEntity
  8
0
 62
3
100
AcDbSpline
 70
0
 71
3
 72
10
 73
6
 74
4
 40
0.000000
 40
0.000000
 40
0.000000
 40
0.000000
 40
9.025116
 40
14.051930
 40
20.281172
 40
20.281172
 40
20.281172
 40
20.281172
 10
223.690360
 20
297.628777
 30
0.0
 10
224.936956
 20
294.775067
 30
0.0
 10
226.877882
 20
290.331895
 30
0.0
 10
223.567736
 20
283.075267
 30
0.0
 10
219.404681
 20
283.535798
 30
0.0
 10
217.100794
 20
283.790661
 30
0.0
 11
223.690360
 21
297.628777
 31
0.0
 11
225.683428
 21
288.826482
 31
0.0
 11
223.300104
 21
284.400578
 31
0.0
 11
217.100794
 21
283.790661
 31
0.0
  0
SPLINE
  5
137
100
AcDbEntity
  8
0
 62
3
100
AcDbSpline
 70
0
 71
3
 72
10
 73
6
 74
4
 40
0.000000
 40
0.000000
 40
0.000000
 40
0.000000
 40
63.727056
 40
118.289447
 40
169.773127
 40
169.773127
 40
169.773127
 40
169.773127
 10
224.016889
 20
314.440212
 30
0.0
 10
231.753195
 20
294.359994
 30
0.0
 10
246.113240
 20
257.087317
 30
0.0
 10
240.295188
 20
198.987463
 30
0.0
 10
226.899139
 20
166.246793
 30
0.0
 10
220.395570
 20
150.351719
 30
0.0
 11
224.016889
 21
314.440212
 31
0.0
 11
241.881413
 21
253.268353
 31
0.0
 11
237.605448
 21
198.873770
 31
0.0
 11
220.395570
 21
150.351719
 31
0.0
  0
SPLINE
  5
138
100
AcDbEntity
  8
0
 62
3
100
AcDbSpline
 70
0
 71
3
 72
10
 73
6
 74
4
 40
0.000000
 40
0.000000
 40
0.000000
 40
0.000000
 40
12.785107
 40
25.323044
 40
41.032141
 40
41.032141
 40
41.032141
 40
41.032141
 10
149.557616
 20
274.894736
 30
0.0
 10
148.237431
 20
270.850934
 30
0.0
 10
145.622583
 20
262.841507
 30
0.0
 10
138.501710
 20
250.705785
 30
0.0
 10
139.254562
 20
241.054287
 30
0.0
 10
139.673247
 20
235.686774
 30
0.0
 11
149.557616
 21
274.894736
 31
0.0
 11
145.143380
 21
262.895841
 31
0.0
 11
140.166174
 21
251.388136
 31
0.0
 11
139.673247
 21
235.686774
 31
0.0
  0
SPLINE
  5
139
100
AcDbEntity
  8
0
 62
3
100
AcDbSpline
 70
0
 71
3
 72
10
 73
6
 74
4
 40
0.000000
 40
0.000000
 40
0.000000
 40
0.000000
 40
39.250858
 40
76.299341
 40
110.224690
 40
110.224690
 40
110.224690
 40
110.224690
 10
119.240086
 20
188.258624
 30
0.0
 10
123.932072
 20
176.120050
 30
0.0
 10
133.052777
 20
152.523999
 30
0.0
 10
160.374863
 20
123.236902
 30
0.0
 10
184.933920
 20
123.079981
 30
0.0
 10
196.673099
 20
123.004973
 30
0.0
 11
119.240086
 21
188.258624
 31
0.0
 11
135.907432
 21
152.722313
 31
0.0
 11
163.047242
 21
127.502859
 31
0.0
 11
196.673099
 21
123.004973
 31
0.0
  0
SPLINE
  5
13a
100
AcDbEntity
  8
0
 62
3
100
AcDbSpline
 70
0
 71
3
 72
10
 73
6
 74
4
 40
0.000000
 40
0.000000
 40
0.000000
 40
0.000000
 40
55.009003
 40
107.334188
 40
149.743154
 40
149.743154
 40
149.743154
 40
149.743154
 10
260.173532
 20
283.701086
 30
0.0
 10
262.112415
 20
265.400030
 30
0.0
 10
265.895585
 20
229.690805
 30
0.0
 10
254.657698
 20
179.664346
 30
0.0
 10
237.810739
 20
152.807742
 30
0.0
 10
230.268980
 20
140.785037
 30
0.0
 11
260.173532
 21
283.701086
 31
0.0
 11
262.880735
 21
228.758739
 31
0.0
 11
250.942867
 21
177.813550
 31
0.0
 11
230.268980
 21
140.785037
 31
0.0
  0
SPLINE
  5
13b
100
AcDbEntity
  8
0
 62
3
100
AcDbSpline
 70
0
 71
3
 72
10
 73
6
 74
4
 40
0.000000
 40
0.000000
 40
0.000000
 40
0.000000
 40
14.714647
 40
29.542309
 40
41.606838
 40
41.606838
 40
41.606838
 40
41.606838
 10
218.095965
 20
145.744914
 30
0.0
 10
214.704478
 20
142.205108
 30
0.0
 10
207.895457
 20
135.098310
 30
0.0
 10
199.411814
 20
123.988449
 30
0.0
 10
195.701714
 20
115.803942
 30
0.0
 10
194.037267
 20
112.132161
 30
0.0
 11
218.095965
 21
145.744914
 31
0.0
 11
208.116340
 21
134.931591
 31
0.0
 11
199.387494
 21
122.945483
 31
0.0
 11
194.037267
 21
112.132161
 31
0.0
  0
SPLINE
  5
13c
100
AcDbEntity
  8
0
 62
3
100
AcDbSpline
 70
0
 71
3
 72
10
 73
6
 74
4
 40
0.000000
 40
0.000000
 40
0.000000
 40
0.000000
 40
7.966265
 40
15.846724
 40
21.176324
 40
21.176324
 40
21.176324
 40
21.176324
 10
194.037267
 20
112.132161
 30
0.0
 10
191.728202
 20
110.966603
 30
0.0
 10
187.134944
 20
108.648043
 30
0.0
 10
178.358285
 20
108.793353
 30
0.0
 10
177.792448
 20
103.892909
 30
0.0
 10
177.564161
 20
101.915824
 30
0.0
 11
194.037267
 21
112.132161
 31
0.0
 11
186.611083
 21
109.248903
 31
0.0
 11
179.048095
 21
107.034669
 31
0.0
 11
177.564161
 21
101.915824
 31
0.0
  0
SPLINE
  5
13d
100
AcDbEntity
  8
0
 62
3
100
AcDbSpline
 70
0
 71
3
 72
10
 73
6
 74
4
 40
0.000000
 40
0.000000
 40
0.000000
 40
0.000000
 40
25.917111
 40
43.464778
 40
61.779399
 40
61.779399
 40
61.779399
 40
61.779399
 10
226.660736
 20
136.515298
 30
0.0
 10
222.167578
 20
129.242682
 30
0.0
 10
214.632243
 20
117.046004
 30
0.0
 10
199.340098
 20
101.396379
 30
0.0
 10
186.887892
 20
101.305681
 30
0.0
 10
180.528637
 20
101.259362
 30
0.0
 11
226.660736
 21
136.515298
 31
0.0
 11
212.035180
 21
115.119276
 31
0.0
 11
198.673943
 21
103.743953
 31
0.0
 11
180.528637
 21
101.259362
 31
0.0
  0
SPLINE
  5
13e
100
AcDbEntity
  8
0
 62
3
100
AcDbSpline
 70
0
 71
3
 72
10
 73
6
 74
4
 40
0.000000
 40
0.000000
 40
0.000000
 40
0.000000
 40
13.833591
 40
27.688669
 40
42.015463
 40
42.015463
 40
42.015463
 40
42.015463
 10
169.985310
 20
293.016072
 30
0.0
 10
173.749479
 20
290.404916
 30
0.0
 10
181.283662
 20
285.178548
 30
0.0
 10
194.130385
 20
278.356470
 30
0.0
 10
203.679743
 20
279.556395
 30
0.0
 10
208.534341
 20
280.166399
 30
0.0
 11
169.985310
 21
293.016072
 31
0.0
 11
181.510442
 21
285.364955
 31
0.0
 11
194.211519
 21
279.829087
 31
0.0
 11
208.534341
 21
280.166399
 31
0.0
  0
SPLINE
  5
13f
100
AcDbEntity
  8
0
 62
3
100
AcDbSpline
 70
0
 71
3
 72
10
 73
6
 74
4
 40
0.000000
 40
0.000000
 40
0.000000
 40
0.000000
 40
5.176649
 40
9.139697
 40
13.128205
 40
13.128205
 40
13.128205
 40
13.128205
 10
208.534341
 20
280.166399
 30
0.0
 10
210.248232
 20
280.245988
 30
0.0
 10
213.274214
 20
280.386508
 30
0.0
 10
217.741928
 20
280.799659
 30
0.0
 10
219.947974
 20
282.352698
 30
0.0
 10
221.054528
 20
283.131703
 30
0.0
 11
208.534341
 21
280.166399
 31
0.0
 11
213.703086
 21
280.452360
 31
0.0
 11
217.609068
 21
281.122475
 31
0.0
 11
221.054528
 21
283.131703
 31
0.0
  0
LWPOLYLINE
  5
140
100
AcDbEntity
  8
0
 62
3
100
AcDbPolyline
 90
2
 70
0
 10
489.444768
 20
411.648111
 30
0.0
 10
489.444768
 20
397.874671
 30
0.0
  0
SPLINE
  5
141
100
AcDbEntity
  8
0
 62
3
100
AcDbSpline
 70
0
 71
3
 72
19
 73
15
 74
13
 40
0.000000
 40
0.000000
 40
0.000000
 40
0.000000
 40
0.788162
 40
1.628140
 40
2.564890
 40
3.501642
 40
4.341618
 40
5.129780
 40
5.917945
 40
6.757920
 40
7.694672
 40
8.631422
 40
9.471399
 40
10.259563
 40
10.259563
 40
10.259563
 40
10.259563
 10
208.040139
 20
300.594025
 30
0.0
 10
208.305451
 20
300.648540
 30
0.0
 10
208.853518
 20
300.761156
 30
0.0
 10
209.396833
 20
301.502330
 30
0.0
 10
209.589204
 20
302.403806
 30
0.0
 10
209.396833
 20
303.318916
 30
0.0
 10
208.853518
 20
304.024093
 30
0.0
 10
208.040138
 20
304.312303
 30
0.0
 10
207.226758
 20
304.024094
 30
0.0
 10
206.683443
 20
303.318915
 30
0.0
 10
206.491075
 20
302.403806
 30
0.0
 10
206.683443
 20
301.502330
 30
0.0
 10
207.226758
 20
300.761155
 30
0.0
 10
207.774825
 20
300.648540
 30
0.0
 10
208.040139
 20
300.594025
 30
0.0
 11
208.040139
 21
300.594025
 31
0.0
 11
208.788462
 21
300.841435
 31
0.0
 11
209.320367
 21
301.491542
 31
0.0
 11
209.522793
 21
302.406159
 31
0.0
 11
209.320367
 21
303.320778
 31
0.0
 11
208.788462
 21
303.970884
 31
0.0
 11
208.040139
 21
304.218293
 31
0.0
 11
207.291813
 21
303.970884
 31
0.0
 11
206.759909
 21
303.320778
 31
0.0
 11
206.557484
 21
302.406159
 31
0.0
 11
206.759909
 21
301.491542
 31
0.0
 11
207.291813
 21
300.841435
 31
0.0
 11
208.040139
 21
300.594025
 31
0.0
  0
LWPOLYLINE
  5
142
100
AcDbEntity
  8
0
 62
3
100
AcDbPolyline
 90
2
 70
1
 10
208.040139
 20
300.594025
 30
0.0
 10
208.040139
 20
300.594025
 30
0.0
  0
SPLINE
  5
143
100
AcDbEntity
  8
0
 62
3
100
AcDbSpline
 70
0
 71
3
 72
19
 73
15
 74
13
 40
0.000000
 40
0.000000
 40
0.000000
 40
0.000000
 40
0.788162
 40
1.628140
 40
2.564890
 40
3.501642
 40
4.341618
 40
5.129780
 40
5.917945
 40
6.757920
 40
7.694672
 40
8.631422
 40
9.471399
 40
10.259563
 40
10.259563
 40
10.259563
 40
10.259563
 10
206.887196
 20
283.295999
 30
0.0
 10
207.152508
 20
283.350515
 30
0.0
 10
207.700575
 20
283.463131
 30
0.0
 10
208.243890
 20
284.204305
 30
0.0
 10
208.436261
 20
285.105781
 30
0.0
 10
208.243890
 20
286.020890
 30
0.0
 10
207.700575
 20
286.726068
 30
0.0
 10
206.887195
 20
287.014278
 30
0.0
 10
206.073815
 20
286.726069
 30
0.0
 10
205.530500
 20
286.020890
 30
0.0
 10
205.338132
 20
285.105781
 30
0.0
 10
205.530500
 20
284.204305
 30
0.0
 10
206.073815
 20
283.463130
 30
0.0
 10
206.621882
 20
283.350515
 30
0.0
 10
206.887196
 20
283.295999
 30
0.0
 11
206.887196
 21
283.295999
 31
0.0
 11
207.635519
 21
283.543410
 31
0.0
 11
208.167424
 21
284.193517
 31
0.0
 11
208.369850
 21
285.108134
 31
0.0
 11
208.167424
 21
286.022753
 31
0.0
 11
207.635519
 21
286.672859
 31
0.0
 11
206.887196
 21
286.920268
 31
0.0
 11
206.138870
 21
286.672859
 31
0.0
 11
205.606966
 21
286.022753
 31
0.0
 11
205.404541
 21
285.108134
 31
0.0
 11
205.606966
 21
284.193517
 31
0.0
 11
206.138870
 21
283.543410
 31
0.0
 11
206.887196
 21
283.295999
 31
0.0
  0
SPLINE
  5
144
100
AcDbEntity
  8
0
 62
3
100
AcDbSpline
 70
0
 71
3
 72
10
 73
6
 74
4
 40
0.000000
 40
0.000000
 40
0.000000
 40
0.000000
 40
10.521008
 40
18.242694
 40
27.858249
 40
27.858249
 40
27.858249
 40
27.858249
 10
211.170159
 20
343.755817
 30
0.0
 10
213.279028
 20
346.788955
 30
0.0
 10
216.935658
 20
352.048205
 30
0.0
 10
227.389414
 20
352.696432
 30
0.0
 10
231.791955
 20
348.640914
 30
0.0
 10
234.233686
 20
346.391649
 30
0.0
 11
211.170159
 21
343.755817
 31
0.0
 11
218.557429
 21
351.247135
 31
0.0
 11
226.261537
 21
351.767869
 31
0.0
 11
234.233686
 21
346.391649
 31
0.0
  0
SPLINE
  5
145
100
AcDbEntity
  8
0
 62
3
100
AcDbSpline
 70
0
 71
3
 72
10
 73
6
 74
4
 40
0.000000
 40
0.000000
 40
0.000000
 40
0.000000
 40
2.818279
 40
6.132108
 40
10.552770
 40
10.552770
 40
10.552770
 40
10.552770
 10
238.516919
 20
338.154681
 30
0.0
 10
238.104014
 20
337.310784
 30
0.0
 10
237.205601
 20
335.474603
 30
0.0
 10
235.909014
 20
332.196390
 30
0.0
 10
235.262284
 20
329.698173
 30
0.0
 10
234.892644
 20
328.270313
 30
0.0
 11
238.516919
 21
338.154681
 31
0.0
 11
237.308827
 21
335.608466
 31
0.0
 11
236.100736
 21
332.522696
 31
0.0
 11
234.892644
 21
328.270313
 31
0.0
  0
SPLINE
  5
146
100
AcDbEntity
  8
0
 62
3
100
AcDbSpline
 70
0
 71
3
 72
10
 73
6
 74
4
 40
0.000000
 40
0.000000
 40
0.000000
 40
0.000000
 40
5.671389
 40
11.198887
 40
16.863466
 40
16.863466
 40
16.863466
 40
16.863466
 10
234.892644
 20
328.270313
 30
0.0
 10
233.078081
 20
328.766840
 30
0.0
 10
229.494994
 20
329.747296
 30
0.0
 10
223.819901
 20
330.802200
 30
0.0
 10
220.233739
 20
329.558658
 30
0.0
 10
218.418696
 20
328.929271
 30
0.0
 11
234.892644
 21
328.270313
 31
0.0
 11
229.401332
 21
329.688108
 31
0.0
 11
223.910017
 21
330.319538
 31
0.0
 11
218.418696
 21
328.929271
 31
0.0
  0
SPLINE
  5
147
100
AcDbEntity
  8
0
 62
3
100
AcDbSpline
 70
0
 71
3
 72
13
 73
9
 74
7
 40
0.000000
 40
0.000000
 40
0.000000
 40
0.000000
 40
2.524082
 40
7.829212
 40
12.795541
 40
17.827355
 40
23.202448
 40
25.759819
 40
25.759819
 40
25.759819
 40
25.759819
 10
232.586298
 20
296.640334
 30
0.0
 10
233.382711
 20
296.918817
 30
0.0
 10
235.853028
 20
297.782618
 30
0.0
 10
239.924595
 20
298.755476
 30
0.0
 10
245.458717
 20
299.026880
 30
0.0
 10
248.970757
 20
294.700556
 30
0.0
 10
251.000303
 20
290.978703
 30
0.0
 10
252.024758
 20
288.532914
 30
0.0
 10
252.355035
 20
287.744409
 30
0.0
 11
232.586298
 21
296.640334
 31
0.0
 11
234.977714
 21
297.447873
 31
0.0
 11
240.151397
 21
298.621501
 31
0.0
 11
245.106498
 21
298.287735
 31
0.0
 11
248.717402
 21
294.783377
 31
0.0
 11
251.341611
 21
290.092412
 31
0.0
 11
252.355035
 21
287.744409
 31
0.0
  0
SPLINE
  5
148
100
AcDbEntity
  8
0
 62
3
100
AcDbSpline
 70
0
 71
3
 72
13
 73
9
 74
7
 40
0.000000
 40
0.000000
 40
0.000000
 40
0.000000
 40
1.974319
 40
6.098871
 40
9.981161
 40
12.841175
 40
17.273940
 40
23.850709
 40
23.850709
 40
23.850709
 40
23.850709
 10
252.355035
 20
274.565251
 30
0.0
 10
252.714017
 20
274.008633
 30
0.0
 10
253.822950
 20
272.289184
 30
0.0
 10
255.176117
 20
269.416774
 30
0.0
 10
256.368771
 20
265.320232
 30
0.0
 10
252.813198
 20
262.897630
 30
0.0
 10
248.120478
 20
263.203208
 30
0.0
 10
244.789792
 20
261.446855
 30
0.0
 10
242.800139
 20
260.397662
 30
0.0
 11
252.355035
 21
274.565251
 31
0.0
 11
253.402420
 21
272.891655
 31
0.0
 11
255.154100
 21
269.157550
 31
0.0
 11
255.524364
 21
265.292956
 31
0.0
 11
253.290969
 21
263.506443
 31
0.0
 11
248.909824
 21
262.831925
 31
0.0
 11
242.800139
 21
260.397662
 31
0.0
  0
SPLINE
  5
149
100
AcDbEntity
  8
0
 62
3
100
AcDbSpline
 70
0
 71
3
 72
13
 73
9
 74
7
 40
0.000000
 40
0.000000
 40
0.000000
 40
0.000000
 40
2.485075
 40
7.549574
 40
12.047859
 40
19.460707
 40
28.704182
 40
33.294888
 40
33.294888
 40
33.294888
 40
33.294888
 10
244.989907
 20
238.426490
 30
0.0
 10
245.820289
 20
238.432763
 30
0.0
 10
248.342963
 20
238.451819
 30
0.0
 10
252.279239
 20
238.142701
 30
0.0
 10
258.045602
 20
235.524322
 30
0.0
 10
257.257362
 20
227.234141
 30
0.0
 10
256.518300
 20
220.600977
 30
0.0
 10
255.521768
 20
216.061964
 30
0.0
 10
255.191081
 20
214.555747
 30
0.0
 11
244.989907
 21
238.426490
 31
0.0
 11
247.474978
 21
238.422255
 31
0.0
 11
252.499006
 21
237.783282
 31
0.0
 11
256.415216
 21
235.570169
 31
0.0
 11
257.333744
 21
228.214449
 31
0.0
 11
256.126397
 21
219.050162
 31
0.0
 11
255.191081
 21
214.555747
 31
0.0
  0
SPLINE
  5
14a
100
AcDbEntity
  8
0
 62
3
100
AcDbSpline
 70
0
 71
3
 72
10
 73
6
 74
4
 40
0.000000
 40
0.000000
 40
0.000000
 40
0.000000
 40
4.390303
 40
8.547274
 40
12.559753
 40
12.559753
 40
12.559753
 40
12.559753
 10
242.745647
 20
210.475278
 30
0.0
 10
244.066124
 20
209.850398
 30
0.0
 10
246.636899
 20
208.633849
 30
0.0
 10
250.698720
 20
207.363094
 30
0.0
 10
253.437742
 20
207.534681
 30
0.0
 10
254.783031
 20
207.618957
 30
0.0
 11
242.745647
 21
210.475278
 31
0.0
 11
246.758107
 21
208.693446
 31
0.0
 11
250.770571
 21
207.606916
 31
0.0
 11
254.783031
 21
207.618957
 31
0.0
  0
SPLINE
  5
14b
100
AcDbEntity
  8
0
 62
3
100
AcDbSpline
 70
0
 71
3
 72
13
 73
9
 74
7
 40
0.000000
 40
0.000000
 40
0.000000
 40
0.000000
 40
6.467993
 40
11.741992
 40
16.003943
 40
21.419951
 40
27.192518
 40
29.935191
 40
29.935191
 40
29.935191
 40
29.935191
 10
236.828968
 20
190.072904
 30
0.0
 10
237.826213
 20
188.054749
 30
0.0
 10
239.636612
 20
184.390993
 30
0.0
 10
244.699147
 20
182.364671
 30
0.0
 10
248.423156
 20
178.279686
 30
0.0
 10
246.529211
 20
172.812366
 30
0.0
 10
244.570763
 20
168.767297
 30
0.0
 10
243.035965
 20
166.364144
 30
0.0
 10
242.541622
 20
165.590112
 30
0.0
 11
236.828968
 21
190.072904
 31
0.0
 11
240.398415
 21
184.679021
 31
0.0
 11
244.823084
 21
181.808938
 31
0.0
 11
247.438191
 21
178.443609
 31
0.0
 11
246.525733
 21
173.105017
 31
0.0
 11
243.989614
 21
167.919399
 31
0.0
 11
242.541622
 21
165.590112
 31
0.0
  0
SPLINE
  5
14c
100
AcDbEntity
  8
0
 62
3
100
AcDbSpline
 70
0
 71
3
 72
10
 73
6
 74
4
 40
0.000000
 40
0.000000
 40
0.000000
 40
0.000000
 40
4.509499
 40
8.443406
 40
12.139382
 40
12.139382
 40
12.139382
 40
12.139382
 10
229.280103
 20
167.426309
 30
0.0
 10
230.438123
 20
166.505907
 30
0.0
 10
232.606352
 20
164.782582
 30
0.0
 10
236.380706
 20
162.563271
 30
0.0
 10
238.881792
 20
163.502817
 30
0.0
 10
240.093338
 20
163.957940
 30
0.0
 11
229.280103
 21
167.426309
 31
0.0
 11
232.884514
 21
164.716364
 31
0.0
 11
236.488927
 21
163.140348
 31
0.0
 11
240.093338
 21
163.957940
 31
0.0
  0
SPLINE
  5
14d
100
AcDbEntity
  8
0
 62
3
100
AcDbSpline
 70
0
 71
3
 72
10
 73
6
 74
4
 40
0.000000
 40
0.000000
 40
0.000000
 40
0.000000
 40
5.595281
 40
10.738388
 40
14.206503
 40
14.206503
 40
14.206503
 40
14.206503
 10
223.975484
 20
156.613074
 30
0.0
 10
224.729384
 20
154.911746
 30
0.0
 10
226.176259
 20
151.646581
 30
0.0
 10
228.318635
 20
147.361662
 30
0.0
 10
228.713161
 20
144.502893
 30
0.0
 10
228.872053
 20
143.351541
 30
0.0
 11
223.975484
 21
156.613074
 31
0.0
 11
226.284018
 21
151.516228
 31
0.0
 11
228.248733
 21
146.763183
 31
0.0
 11
228.872053
 21
143.351541
 31
0.0
  0
SPLINE
  5
14e
100
AcDbEntity
  8
0
 62
3
100
AcDbSpline
 70
0
 71
3
 72
10
 73
6
 74
4
 40
0.000000
 40
0.000000
 40
0.000000
 40
0.000000
 40
3.311492
 40
6.038676
 40
8.631410
 40
8.631410
 40
8.631410
 40
8.631410
 10
218.262830
 20
143.963642
 30
0.0
 10
219.031870
 20
143.154769
 30
0.0
 10
220.434254
 20
141.679749
 30
0.0
 10
223.109722
 20
140.507045
 30
0.0
 10
224.789177
 20
139.950398
 30
0.0
 10
225.607683
 20
139.679108
 30
0.0
 11
218.262830
 21
143.963642
 31
0.0
 11
220.711114
 21
141.733870
 31
0.0
 11
223.159398
 21
140.532439
 31
0.0
 11
225.607683
 21
139.679108
 31
0.0
  0
SPLINE
  5
14f
100
AcDbEntity
  8
0
 62
3
100
AcDbSpline
 70
0
 71
3
 72
10
 73
6
 74
4
 40
0.000000
 40
0.000000
 40
0.000000
 40
0.000000
 40
4.777960
 40
8.500489
 40
12.211544
 40
12.211544
 40
12.211544
 40
12.211544
 10
210.713965
 20
137.842911
 30
0.0
 10
210.719207
 20
136.223328
 30
0.0
 10
210.728532
 20
133.341919
 30
0.0
 10
212.608671
 20
129.656571
 30
0.0
 10
213.522251
 20
127.360051
 30
0.0
 10
213.978335
 20
126.213564
 30
0.0
 11
210.713965
 21
137.842911
 31
0.0
 11
211.140229
 21
133.084004
 31
0.0
 11
212.552528
 21
129.639786
 31
0.0
 11
213.978335
 21
126.213564
 31
0.0
  0
SPLINE
  5
150
100
AcDbEntity
  8
0
 62
3
100
AcDbSpline
 70
0
 71
3
 72
10
 73
6
 74
4
 40
0.000000
 40
0.000000
 40
0.000000
 40
0.000000
 40
6.775980
 40
9.763712
 40
11.223544
 40
11.223544
 40
11.223544
 40
11.223544
 10
201.794217
 20
125.652079
 30
0.0
 10
203.468405
 20
123.873631
 30
0.0
 10
205.880793
 20
121.311012
 30
0.0
 10
210.193273
 20
122.235259
 30
0.0
 10
210.882493
 20
123.591182
 30
0.0
 10
211.108717
 20
124.036240
 30
0.0
 11
201.794217
 21
125.652079
 31
0.0
 11
207.461769
 21
121.938218
 31
0.0
 11
210.320187
 21
122.807691
 31
0.0
 11
211.108717
 21
124.036240
 31
0.0
  0
SPLINE
  5
151
100
AcDbEntity
  8
0
 62
3
100
AcDbSpline
 70
0
 71
3
 72
10
 73
6
 74
4
 40
0.000000
 40
0.000000
 40
0.000000
 40
0.000000
 40
5.042764
 40
9.513564
 40
13.981963
 40
13.981963
 40
13.981963
 40
13.981963
 10
199.418071
 20
121.375022
 30
0.0
 10
199.133088
 20
119.663124
 30
0.0
 10
198.595445
 20
116.433497
 30
0.0
 10
200.937691
 20
112.207097
 30
0.0
 10
202.015720
 20
109.447827
 30
0.0
 10
202.554589
 20
108.068563
 30
0.0
 11
199.418071
 21
121.375022
 31
0.0
 11
199.161953
 21
116.338766
 31
0.0
 11
200.833172
 21
112.192071
 31
0.0
 11
202.554589
 21
108.068563
 31
0.0
  0
SPLINE
  5
152
100
AcDbEntity
  8
0
 62
3
100
AcDbSpline
 70
0
 71
3
 72
10
 73
6
 74
4
 40
0.000000
 40
0.000000
 40
0.000000
 40
0.000000
 40
2.595133
 40
4.567771
 40
6.581117
 40
6.581117
 40
6.581117
 40
6.581117
 10
193.905420
 20
111.775371
 30
0.0
 10
194.070962
 20
110.910312
 30
0.0
 10
194.362336
 20
109.387696
 30
0.0
 10
196.056960
 20
107.732887
 30
0.0
 10
197.406018
 20
107.577044
 30
0.0
 10
198.087436
 20
107.498327
 30
0.0
 11
193.905420
 21
111.775371
 31
0.0
 11
194.687649
 21
109.300934
 31
0.0
 11
196.125507
 21
107.950429
 31
0.0
 11
198.087436
 21
107.498327
 31
0.0
  0
SPLINE
  5
153
100
AcDbEntity
  8
0
 62
3
100
AcDbSpline
 70
0
 71
3
 72
10
 73
6
 74
4
 40
0.000000
 40
0.000000
 40
0.000000
 40
0.000000
 40
19.247633
 40
32.096222
 40
52.758407
 40
52.758407
 40
52.758407
 40
52.758407
 10
222.366780
 20
277.621365
 30
0.0
 10
227.175738
 20
271.999680
 30
0.0
 10
235.194872
 20
262.625289
 30
0.0
 10
222.541640
 20
245.999899
 30
0.0
 10
211.059656
 20
245.019811
 30
0.0
 10
203.980056
 20
244.415506
 30
0.0
 11
222.366780
 21
277.621365
 31
0.0
 11
231.141508
 21
260.490237
 31
0.0
 11
223.909162
 21
249.870473
 31
0.0
 11
203.980056
 21
244.415506
 31
0.0
  0
SPLINE
  5
154
100
AcDbEntity
  8
0
 62
3
100
AcDbSpline
 70
0
 71
3
 72
10
 73
6
 74
4
 40
0.000000
 40
0.000000
 40
0.000000
 40
0.000000
 40
5.861731
 40
10.213269
 40
16.920278
 40
16.920278
 40
16.920278
 40
16.920278
 10
202.607925
 20
229.870799
 30
0.0
 10
203.975985
 20
228.358991
 30
0.0
 10
206.359644
 20
225.724870
 30
0.0
 10
212.613707
 20
225.662482
 30
0.0
 10
215.268233
 20
228.452846
 30
0.0
 10
216.878202
 20
230.145202
 30
0.0
 11
202.607925
 21
229.870799
 31
0.0
 11
207.170419
 21
226.190646
 31
0.0
 11
211.521202
 21
226.109547
 31
0.0
 11
216.878202
 21
230.145202
 31
0.0
  0
SPLINE
  5
155
100
AcDbEntity
  8
0
 62
3
100
AcDbSpline
 70
0
 71
3
 72
10
 73
6
 74
4
 40
0.000000
 40
0.000000
 40
0.000000
 40
0.000000
 40
11.259951
 40
22.963269
 40
35.439990
 40
35.439990
 40
35.439990
 40
35.439990
 10
216.878202
 20
230.145202
 30
0.0
 10
221.245350
 20
231.585502
 30
0.0
 10
230.151603
 20
234.522814
 30
0.0
 10
231.658944
 20
219.081187
 30
0.0
 10
231.503256
 20
211.535576
 30
0.0
 10
231.422922
 20
207.642096
 30
0.0
 11
216.878202
 21
230.145202
 31
0.0
 11
228.073062
 21
231.354171
 31
0.0
 11
231.348654
 21
220.118596
 31
0.0
 11
231.422922
 21
207.642096
 31
0.0
  0
SPLINE
  5
156
100
AcDbEntity
  8
0
 62
3
100
AcDbSpline
 70
0
 71
3
 72
10
 73
6
 74
4
 40
0.000000
 40
0.000000
 40
0.000000
 40
0.000000
 40
8.457548
 40
16.925233
 40
31.275451
 40
31.275451
 40
31.275451
 40
31.275451
 10
227.306488
 20
203.800065
 30
0.0
 10
225.483070
 20
201.700599
 30
0.0
 10
221.834049
 20
197.499149
 30
0.0
 10
212.668300
 20
190.776650
 30
0.0
 10
205.144331
 20
194.560000
 30
0.0
 10
200.412493
 20
196.939356
 30
0.0
 11
227.306488
 21
203.800065
 31
0.0
 11
221.508833
 21
197.642361
 31
0.0
 11
214.277023
 21
193.237521
 31
0.0
 11
200.412493
 21
196.939356
 31
0.0
  0
SPLINE
  5
157
100
AcDbEntity
  8
0
 62
3
100
AcDbSpline
 70
0
 71
3
 72
10
 73
6
 74
4
 40
0.000000
 40
0.000000
 40
0.000000
 40
0.000000
 40
13.800969
 40
26.803449
 40
42.997728
 40
42.997728
 40
42.997728
 40
42.997728
 10
196.021631
 20
187.334343
 30
0.0
 10
197.430088
 20
182.927546
 30
0.0
 10
200.165512
 20
174.368916
 30
0.0
 10
213.769568
 20
164.715124
 30
0.0
 10
209.061368
 20
154.551657
 30
0.0
 10
206.449916
 20
148.914387
 30
0.0
 11
196.021631
 21
187.334343
 31
0.0
 11
201.770079
 21
174.787548
 31
0.0
 11
209.993884
 21
164.716127
 31
0.0
 11
206.449916
 21
148.914387
 31
0.0
  0
SPLINE
  5
158
100
AcDbEntity
  8
0
 62
3
100
AcDbSpline
 70
0
 71
3
 72
10
 73
6
 74
4
 40
0.000000
 40
0.000000
 40
0.000000
 40
0.000000
 40
9.917718
 40
18.853168
 40
30.029625
 40
30.029625
 40
30.029625
 40
30.029625
 10
177.086062
 20
163.184625
 30
0.0
 10
178.176896
 20
160.135881
 30
0.0
 10
180.250526
 20
154.340346
 30
0.0
 10
186.310030
 20
144.909880
 30
0.0
 10
193.610972
 20
146.072748
 30
0.0
 10
197.668204
 20
146.718969
 30
0.0
 11
177.086062
 21
163.184625
 31
0.0
 11
180.837483
 21
154.003777
 31
0.0
 11
186.497904
 21
147.089885
 31
0.0
 11
197.668204
 21
146.718969
 31
0.0
  0
SPLINE
  5
159
100
AcDbEntity
  8
0
 62
3
100
AcDbSpline
 70
0
 71
3
 72
10
 73
6
 74
4
 40
0.000000
 40
0.000000
 40
0.000000
 40
0.000000
 40
14.051295
 40
23.477417
 40
34.545119
 40
34.545119
 40
34.545119
 40
34.545119
 10
170.225352
 20
165.928914
 30
0.0
 10
168.127205
 20
161.200428
 30
0.0
 10
164.621544
 20
153.299901
 30
0.0
 10
172.595016
 20
143.646024
 30
0.0
 10
174.442015
 20
137.088004
 30
0.0
 10
175.439488
 20
133.546341
 30
0.0
 11
170.225352
 21
165.928914
 31
0.0
 11
167.127736
 21
152.223307
 31
0.0
 11
171.606157
 21
143.929000
 31
0.0
 11
175.439488
 21
133.546341
 31
0.0
  0
SPLINE
  5
15a
100
AcDbEntity
  8
0
 62
3
100
AcDbSpline
 70
0
 71
3
 72
10
 73
6
 74
4
 40
0.000000
 40
0.000000
 40
0.000000
 40
0.000000
 40
7.160848
 40
12.265145
 40
16.771127
 40
16.771127
 40
16.771127
 40
16.771127
 10
158.150493
 20
137.937230
 30
0.0
 10
159.842412
 20
136.213820
 30
0.0
 10
162.740343
 20
133.261951
 30
0.0
 10
168.256796
 20
131.394832
 30
0.0
 10
171.465277
 20
131.738608
 30
0.0
 10
172.969641
 20
131.899794
 30
0.0
 11
158.150493
 21
137.937230
 31
0.0
 11
163.613608
 21
133.307747
 31
0.0
 11
168.466972
 21
131.727019
 31
0.0
 11
172.969641
 21
131.899794
 31
0.0
  0
SPLINE
  5
15b
100
AcDbEntity
  8
0
 62
3
100
AcDbSpline
 70
0
 71
3
 72
10
 73
6
 74
4
 40
0.000000
 40
0.000000
 40
0.000000
 40
0.000000
 40
11.182590
 40
20.620213
 40
30.204287
 40
30.204287
 40
30.204287
 40
30.204287
 10
153.485214
 20
166.477785
 30
0.0
 10
151.836939
 20
163.202139
 30
0.0
 10
148.797590
 20
157.161988
 30
0.0
 10
146.428032
 20
146.329784
 30
0.0
 10
151.120777
 20
141.478990
 30
0.0
 10
153.485214
 20
139.034920
 30
0.0
 11
153.485214
 21
166.477785
 31
0.0
 11
148.958504
 21
156.252365
 31
0.0
 11
147.962057
 21
146.867493
 31
0.0
 11
153.485214
 21
139.034920
 31
0.0
  0
SPLINE
  5
15c
100
AcDbEntity
  8
0
 62
3
100
AcDbSpline
 70
0
 71
3
 72
10
 73
6
 74
4
 40
0.000000
 40
0.000000
 40
0.000000
 40
0.000000
 40
7.003044
 40
12.808659
 40
18.987768
 40
18.987768
 40
18.987768
 40
18.987768
 10
146.898920
 20
174.710653
 30
0.0
 10
144.468169
 20
174.339661
 30
0.0
 10
140.022292
 20
173.661112
 30
0.0
 10
136.429483
 20
167.871217
 30
0.0
 10
135.370206
 20
164.054684
 30
0.0
 10
134.824061
 20
162.086949
 30
0.0
 11
146.898920
 21
174.710653
 31
0.0
 11
140.211175
 21
172.632988
 31
0.0
 11
136.783727
 21
167.947077
 31
0.0
 11
134.824061
 21
162.086949
 31
0.0
  0
LWPOLYLINE
  5
15d
100
AcDbEntity
  8
0
 62
3
100
AcDbPolyline
 90
2
 70
1
 10
206.887196
 20
283.295999
 30
0.0
 10
206.887196
 20
283.295999
 30
0.0
  0
SPLINE
  5
15e
100
AcDbEntity
  8
0
 62
3
100
AcDbSpline
 70
0
 71
3
 72
10
 73
6
 74
4
 40
0.000000
 40
0.000000
 40
0.000000
 40
0.000000
 40
9.062670
 40
14.725641
 40
20.250275
 40
20.250275
 40
20.250275
 40
20.250275
 10
201.510209
 20
304.789802
 30
0.0
 10
203.283651
 20
302.385812
 30
0.0
 10
206.165259
 20
298.479646
 30
0.0
 10
207.118137
 20
290.713572
 30
0.0
 10
203.547755
 20
288.746564
 30
0.0
 10
201.784638
 20
287.775222
 30
0.0
 11
201.510209
 21
304.789802
 31
0.0
 11
206.001546
 21
296.918341
 31
0.0
 11
206.074957
 21
291.255846
 31
0.0
 11
201.784638
 21
287.775222
 31
0.0
  0
SPLINE
  5
15f
100
AcDbEntity
  8
0
 62
3
100
AcDbSpline
 70
0
 71
3
 72
10
 73
6
 74
4
 40
0.000000
 40
0.000000
 40
0.000000
 40
0.000000
 40
3.404419
 40
11.078749
 40
17.930891
 40
17.930891
 40
17.930891
 40
17.930891
 10
187.592504
 20
304.691659
 30
0.0
 10
188.324500
 20
303.808090
 30
0.0
 10
190.706580
 20
300.932755
 30
0.0
 10
197.641468
 20
299.916112
 30
0.0
 10
198.964929
 20
294.836546
 30
0.0
 10
199.589207
 20
292.440513
 30
0.0
 11
187.592504
 21
304.691659
 31
0.0
 11
189.968161
 21
302.253151
 31
0.0
 11
196.760789
 21
298.681659
 31
0.0
 11
199.589207
 21
292.440513
 31
0.0
  0
SPLINE
  5
160
100
AcDbEntity
  8
0
 62
3
100
AcDbSpline
 70
0
 71
3
 72
10
 73
6
 74
4
 40
0.000000
 40
0.000000
 40
0.000000
 40
0.000000
 40
2.696944
 40
5.742625
 40
10.242787
 40
10.242787
 40
10.242787
 40
10.242787
 10
199.589207
 20
292.440513
 30
0.0
 10
198.930749
 20
291.827170
 30
0.0
 10
197.528690
 20
290.521173
 30
0.0
 10
194.645310
 20
288.645768
 30
0.0
 10
192.290181
 20
287.744107
 30
0.0
 10
190.885638
 20
287.206378
 30
0.0
 11
199.589207
 21
292.440513
 31
0.0
 11
197.566522
 21
290.656626
 31
0.0
 11
195.017127
 21
288.990266
 31
0.0
 11
190.885638
 21
287.206378
 31
0.0
  0
SPLINE
  5
161
100
AcDbEntity
  8
0
 62
3
100
AcDbSpline
 70
0
 71
3
 72
10
 73
6
 74
4
 40
0.000000
 40
0.000000
 40
0.000000
 40
0.000000
 40
3.953529
 40
6.160262
 40
7.917386
 40
7.917386
 40
7.917386
 40
7.917386
 10
190.885638
 20
287.206378
 30
0.0
 10
189.554818
 20
287.334008
 30
0.0
 10
187.481176
 20
287.532878
 30
0.0
 10
184.938075
 20
286.479082
 30
0.0
 10
184.061105
 20
285.475722
 30
0.0
 10
183.672356
 20
285.030946
 30
0.0
 11
190.885638
 21
287.206378
 31
0.0
 11
186.932280
 21
287.169647
 31
0.0
 11
184.916465
 21
286.271782
 31
0.0
 11
183.672356
 21
285.030946
 31
0.0
  0
SPLINE
  5
162
100
AcDbEntity
  8
0
 62
3
100
AcDbSpline
 70
0
 71
3
 72
10
 73
6
 74
4
 40
0.000000
 40
0.000000
 40
0.000000
 40
0.000000
 40
6.639196
 40
12.423770
 40
17.889777
 40
17.889777
 40
17.889777
 40
17.889777
 10
175.976888
 20
300.384327
 30
0.0
 10
178.204500
 20
300.297329
 30
0.0
 10
182.372977
 20
300.134532
 30
0.0
 10
187.952562
 20
297.536596
 30
0.0
 10
190.570842
 20
294.825978
 30
0.0
 10
191.842913
 20
293.509045
 30
0.0
 11
175.976888
 21
300.384327
 31
0.0
 11
182.575859
 21
299.654594
 31
0.0
 11
187.816475
 21
297.205668
 31
0.0
 11
191.842913
 21
293.509045
 31
0.0
  0
LWPOLYLINE
  5
163
100
AcDbEntity
  8
0
 62
3
100
AcDbPolyline
 90
2
 70
0
 10
191.630781
 20
308.357364
 30
0.0
 10
187.592504
 20
304.691659
 30
0.0
  0
SPLINE
  5
164
100
AcDbEntity
  8
0
 62
3
100
AcDbSpline
 70
0
 71
3
 72
13
 73
9
 74
7
 40
0.000000
 40
0.000000
 40
0.000000
 40
0.000000
 40
6.168995
 40
13.123934
 40
18.797289
 40
20.603711
 40
22.956133
 40
24.982824
 40
24.982824
 40
24.982824
 40
24.982824
 10
191.842913
 20
293.509045
 30
0.0
 10
189.810494
 20
292.943273
 30
0.0
 10
185.486721
 20
291.739648
 30
0.0
 10
179.600102
 20
293.202037
 30
0.0
 10
173.942109
 20
293.966875
 30
0.0
 10
172.964224
 20
297.404387
 30
0.0
 10
174.033887
 20
299.436650
 30
0.0
 10
175.362155
 20
300.084498
 30
0.0
 10
175.976888
 20
300.384327
 30
0.0
 11
191.842913
 21
293.509045
 31
0.0
 11
185.792904
 21
292.303270
 31
0.0
 11
178.896892
 21
293.206702
 31
0.0
 11
173.685127
 21
295.448233
 31
0.0
 11
173.232251
 21
297.196966
 31
0.0
 11
174.254989
 21
299.315432
 31
0.0
 11
175.976888
 21
300.384327
 31
0.0
  0
SPLINE
  5
165
100
AcDbEntity
  8
0
 62
3
100
AcDbSpline
 70
0
 71
3
 72
10
 73
6
 74
4
 40
0.000000
 40
0.000000
 40
0.000000
 40
0.000000
 40
3.924456
 40
6.366228
 40
8.697494
 40
8.697494
 40
8.697494
 40
8.697494
 10
164.694371
 20
314.487477
 30
0.0
 10
165.973799
 20
314.047987
 30
0.0
 10
168.049279
 20
313.335049
 30
0.0
 10
169.760789
 20
310.904110
 30
0.0
 10
170.857639
 20
309.758393
 30
0.0
 10
171.393367
 20
309.198797
 30
0.0
 11
164.694371
 21
314.487477
 31
0.0
 11
168.220013
 21
312.763759
 31
0.0
 11
169.823780
 21
310.922515
 31
0.0
 11
171.393367
 21
309.198797
 31
0.0
  0
SPLINE
  5
166
100
AcDbEntity
  8
0
 62
3
100
AcDbSpline
 70
0
 71
3
 72
10
 73
6
 74
4
 40
0.000000
 40
0.000000
 40
0.000000
 40
0.000000
 40
4.395752
 40
7.448143
 40
10.172160
 40
10.172160
 40
10.172160
 40
10.172160
 10
171.393367
 20
309.198797
 30
0.0
 10
172.863610
 20
309.155356
 30
0.0
 10
175.354785
 20
309.081749
 30
0.0
 10
178.696571
 20
309.738198
 30
0.0
 10
180.562110
 20
310.210220
 30
0.0
 10
181.441854
 20
310.432814
 30
0.0
 11
171.393367
 21
309.198797
 31
0.0
 11
175.788671
 21
309.261531
 31
0.0
 11
178.795475
 21
309.787102
 31
0.0
 11
181.441854
 21
310.432814
 31
0.0
  0
SPLINE
  5
167
100
AcDbEntity
  8
0
 62
3
100
AcDbSpline
 70
0
 71
3
 72
22
 73
18
 74
16
 40
0.000000
 40
0.000000
 40
0.000000
 40
0.000000
 40
1.361195
 40
4.013241
 40
6.142063
 40
7.452862
 40
9.021340
 40
10.571145
 40
12.583276
 40
14.810438
 40
16.832460
 40
20.177839
 40
23.624617
 40
26.972020
 40
30.123188
 40
33.452410
 40
35.025430
 40
35.025430
 40
35.025430
 40
35.025430
 10
166.986132
 20
296.505964
 30
0.0
 10
166.935976
 20
296.960400
 30
0.0
 10
166.788102
 20
298.300224
 30
0.0
 10
166.434333
 20
300.197035
 30
0.0
 10
165.058881
 20
302.348644
 30
0.0
 10
163.244635
 20
301.583626
 30
0.0
 10
162.518291
 20
300.294067
 30
0.0
 10
161.827295
 20
298.669989
 30
0.0
 10
162.425256
 20
296.677559
 30
0.0
 10
163.781277
 20
295.096886
 30
0.0
 10
164.473578
 20
292.514651
 30
0.0
 10
163.108114
 20
289.698004
 30
0.0
 10
161.103384
 20
287.040518
 30
0.0
 10
158.345136
 20
284.913006
 30
0.0
 10
154.941002
 20
284.819430
 30
0.0
 10
152.315374
 20
285.334202
 30
0.0
 10
150.743153
 20
285.784218
 30
0.0
 10
150.238662
 20
285.928618
 30
0.0
 11
166.986132
 21
296.505964
 31
0.0
 11
166.826085
 21
297.857718
 31
0.0
 11
166.156758
 21
300.423911
 31
0.0
 11
164.694371
 21
301.970943
 31
0.0
 11
163.456298
 21
301.540398
 31
0.0
 11
162.538351
 21
300.268590
 31
0.0
 11
162.050038
 21
298.797725
 31
0.0
 11
162.511232
 21
296.839160
 31
0.0
 11
163.679303
 21
294.942885
 31
0.0
 11
164.165499
 21
292.980186
 31
0.0
 11
163.053305
 21
289.825098
 31
0.0
 11
160.944501
 21
287.098704
 31
0.0
 11
158.171674
 21
285.223460
 31
0.0
 11
155.033861
 21
284.933659
 31
0.0
 11
151.754815
 21
285.509490
 31
0.0
 11
150.238662
 21
285.928618
 31
0.0
  0
SPLINE
  5
168
100
AcDbEntity
  8
0
 62
3
100
AcDbSpline
 70
0
 71
3
 72
10
 73
6
 74
4
 40
0.000000
 40
0.000000
 40
0.000000
 40
0.000000
 40
12.177877
 40
21.202917
 40
31.507007
 40
31.507007
 40
31.507007
 40
31.507007
 10
173.508841
 20
286.281191
 30
0.0
 10
173.544809
 20
281.736182
 30
0.0
 10
173.607432
 20
273.822862
 30
0.0
 10
184.541643
 20
269.809986
 30
0.0
 10
189.419106
 20
265.720129
 30
0.0
 10
192.019213
 20
263.539883
 30
0.0
 11
173.508841
 21
286.281191
 31
0.0
 11
176.023411
 21
274.365754
 31
0.0
 11
183.698690
 21
269.617971
 31
0.0
 11
192.019213
 21
263.539883
 31
0.0
  0
SPLINE
  5
169
100
AcDbEntity
  8
0
 62
3
100
AcDbSpline
 70
0
 71
3
 72
16
 73
12
 74
10
 40
0.000000
 40
0.000000
 40
0.000000
 40
0.000000
 40
1.668950
 40
5.279304
 40
8.808763
 40
11.084996
 40
13.492463
 40
15.256614
 40
19.891031
 40
25.570940
 40
31.311881
 40
31.311881
 40
31.311881
 40
31.311881
 10
152.354123
 20
273.059498
 30
0.0
 10
152.868431
 20
272.843806
 30
0.0
 10
154.495315
 20
272.161516
 30
0.0
 10
157.251688
 20
271.306359
 30
0.0
 10
160.447726
 20
270.348357
 30
0.0
 10
163.016930
 20
271.606103
 30
0.0
 10
164.533532
 20
273.290859
 30
0.0
 10
167.775067
 20
273.164083
 30
0.0
 10
170.111605
 20
269.366959
 30
0.0
 10
174.240804
 20
266.045520
 30
0.0
 10
177.625159
 20
264.260751
 30
0.0
 10
179.326379
 20
263.363597
 30
0.0
 11
152.354123
 21
273.059498
 31
0.0
 11
153.899553
 21
272.429387
 31
0.0
 11
157.325402
 21
271.289996
 31
0.0
 11
160.816008
 21
270.767738
 31
0.0
 11
162.890029
 21
271.705646
 31
0.0
 11
164.869484
 21
273.075922
 31
0.0
 11
166.633559
 21
273.059498
 31
0.0
 11
170.042086
 21
269.919473
 31
0.0
 11
174.335682
 21
266.201087
 31
0.0
 11
179.326379
 21
263.363597
 31
0.0
  0
SPLINE
  5
16a
100
AcDbEntity
  8
0
 62
3
100
AcDbSpline
 70
0
 71
3
 72
13
 73
9
 74
7
 40
0.000000
 40
0.000000
 40
0.000000
 40
0.000000
 40
4.878535
 40
8.871283
 40
12.342441
 40
13.827450
 40
15.385936
 40
16.119124
 40
16.119124
 40
16.119124
 40
16.119124
 10
179.326379
 20
263.363597
 30
0.0
 10
178.792857
 20
261.669416
 30
0.0
 10
177.822684
 20
258.588663
 30
0.0
 10
173.618043
 20
257.702067
 30
0.0
 10
170.682574
 20
255.843860
 30
0.0
 10
170.778952
 20
253.543950
 30
0.0
 10
171.073485
 20
252.333903
 30
0.0
 10
171.315831
 20
251.608144
 30
0.0
 10
171.393367
 20
251.375948
 30
0.0
 11
179.326379
 21
263.363597
 31
0.0
 11
177.105264
 21
259.020009
 31
0.0
 11
173.467353
 21
257.374519
 31
0.0
 11
170.864495
 21
255.077985
 31
0.0
 11
170.823653
 21
253.593538
 31
0.0
 11
171.167273
 21
252.073406
 31
0.0
 11
171.393367
 21
251.375948
 31
0.0
  0
LWPOLYLINE
  5
16b
100
AcDbEntity
  8
0
 62
3
100
AcDbPolyline
 90
2
 70
1
 10
175.976888
 20
300.384327
 30
0.0
 10
175.976888
 20
300.384327
 30
0.0
  0
SPLINE
  5
16c
100
AcDbEntity
  8
0
 62
3
100
AcDbSpline
 70
0
 71
3
 72
10
 73
6
 74
4
 40
0.000000
 40
0.000000
 40
0.000000
 40
0.000000
 40
5.236243
 40
12.016616
 40
19.349010
 40
19.349010
 40
19.349010
 40
19.349010
 10
193.958388
 20
252.962498
 30
0.0
 10
192.060735
 20
253.115965
 30
0.0
 10
187.705827
 20
253.468154
 30
0.0
 10
184.740447
 20
246.205462
 30
0.0
 10
179.785358
 20
245.547588
 30
0.0
 10
177.210905
 20
245.205785
 30
0.0
 11
193.958388
 21
252.962498
 31
0.0
 11
188.742646
 21
252.499586
 31
0.0
 11
184.180538
 21
247.483550
 31
0.0
 11
177.210905
 21
245.205785
 31
0.0
  0
SPLINE
  5
16d
100
AcDbEntity
  8
0
 62
3
100
AcDbSpline
 70
0
 71
3
 72
16
 73
12
 74
10
 40
0.000000
 40
0.000000
 40
0.000000
 40
0.000000
 40
2.121377
 40
6.642433
 40
11.181952
 40
15.554820
 40
20.360105
 40
24.537668
 40
31.173419
 40
38.061475
 40
46.132635
 40
46.132635
 40
46.132635
 40
46.132635
 10
149.709790
 20
338.639101
 30
0.0
 10
149.396904
 20
339.273632
 30
0.0
 10
148.417197
 20
341.260470
 30
0.0
 10
147.164346
 20
344.778075
 30
0.0
 10
147.112107
 20
349.508166
 30
0.0
 10
149.923422
 20
353.305370
 30
0.0
 10
152.939527
 20
356.592376
 30
0.0
 10
157.830575
 20
358.873834
 30
0.0
 10
163.956939
 20
358.086315
 30
0.0
 10
170.545209
 20
355.035465
 30
0.0
 10
174.302328
 20
351.713794
 30
0.0
 10
176.329461
 20
349.921605
 30
0.0
 11
149.709790
 21
338.639101
 31
0.0
 11
148.795148
 21
340.553173
 31
0.0
 11
147.410401
 21
344.856941
 31
0.0
 11
147.594315
 21
349.392733
 31
0.0
 11
149.878320
 21
353.121713
 31
0.0
 11
153.305761
 21
356.489711
 31
0.0
 11
157.113944
 21
358.207203
 31
0.0
 11
163.736084
 21
357.782405
 31
0.0
 11
170.013229
 21
354.946428
 31
0.0
 11
176.329461
 21
349.921605
 31
0.0
  0
SPLINE
  5
16e
100
AcDbEntity
  8
0
 62
3
100
AcDbSpline
 70
0
 71
3
 72
13
 73
9
 74
7
 40
0.000000
 40
0.000000
 40
0.000000
 40
0.000000
 40
3.265963
 40
7.611233
 40
11.852165
 40
15.882065
 40
19.938629
 40
21.791840
 40
21.791840
 40
21.791840
 40
21.791840
 10
176.329461
 20
349.921605
 30
0.0
 10
175.902090
 20
348.857492
 30
0.0
 10
174.906114
 20
346.377610
 30
0.0
 10
170.711879
 20
345.409598
 30
0.0
 10
166.980392
 20
343.351956
 30
0.0
 10
164.720091
 20
339.803912
 30
0.0
 10
162.960536
 20
337.021899
 30
0.0
 10
161.998991
 20
335.300531
 30
0.0
 10
161.697465
 20
334.760737
 30
0.0
 11
176.329461
 21
349.921605
 31
0.0
 11
174.734799
 21
347.071417
 31
0.0
 11
170.802736
 21
345.222025
 31
0.0
 11
167.162431
 21
343.046323
 31
0.0
 11
164.737697
 21
339.827508
 31
0.0
 11
162.610363
 21
336.373502
 31
0.0
 11
161.697465
 21
334.760737
 31
0.0
  0
SPLINE
  5
16f
100
AcDbEntity
  8
0
 62
3
100
AcDbSpline
 70
0
 71
3
 72
10
 73
6
 74
4
 40
0.000000
 40
0.000000
 40
0.000000
 40
0.000000
 40
2.708409
 40
8.809991
 40
15.598989
 40
15.598989
 40
15.598989
 40
15.598989
 10
174.566572
 20
334.584438
 30
0.0
 10
175.220149
 20
335.205528
 30
0.0
 10
177.346122
 20
337.225829
 30
0.0
 10
181.494334
 20
340.492155
 30
0.0
 10
185.617004
 20
341.818771
 30
0.0
 10
187.788264
 20
342.517451
 30
0.0
 11
174.566572
 21
334.584438
 31
0.0
 11
176.547797
 21
336.431118
 31
0.0
 11
181.467176
 21
340.040690
 31
0.0
 11
187.788264
 21
342.517451
 31
0.0
  0
SPLINE
  5
170
100
AcDbEntity
  8
0
 62
3
100
AcDbSpline
 70
0
 71
3
 72
10
 73
6
 74
4
 40
0.000000
 40
0.000000
 40
0.000000
 40
0.000000
 40
8.423946
 40
17.228646
 40
25.197246
 40
25.197246
 40
25.197246
 40
25.197246
 10
187.788264
 20
342.517451
 30
0.0
 10
190.481881
 20
341.700147
 30
0.0
 10
195.990863
 20
340.028598
 30
0.0
 10
202.685537
 20
334.015869
 30
0.0
 10
203.820333
 20
328.425726
 30
0.0
 10
204.359447
 20
325.769981
 30
0.0
 11
187.788264
 21
342.517451
 31
0.0
 11
195.646421
 21
339.482284
 31
0.0
 11
201.992400
 21
333.378901
 31
0.0
 11
204.359447
 21
325.769981
 31
0.0
  0
SPLINE
  5
171
100
AcDbEntity
  8
0
 62
3
100
AcDbSpline
 70
0
 71
3
 72
10
 73
6
 74
4
 40
0.000000
 40
0.000000
 40
0.000000
 40
0.000000
 40
7.895156
 40
16.734856
 40
20.971960
 40
20.971960
 40
20.971960
 40
20.971960
 10
204.359447
 20
325.769981
 30
0.0
 10
202.676808
 20
323.725970
 30
0.0
 10
199.110226
 20
319.393410
 30
0.0
 10
193.110773
 20
315.642190
 30
0.0
 10
189.357092
 20
313.438581
 30
0.0
 10
188.140836
 20
312.724575
 30
0.0
 11
204.359447
 21
325.769981
 31
0.0
 11
199.039819
 21
319.936025
 31
0.0
 11
191.788260
 21
314.880811
 31
0.0
 11
188.140836
 21
312.724575
 31
0.0
  0
SPLINE
  5
172
100
AcDbEntity
  8
0
 62
3
100
AcDbSpline
 70
0
 71
3
 72
10
 73
6
 74
4
 40
0.000000
 40
0.000000
 40
0.000000
 40
0.000000
 40
3.876310
 40
12.717439
 40
22.396373
 40
22.396373
 40
22.396373
 40
22.396373
 10
130.317974
 20
337.757656
 30
0.0
 10
130.674745
 20
336.515994
 30
0.0
 10
131.845243
 20
332.442336
 30
0.0
 10
134.132911
 20
325.321811
 30
0.0
 10
136.721733
 20
319.711355
 30
0.0
 10
138.074700
 20
316.779224
 30
0.0
 11
130.317974
 21
337.757656
 31
0.0
 11
131.400227
 21
334.035492
 31
0.0
 11
134.206197
 21
325.651454
 31
0.0
 11
138.074700
 21
316.779224
 31
0.0
  0
SPLINE
  5
173
100
AcDbEntity
  8
0
 62
3
100
AcDbSpline
 70
0
 71
3
 72
10
 73
6
 74
4
 40
0.000000
 40
0.000000
 40
0.000000
 40
0.000000
 40
4.972650
 40
10.248573
 40
15.291542
 40
15.291542
 40
15.291542
 40
15.291542
 10
138.074700
 20
316.779224
 30
0.0
 10
137.510417
 20
315.193445
 30
0.0
 10
136.347436
 20
311.925174
 30
0.0
 10
132.485714
 20
308.425192
 30
0.0
 10
130.082257
 20
305.984405
 30
0.0
 10
128.907658
 20
304.791562
 30
0.0
 11
138.074700
 21
316.779224
 31
0.0
 11
136.046328
 21
312.239075
 31
0.0
 11
132.479813
 21
308.351231
 31
0.0
 11
128.907658
 21
304.791562
 31
0.0
  0
SPLINE
  5
174
100
AcDbEntity
  8
0
 62
3
100
AcDbSpline
 70
0
 71
3
 72
10
 73
6
 74
4
 40
0.000000
 40
0.000000
 40
0.000000
 40
0.000000
 40
6.666924
 40
13.751468
 40
17.111168
 40
17.111168
 40
17.111168
 40
17.111168
 10
128.907658
 20
304.791562
 30
0.0
 10
126.679984
 20
304.527093
 30
0.0
 10
122.085093
 20
303.981587
 30
0.0
 10
116.504364
 20
305.596300
 30
0.0
 10
113.217504
 20
306.721401
 30
0.0
 10
112.160188
 20
307.083323
 30
0.0
 11
128.907658
 21
304.791562
 31
0.0
 11
122.250470
 21
304.431385
 31
0.0
 11
115.344499
 21
306.011994
 31
0.0
 11
112.160188
 21
307.083323
 31
0.0
  0
SPLINE
  5
175
100
AcDbEntity
  8
0
 62
3
100
AcDbSpline
 70
0
 71
3
 72
13
 73
9
 74
7
 40
0.000000
 40
0.000000
 40
0.000000
 40
0.000000
 40
12.672663
 40
21.613636
 40
27.462075
 40
36.885259
 40
44.764153
 40
55.943513
 40
55.943513
 40
55.943513
 40
55.943513
 10
107.576666
 20
291.217298
 30
0.0
 10
111.406302
 20
289.445389
 30
0.0
 10
117.937871
 20
286.423341
 30
0.0
 10
124.645909
 20
279.355062
 30
0.0
 10
125.188922
 20
270.760794
 30
0.0
 10
119.013997
 20
264.190726
 30
0.0
 10
109.318031
 20
263.727807
 30
0.0
 10
103.220436
 20
261.942675
 30
0.0
 10
99.643654
 20
260.895537
 30
0.0
 11
107.576666
 21
291.217298
 31
0.0
 11
118.635128
 21
285.028047
 31
0.0
 11
124.202207
 21
278.031718
 31
0.0
 11
124.461121
 21
272.189013
 31
0.0
 11
118.223844
 21
265.125531
 31
0.0
 11
110.508340
 21
263.529297
 31
0.0
 11
99.643654
 21
260.895537
 31
0.0
  0
SPLINE
  5
176
100
AcDbEntity
  8
0
 62
3
100
AcDbSpline
 70
0
 71
3
 72
13
 73
9
 74
7
 40
0.000000
 40
0.000000
 40
0.000000
 40
0.000000
 40
3.424432
 40
10.614215
 40
17.333152
 40
23.705392
 40
30.291180
 40
36.550544
 40
36.550544
 40
36.550544
 40
36.550544
 10
99.467367
 20
242.737764
 30
0.0
 10
100.588397
 20
242.960569
 30
0.0
 10
104.063091
 20
243.651164
 30
0.0
 10
109.767989
 20
244.254453
 30
0.0
 10
116.849679
 20
243.310777
 30
0.0
 10
121.419052
 20
238.211490
 30
0.0
 10
124.587421
 20
232.468058
 30
0.0
 10
124.528935
 20
228.112629
 30
0.0
 10
124.500436
 20
225.990255
 30
0.0
 11
99.467367
 21
242.737764
 31
0.0
 11
102.832412
 21
243.372749
 31
0.0
 11
109.997466
 21
243.968550
 31
0.0
 11
116.567410
 21
242.561438
 31
0.0
 11
121.158415
 21
238.142376
 31
0.0
 11
124.069170
 21
232.234744
 31
0.0
 11
124.500436
 21
225.990255
 31
0.0
  0
SPLINE
  5
177
100
AcDbEntity
  8
0
 62
3
100
AcDbSpline
 70
0
 71
3
 72
10
 73
6
 74
4
 40
0.000000
 40
0.000000
 40
0.000000
 40
0.000000
 40
12.835517
 40
22.889393
 40
27.038480
 40
27.038480
 40
27.038480
 40
27.038480
 10
124.500436
 20
225.990255
 30
0.0
 10
120.919749
 20
223.610139
 30
0.0
 10
114.534362
 20
219.365712
 30
0.0
 10
108.646586
 20
212.410983
 30
0.0
 10
106.044924
 20
208.458300
 30
0.0
 10
105.284906
 20
207.303610
 30
0.0
 11
124.500436
 21
225.990255
 31
0.0
 11
114.198958
 21
218.333229
 31
0.0
 11
107.606873
 21
210.742126
 31
0.0
 11
105.284906
 21
207.303610
 31
0.0
  0
SPLINE
  5
178
100
AcDbEntity
  8
0
 62
3
100
AcDbSpline
 70
0
 71
3
 72
10
 73
6
 74
4
 40
0.000000
 40
0.000000
 40
0.000000
 40
0.000000
 40
13.302990
 40
25.590113
 40
36.257539
 40
36.257539
 40
36.257539
 40
36.257539
 10
113.570504
 20
196.549991
 30
0.0
 10
115.351413
 20
200.564966
 30
0.0
 10
118.777234
 20
208.288317
 30
0.0
 10
128.611395
 20
217.530770
 30
0.0
 10
136.516513
 20
216.084863
 30
0.0
 10
140.190175
 20
215.412922
 30
0.0
 11
113.570504
 21
196.549991
 31
0.0
 11
119.863136
 21
208.270585
 31
0.0
 11
129.531822
 21
215.852794
 31
0.0
 11
140.190175
 21
215.412922
 31
0.0
  0
SPLINE
  5
179
100
AcDbEntity
  8
0
 62
3
100
AcDbSpline
 70
0
 71
3
 72
10
 73
6
 74
4
 40
0.000000
 40
0.000000
 40
0.000000
 40
0.000000
 40
11.744048
 40
22.237716
 40
31.896866
 40
31.896866
 40
31.896866
 40
31.896866
 10
140.190175
 20
215.412922
 30
0.0
 10
141.587735
 20
211.449989
 30
0.0
 10
144.234057
 20
203.946055
 30
0.0
 10
137.016035
 20
194.855420
 30
0.0
 10
135.705780
 20
188.254823
 30
0.0
 10
135.077781
 20
185.091188
 30
0.0
 11
140.190175
 21
215.412922
 31
0.0
 11
142.241273
 21
203.849373
 31
0.0
 11
137.708422
 21
194.385213
 31
0.0
 11
135.077781
 21
185.091188
 31
0.0
  0
SPLINE
  5
17a
100
AcDbEntity
  8
0
 62
3
100
AcDbSpline
 70
0
 71
3
 72
10
 73
6
 74
4
 40
0.000000
 40
0.000000
 40
0.000000
 40
0.000000
 40
8.257989
 40
24.178449
 40
38.813281
 40
38.813281
 40
38.813281
 40
38.813281
 10
144.773696
 20
179.978755
 30
0.0
 10
144.926536
 20
182.692369
 30
0.0
 10
145.374033
 20
190.637520
 30
0.0
 10
148.437545
 20
204.673789
 30
0.0
 10
158.356813
 20
208.835913
 30
0.0
 10
163.107768
 20
210.829414
 30
0.0
 11
144.773696
 21
179.978755
 31
0.0
 11
145.402631
 21
188.212759
 31
0.0
 11
150.577172
 21
203.268826
 31
0.0
 11
163.107768
 21
210.829414
 31
0.0
  0
LWPOLYLINE
  5
17b
100
AcDbEntity
  8
0
 62
3
100
AcDbPolyline
 90
2
 70
0
 10
190.432597
 20
227.047999
 30
0.0
 10
194.663546
 20
224.932524
 30
0.0
  0
SPLINE
  5
17c
100
AcDbEntity
  8
0
 62
3
100
AcDbSpline
 70
0
 71
3
 72
10
 73
6
 74
4
 40
0.000000
 40
0.000000
 40
0.000000
 40
0.000000
 40
6.997173
 40
18.189416
 40
37.007851
 40
37.007851
 40
37.007851
 40
37.007851
 10
163.107768
 20
210.829414
 30
0.0
 10
164.540529
 20
208.934746
 30
0.0
 10
168.265044
 20
204.009483
 30
0.0
 10
168.356922
 20
190.949786
 30
0.0
 10
174.665425
 20
182.798399
 30
0.0
 10
178.621221
 20
177.687007
 30
0.0
 11
163.107768
 21
210.829414
 31
0.0
 11
166.861573
 21
204.924384
 31
0.0
 11
169.205049
 21
193.980233
 31
0.0
 11
178.621221
 21
177.687007
 31
0.0
  0
SPLINE
  5
17d
100
AcDbEntity
  8
0
 62
3
100
AcDbSpline
 70
0
 71
3
 72
10
 73
6
 74
4
 40
0.000000
 40
0.000000
 40
0.000000
 40
0.000000
 40
7.953690
 40
14.769940
 40
21.802002
 40
21.802002
 40
21.802002
 40
21.802002
 10
155.703628
 20
246.792400
 30
0.0
 10
155.570600
 20
243.388967
 30
0.0
 10
155.323570
 20
237.068819
 30
0.0
 10
146.303346
 20
240.662247
 30
0.0
 10
142.248960
 20
238.297384
 30
0.0
 10
140.190175
 20
237.096525
 30
0.0
 11
155.703628
 21
246.792400
 31
0.0
 11
153.604117
 21
239.120813
 31
0.0
 11
146.798466
 21
239.500768
 31
0.0
 11
140.190175
 21
237.096525
 31
0.0
  0
SPLINE
  5
17e
100
AcDbEntity
  8
0
 62
3
100
AcDbSpline
 70
0
 71
3
 72
10
 73
6
 74
4
 40
0.000000
 40
0.000000
 40
0.000000
 40
0.000000
 40
8.904571
 40
17.923979
 40
31.189900
 40
31.189900
 40
31.189900
 40
31.189900
 10
172.803683
 20
241.503747
 30
0.0
 10
171.852045
 20
238.724768
 30
0.0
 10
169.936495
 20
233.130970
 30
0.0
 10
168.476359
 20
222.107713
 30
0.0
 10
174.062129
 20
216.474494
 30
0.0
 10
177.387204
 20
213.121175
 30
0.0
 11
172.803683
 21
241.503747
 31
0.0
 11
170.214443
 21
232.983934
 31
0.0
 11
169.761005
 21
223.975931
 31
0.0
 11
177.387204
 21
213.121175
 31
0.0
  0
LWPOLYLINE
  5
17f
100
AcDbEntity
  8
0
 62
3
100
AcDbPolyline
 90
2
 70
0
 10
146.889170
 20
263.892456
 30
0.0
 10
155.703628
 20
246.792400
 30
0.0
  0
ENDSEC
  0
SECTION
  2
OBJECTS
  0
DICTIONARY
  5
C
330
0
100
AcDbDictionary
  3
ACAD_GROUP
350
D
  3
ACAD_MLINESTYLE
350
17
  0
DICTIONARY
  5
D
330
C
100
AcDbDictionary
  0
DICTIONARY
  5
1A
330
C
100
AcDbDictionary
  0
DICTIONARY
  5
17
330
C
100
AcDbDictionary
  3
STANDARD
350
18
  0
DICTIONARY
  5
19
330
C
100
AcDbDictionary
  0
ENDSEC
  0
EOF
